  0
SECTION
  2
HEADER
  9
$ACADVER
  1
AC1009
  9
$INSBASE
 10
0.0
 20
0.0
 30
0.0
  9
$EXTMIN
 10
-67.461824462967456
 20
-50.007933964949871
 30
-0.0015258207003583
  9
$EXTMAX
 10
174.63963660697181
 20
75.00122115133172
 30
0.0000000349246037
  9
$LIMMIN
 10
0.0
 20
0.0
  9
$LIMMAX
 10
297.0
 20
210.0
  9
$ORTHOMODE
 70
     0
  9
$REGENMODE
 70
     1
  9
$FILLMODE
 70
     1
  9
$QTEXTMODE
 70
     0
  9
$MIRRTEXT
 70
     1
  9
$DRAGMODE
 70
     2
  9
$LTSCALE
 40
10.0
  9
$OSMODE
 70
    63
  9
$ATTMODE
 70
     1
  9
$TEXTSIZE
 40
3.0
  9
$TRACEWID
 40
1.0
  9
$TEXTSTYLE
  7
YOKO
  9
$CLAYER
  8
240
  9
$CELTYPE
  6
BYLAYER
  9
$CECOLOR
 62
   256
  9
$DIMSCALE
 40
1.0
  9
$DIMASZ
 40
2.2299999999999991
  9
$DIMEXO
 40
0.5
  9
$DIMDLI
 40
7.0
  9
$DIMRND
 40
0.0
  9
$DIMDLE
 40
0.0
  9
$DIMEXE
 40
1.0
  9
$DIMTP
 40
0.0
  9
$DIMTM
 40
0.01
  9
$DIMTXT
 40
2.799999999999998
  9
$DIMCEN
 40
0.0
  9
$DIMTSZ
 40
0.0
  9
$DIMTOL
 70
     0
  9
$DIMLIM
 70
     0
  9
$DIMTIH
 70
     0
  9
$DIMTOH
 70
     0
  9
$DIMSE1
 70
     0
  9
$DIMSE2
 70
     0
  9
$DIMTAD
 70
     3
  9
$DIMZIN
 70
     9
  9
$DIMBLK
  1
OPEN
  9
$DIMASO
 70
     1
  9
$DIMSHO
 70
     1
  9
$DIMPOST
  1

  9
$DIMAPOST
  1

  9
$DIMALT
 70
     0
  9
$DIMALTD
 70
     2
  9
$DIMALTF
 40
25.399999999999999
  9
$DIMLFAC
 40
1.0
  9
$DIMTOFL
 70
     1
  9
$DIMTVP
 40
0.0
  9
$DIMTIX
 70
     1
  9
$DIMSOXD
 70
     0
  9
$DIMSAH
 70
     0
  9
$DIMBLK1
  1

  9
$DIMBLK2
  1

  9
$DIMSTYLE
  2
BIGT
  9
$DIMCLRD
 70
   256
  9
$DIMCLRE
 70
   256
  9
$DIMCLRT
 70
    40
  9
$DIMTFAC
 40
1.0
  9
$DIMGAP
 40
1.0
  9
$LUNITS
 70
     2
  9
$LUPREC
 70
     6
  9
$SKETCHINC
 40
1.0
  9
$FILLETRAD
 40
0.0
  9
$AUNITS
 70
     0
  9
$AUPREC
 70
     6
  9
$MENU
  1
.
  9
$ELEVATION
 40
0.0
  9
$PELEVATION
 40
0.0
  9
$THICKNESS
 40
0.0
  9
$LIMCHECK
 70
     0
  9
$BLIPMODE
 70
     0
  9
$CHAMFERA
 40
0.2
  9
$CHAMFERB
 40
0.2
  9
$SKPOLY
 70
     0
  9
$TDCREATE
 40
2457241.7474626391
  9
$TDUPDATE
 40
2457242.4183420371
  9
$TDINDWG
 40
0.0066750116
  9
$TDUSRTIMER
 40
0.0066749537
  9
$USRTIMER
 70
     1
  9
$ANGBASE
 50
0.0
  9
$ANGDIR
 70
     0
  9
$PDMODE
 70
     1
  9
$PDSIZE
 40
0.0
  9
$PLINEWID
 40
0.0
  9
$COORDS
 70
     1
  9
$SPLFRAME
 70
     0
  9
$SPLINETYPE
 70
     6
  9
$SPLINESEGS
 70
     4
  9
$ATTDIA
 70
     1
  9
$ATTREQ
 70
     1
  9
$HANDLING
 70
     1
  9
$HANDSEED
  5
4B49
  9
$SURFTAB1
 70
     6
  9
$SURFTAB2
 70
     6
  9
$SURFTYPE
 70
     6
  9
$SURFU
 70
     6
  9
$SURFV
 70
     6
  9
$UCSNAME
  2

  9
$UCSORG
 10
0.0
 20
0.0
 30
0.0
  9
$UCSXDIR
 10
1.0
 20
0.0
 30
0.0
  9
$UCSYDIR
 10
0.0
 20
1.0
 30
0.0
  9
$PUCSNAME
  2

  9
$PUCSORG
 10
0.0
 20
0.0
 30
0.0
  9
$PUCSXDIR
 10
1.0
 20
0.0
 30
0.0
  9
$PUCSYDIR
 10
0.0
 20
1.0
 30
0.0
  9
$USERI1
 70
     1
  9
$USERI2
 70
     0
  9
$USERI3
 70
     0
  9
$USERI4
 70
     0
  9
$USERI5
 70
     0
  9
$USERR1
 40
0.0
  9
$USERR2
 40
0.0
  9
$USERR3
 40
0.0
  9
$USERR4
 40
0.0
  9
$USERR5
 40
0.0
  9
$WORLDVIEW
 70
     1
  9
$SHADEDGE
 70
     3
  9
$SHADEDIF
 70
    70
  9
$TILEMODE
 70
     1
  9
$MAXACTVP
 70
    16
  9
$PLIMCHECK
 70
     0
  9
$PEXTMIN
 10
1.0000000000000000E+020
 20
1.0000000000000000E+020
 30
1.0000000000000000E+020
  9
$PEXTMAX
 10
-1.0000000000000000E+020
 20
-1.0000000000000000E+020
 30
-1.0000000000000000E+020
  9
$PLIMMIN
 10
0.0
 20
0.0
  9
$PLIMMAX
 10
420.0
 20
297.0
  9
$UNITMODE
 70
     0
  9
$VISRETAIN
 70
     1
  9
$PLINEGEN
 70
     0
  9
$PSLTSCALE
 70
     1
  0
ENDSEC
  0
SECTION
  2
TABLES
  0
TABLE
  2
VPORT
 70
     1
  0
VPORT
  2
*ACTIVE
 70
     0
 10
0.0
 20
0.0
 11
1.0
 21
1.0
 12
53.588906072002189
 22
12.49664359319093
 13
0.0
 23
0.0
 14
7.0
 24
7.0
 15
7.0
 25
7.0
 16
0.0
 26
0.0
 36
1.0
 17
0.0
 27
0.0
 37
0.0
 40
169.42920730490951
 41
1.4355016538037479
 42
50.0
 43
0.0
 44
0.0
 50
0.0
 51
0.0
 71
     0
 72
  2000
 73
     1
 74
     0
 75
     0
 76
     1
 77
     0
 78
     0
  0
ENDTAB
  0
TABLE
  2
LTYPE
 70
    22
  0
LTYPE
  2
CONTINUOUS
 70
     0
  3
Solid line
 72
    65
 73
     0
 40
0.0
  0
LTYPE
  2
CENTER2
 70
     0
  3
___ _ ___ _ ___ _ ___ _ ___ _ ___ _ ___ _ ___ _
 72
    65
 73
     4
 40
1.125
 49
0.75
 49
-0.125
 49
0.125
 49
-0.125
  0
LTYPE
  2
HIDDEN2
 70
     0
  3
_ _ _ _ _ _ _ _ _ _ _ _ _ _ _ _ _ _ _ _ _ _ _ _
 72
    65
 73
     2
 40
0.1875
 49
0.125
 49
-0.0625
  0
LTYPE
  2
PHANTOM2
 70
     0
  3
___ _ _ ___ _ _ ___ _ _ ___ _ _ ___ _ _ ___ _ _
 72
    65
 73
     6
 40
1.25
 49
0.625
 49
-0.125
 49
0.125
 49
-0.125
 49
0.125
 49
-0.125
  0
LTYPE
  2
AM_ISO02W050
 70
     0
  3
__ __ __ __ __ __ __ __ __ __ __ __ __ __ __
 72
    65
 73
     2
 40
7.5
 49
6.0
 49
-1.5
  0
LTYPE
  2
AMCONSTR
 70
     0
  3
_______________________
 72
    65
 73
     2
 40
9999.0
 49
9999.0
 49
0.0
  0
LTYPE
  2
ACISOWELD
 70
     0
  3
_ _ _ _ _
 72
    65
 73
     2
 40
2.0
 49
2.0
 49
-1.0
  0
LTYPE
  2
ACISOTGB
 70
     0
  3
__ . . __ . .
 72
    65
 73
     6
 40
9.0
 49
4.0
 49
-1.0
 49
1.0
 49
-1.0
 49
1.0
 49
-1.0
  0
LTYPE
  2
ACISOTGL
 70
     0
  3
_ _ _ _ _
 72
    65
 73
     2
 40
3.0
 49
2.0
 49
-1.0
  0
LTYPE
  2
ACJISTGB
 70
     0
  3
__ . . __ . .
 72
    65
 73
     6
 40
9.0
 49
4.0
 49
-1.0
 49
1.0
 49
-1.0
 49
1.0
 49
-1.0
  0
LTYPE
  2
ACJISTGL
 70
     0
  3
_ _ _ _ _
 72
    65
 73
     2
 40
3.0
 49
2.0
 49
-1.0
  0
LTYPE
  2
HIDDEN
 70
     0
  3
Hidden __ __ __ __ __ __ __ __ __ __ __ __ __ _
 72
    65
 73
     2
 40
0.375
 49
0.25
 49
-0.125
  0
LTYPE
  2
CENTER
 70
     0
  3
Center ____ _ ____ _ ____ _ ____ _ ____ _ ____
 72
    65
 73
     4
 40
2.0
 49
1.25
 49
-0.25
 49
0.25
 49
-0.25
  0
LTYPE
  2
AM_ISO08W050
 70
     0
  3
____ . ____ . ____ . ____ . ____ . ____ . ____
 72
    65
 73
     4
 40
18.0
 49
12.0
 49
-1.5
 49
3.0
 49
-1.5
  0
LTYPE
  2
AM_ISO09W050
 70
     0
  3
_____ . . _____ . . _____ . . ____ .. ____
 72
    65
 73
     6
 40
22.5
 49
12.0
 49
-1.5
 49
3.0
 49
-1.5
 49
3.0
 49
-1.5
  0
LTYPE
  2
AM_ISO08W050X2
 70
     0
  3
__ . __ . __ . __ . __ . __
 72
    65
 73
     4
 40
9.0
 49
6.0
 49
-0.75
 49
1.5
 49
-0.75
  0
LTYPE
  2
AM_ISO02W050X2
 70
     0
  3
 _ _ _ _ _ _ _ _ _ _ _ _
 72
    65
 73
     2
 40
3.75
 49
3.0
 49
-0.75
  0
LTYPE
  2
AMZIGZAG
 70
     0
  3
/\/-/\/-/\/-/\/-/\/-/\/
 72
    65
 73
     2
 40
11.0001
 49
0.0001
 49
-11.0
  0
LTYPE
  2
AMZIGZAG2
 70
     0
  3
/\/-/\/-/\/-/\/-/\/-/\/
 72
    65
 73
     2
 40
0.4401
 49
0.0001
 49
-0.4400000000000001
  0
LTYPE
  2
ACANSTGB
 70
     0
  3
__ . . __ . .
 72
    65
 73
     6
 40
0.35433070866
 49
0.15748031496
 49
-0.03937007874
 49
0.03937007874
 49
-0.03937007874
 49
0.03937007874
 49
-0.03937007874
  0
LTYPE
  2
ACANSTGL
 70
     0
  3
_ _ _ _ _
 72
    65
 73
     2
 40
0.11811023622
 49
0.07874015748
 49
-0.03937007874
  0
ENDTAB
  0
TABLE
  2
LAYER
 70
    11
  0
LAYER
  2
0
 70
     0
 62
     7
  6
CONTINUOUS
  0
LAYER
  2
241
 70
     0
 62
   211
  6
CONTINUOUS
  0
LAYER
  2
DEFPOINTS
 70
     0
 62
     7
  6
CONTINUOUS
  0
LAYER
  2
245
 70
     0
 62
     2
  6
CENTER2
  0
LAYER
  2
240
 70
     0
 62
     4
  6
CONTINUOUS
  0
LAYER
  2
242
 70
     0
 62
     3
  6
CONTINUOUS
  0
LAYER
  2
243
 70
     0
 62
   211
  6
HIDDEN2
  0
LAYER
  2
244
 70
     0
 62
     3
  6
HIDDEN2
  0
LAYER
  2
246
 70
     0
 62
     3
  6
PHANTOM2
  0
LAYER
  2
250
 70
     0
 62
     3
  6
CONTINUOUS
  0
LAYER
  2
AM_5
 70
     0
 62
     3
  6
CONTINUOUS
  0
ENDTAB
  0
TABLE
  2
STYLE
 70
    10
  0
STYLE
  2
STANDARD
 70
     0
 40
0.0
 41
1.0
 50
0.0
 71
     0
 42
3.0
  3
romans.shx
  4
extfont.shx
  0
STYLE
  2
ANNOTATIVE
 70
     0
 40
0.0
 41
1.0
 50
0.0
 71
     0
 42
0.2
  3
txt
  4

  0
STYLE
  2
YOKO
 70
     0
 40
0.0
 41
1.0
 50
0.0
 71
     0
 42
3.0
  3
romans.shx
  4
extfont.shx
  0
STYLE
  2
ACISOTS
 70
     0
 40
1.0
 41
1.0
 50
0.0
 71
     0
 42
3.0
  3
amgdt.shx
  4
extfont.shx
  0
STYLE
  2
ACISOGDT
 70
     0
 40
0.0
 41
1.0
 50
0.0
 71
     0
 42
3.0
  3
amgdt.shx
  4
extfont.shx
  0
STYLE
  2
ACJISTS
 70
     0
 40
1.0
 41
1.0
 50
0.0
 71
     0
 42
3.0
  3
amgdt.shx
  4
extfont.shx
  0
STYLE
  2
ACJISGDT
 70
     0
 40
0.0
 41
1.0
 50
0.0
 71
     0
 42
3.0
  3
amgdt.shx
  4
extfont.shx
  0
STYLE
  2

 70
     1
 40
0.0
 41
1.0
 50
0.0
 71
     0
 42
3.0
  3
genltshp.shx
  4

  0
STYLE
  2
ACANSTS
 70
     0
 40
0.0
 41
1.0
 50
0.0
 71
     0
 42
3.0
  3
romans.shx
  4
extfont.shx
  0
STYLE
  2
ACANSGDT
 70
     0
 40
0.0
 41
1.0
 50
0.0
 71
     0
 42
3.0
  3
amgdt.shx
  4

  0
ENDTAB
  0
TABLE
  2
VIEW
 70
     0
  0
ENDTAB
  0
TABLE
  2
UCS
 70
     0
  0
ENDTAB
  0
TABLE
  2
APPID
 70
    42
  0
APPID
  2
ACAD
 70
     0
  0
APPID
  2
ACADANNOTATIVE
 70
     0
  0
APPID
  2
GLOBAL
 70
     0
  0
APPID
  2
DETAIL
 70
     0
  0
APPID
  2
GRPNAME
 70
     0
  0
APPID
  2
GPARA
 70
     0
  0
APPID
  2
MCAD_NO_VIS
 70
     0
  0
APPID
  2
ACAD_TEMP_GRAPHIC
 70
     0
  0
APPID
  2
ACATTRIBSERVICES
 70
     0
  0
APPID
  2
GENIUS_GENSCREG_15
 70
     0
  0
APPID
  2
GENIUS_GENODEF_13
 70
     0
  0
APPID
  2
GENIUS_GENOBJ-N-SDF_13
 70
     0
  0
APPID
  2
GENIUS_GENREC_14
 70
     0
  0
APPID
  2
GENIUS_GENOBJ-N-REC_13
 70
     0
  0
APPID
  2
GENIUS_GENDIMSH_14
 70
     0
  0
APPID
  2
GENIUS_GENOBJ-N-DIM_13
 70
     0
  0
APPID
  2
GENIUS_GENDIM_13
 70
     0
  0
APPID
  2
GENIUS_GENDTOL_13
 70
     0
  0
APPID
  2
GENIUS_GENOLIS_13
 70
     0
  0
APPID
  2
GENIUS_GENOENT_13
 70
     0
  0
APPID
  2
GENIUS_GENOBJ-F-FEM_13
 70
     0
  0
APPID
  2
GENIUS_GENOREF_13
 70
     0
  0
APPID
  2
GENIUS_GEFFEM_13
 70
     0
  0
APPID
  2
GENIUS_GEFFEMP_13
 70
     0
  0
APPID
  2
AD_DRAW
 70
     0
  0
APPID
  2
DESIGNERASSEMBLIES
 70
     0
  0
APPID
  2
ACADM_DIM_EDIT
 70
     0
  0
APPID
  2
AMDT_DM_ADJ
 70
     0
  0
APPID
  2
ITEMNAME
 70
     0
  0
APPID
  2
GENIUS_GENOBJ-N-FIL_13
 70
     0
  0
APPID
  2
GENIUS_GENFIL_13
 70
     0
  0
APPID
  2
GENIUS_GENOBJ-N-CHA_13
 70
     0
  0
APPID
  2
ACAD_NAV_VCDISPLAY
 70
     0
  0
APPID
  2
ACAD_DSTYLE_DIMINSPECT
 70
     0
  0
APPID
  2
ACAD_EXEMPT_FROM_CAD_STANDARDS
 70
     0
  0
APPID
  2
ACAD_DSTYLE_DIMJAG
 70
     0
  0
APPID
  2
ACAD_DSTYLE_DIMBREAK
 70
     0
  0
APPID
  2
ACAD_MLEADERVER
 70
     0
  0
APPID
  2
ACAD_DSTYLE_DIMARC_LENGTH_
 70
     0
  0
APPID
  2
ACAD_DSTYLE_DIM_LINETYPE
 70
     0
  0
APPID
  2
ACAD_DSTYLE_DIM_EXT1_LINETYPE
 70
     0
  0
APPID
  2
ACAD_DSTYLE_DIM_EXT2_LINETYPE
 70
     0
  0
ENDTAB
  0
TABLE
  2
DIMSTYLE
 70
    32
  0
DIMSTYLE
  2
STANDARD
 70
     0
  3

  4

  5

  6

  7

 40
1.0
 41
0.18
 42
0.0625
 43
0.38
 44
0.18
 45
0.0
 46
0.0
 47
0.0
 48
0.0
140
0.18
141
0.09
142
0.0
143
25.399999999999999
144
1.0
145
0.0
146
1.0
147
0.09
 71
     0
 72
     0
 73
     1
 74
     1
 75
     0
 76
     0
 77
     0
 78
     0
170
     0
171
     2
172
     0
173
     0
174
     0
175
     0
176
     0
177
     0
178
     0
  0
DIMSTYLE
  2
ANNOTATIVE
 70
     0
  3

  4

  5

  6

  7

 40
1.0
 41
0.18
 42
0.0625
 43
0.38
 44
0.18
 45
0.0
 46
0.0
 47
0.0
 48
0.0
140
0.18
141
0.09
142
0.0
143
25.399999999999999
144
1.0
145
0.0
146
1.0
147
0.09
 71
     0
 72
     0
 73
     1
 74
     1
 75
     0
 76
     0
 77
     0
 78
     0
170
     0
171
     2
172
     0
173
     0
174
     0
175
     0
176
     0
177
     0
178
     0
  0
DIMSTYLE
  2
BIGT
 70
     0
  3

  4

  5

  6

  7

 40
1.0
 41
2.2299999999999991
 42
0.5
 43
7.0
 44
1.0
 45
0.0
 46
0.0
 47
0.0
 48
0.01
140
2.799999999999998
141
0.0
142
0.0
143
25.399999999999999
144
1.0
145
0.0
146
1.0
147
1.0
 71
     0
 72
     0
 73
     0
 74
     0
 75
     0
 76
     0
 77
     3
 78
     9
170
     0
171
     2
172
     1
173
     0
174
     1
175
     0
176
   256
177
   256
178
    40
  0
DIMSTYLE
  2
AM_ISO
 70
     0
  3

  4
"
  5

  6

  7

 40
1.0
 41
2.5
 42
1.0
 43
10.0
 44
1.0
 45
0.0
 46
0.0
 47
0.1
 48
0.1
140
3.5
141
0.0
142
0.0
143
0.0393701
144
1.0
145
0.0
146
0.71
147
1.5
 71
     0
 72
     0
 73
     0
 74
     0
 75
     0
 76
     0
 77
     1
 78
     8
170
     0
171
     2
172
     1
173
     0
174
     0
175
     0
176
   256
177
   256
178
     2
  0
DIMSTYLE
  2
AM_ISO$3
 70
     0
  3

  4
"
  5

  6

  7

 40
1.0
 41
2.5
 42
1.0
 43
10.0
 44
1.0
 45
0.0
 46
0.0
 47
0.1
 48
0.1
140
3.5
141
0.0
142
0.0
143
0.0393701
144
1.0
145
0.0
146
0.71
147
1.5
 71
     0
 72
     0
 73
     0
 74
     1
 75
     0
 76
     0
 77
     1
 78
     8
170
     0
171
     2
172
     0
173
     0
174
     0
175
     0
176
   256
177
   256
178
     2
  0
DIMSTYLE
  2
AM_ISO$4
 70
     0
  3

  4
"
  5

  6

  7

 40
1.0
 41
2.5
 42
1.0
 43
10.0
 44
1.0
 45
0.0
 46
0.0
 47
0.1
 48
0.1
140
3.5
141
0.0
142
0.0
143
0.0393701
144
1.0
145
0.0
146
0.71
147
1.5
 71
     0
 72
     0
 73
     0
 74
     1
 75
     0
 76
     0
 77
     1
 78
     8
170
     0
171
     2
172
     0
173
     0
174
     0
175
     0
176
   256
177
   256
178
     2
  0
DIMSTYLE
  2
AM_ISO$6
 70
     0
  3

  4
"
  5

  6

  7

 40
1.0
 41
2.5
 42
1.0
 43
10.0
 44
1.0
 45
0.0
 46
0.0
 47
0.1
 48
0.1
140
3.5
141
0.0
142
0.0
143
0.0393701
144
1.0
145
0.0
146
0.71
147
1.5
 71
     0
 72
     0
 73
     0
 74
     0
 75
     0
 76
     0
 77
     0
 78
     8
170
     0
171
     2
172
     1
173
     0
174
     0
175
     0
176
   256
177
   256
178
     2
  0
DIMSTYLE
  2
AM_ISO$7
 70
     0
  3

  4
"
  5

  6

  7

 40
1.0
 41
2.5
 42
1.0
 43
10.0
 44
1.0
 45
0.0
 46
0.0
 47
0.1
 48
0.1
140
5.0
141
0.0
142
0.0
143
0.0393701
144
1.0
145
0.0
146
0.71
147
1.5
 71
     0
 72
     0
 73
     0
 74
     0
 75
     0
 76
     0
 77
     1
 78
     8
170
     0
171
     2
172
     1
173
     0
174
     0
175
     0
176
   256
177
   256
178
     2
  0
DIMSTYLE
  2
AM_ISO$SF
 70
     0
  3

  4
"
  5

  6

  7

 40
1.0
 41
2.5
 42
1.0
 43
10.0
 44
1.0
 45
0.0
 46
0.0
 47
0.1
 48
0.1
140
3.5
141
0.0
142
0.0
143
0.0393701
144
1.0
145
0.0
146
0.71
147
1.5
 71
     0
 72
     0
 73
     0
 74
     0
 75
     1
 76
     1
 77
     1
 78
     8
170
     0
171
     2
172
     1
173
     0
174
     0
175
     0
176
   256
177
   256
178
     2
  0
DIMSTYLE
  2
AM_ISO$SH
 70
     0
  3

  4
"
  5

  6

  7

 40
1.0
 41
2.5
 42
1.0
 43
10.0
 44
1.0
 45
0.0
 46
0.0
 47
0.1
 48
0.1
140
3.5
141
0.0
142
0.0
143
0.0393701
144
2.0
145
0.0
146
0.71
147
1.5
 71
     0
 72
     0
 73
     0
 74
     0
 75
     1
 76
     1
 77
     1
 78
     8
170
     0
171
     2
172
     1
173
     1
174
     0
175
     0
176
   256
177
   256
178
     2
  0
DIMSTYLE
  2
BIGT$2
 70
     0
  3

  4

  5

  6

  7

 40
1.0
 41
2.2299999999999991
 42
0.5
 43
7.0
 44
1.0
 45
0.0
 46
0.0
 47
0.0
 48
0.01
140
2.799999999999998
141
0.0
142
0.0
143
25.399999999999999
144
1.0
145
0.0
146
1.0
147
1.0
 71
     0
 72
     0
 73
     0
 74
     0
 75
     0
 76
     0
 77
     3
 78
     9
170
     0
171
     2
172
     1
173
     0
174
     0
175
     0
176
   256
177
   256
178
    40
  0
DIMSTYLE
  2
BIGT$3
 70
     0
  3

  4

  5

  6

  7

 40
1.0
 41
2.2299999999999991
 42
0.5
 43
2.5
 44
1.0
 45
0.0
 46
0.0
 47
0.0
 48
0.01
140
2.799999999999998
141
0.0
142
0.0
143
25.399999999999999
144
1.0
145
0.0
146
1.0
147
1.0
 71
     0
 72
     0
 73
     0
 74
     0
 75
     0
 76
     0
 77
     3
 78
     9
170
     0
171
     2
172
     1
173
     0
174
     0
175
     0
176
   256
177
   256
178
    40
  0
DIMSTYLE
  2
BIGT$7
 70
     0
  3

  4

  5

  6

  7

 40
0.0
 41
2.2299999999999991
 42
0.5
 43
7.0
 44
1.0
 45
0.0
 46
0.0
 47
0.0
 48
0.01
140
2.799999999999998
141
0.0
142
0.0
143
25.399999999999999
144
1.0
145
0.0
146
1.0
147
1.0
 71
     0
 72
     0
 73
     0
 74
     0
 75
     0
 76
     0
 77
     3
 78
     9
170
     0
171
     2
172
     0
173
     0
174
     0
175
     0
176
   256
177
   256
178
    40
  0
DIMSTYLE
  2
BIGT$6
 70
     0
  3

  4

  5

  6

  7

 40
1.0
 41
2.2299999999999991
 42
0.5
 43
2.5
 44
1.0
 45
0.0
 46
0.0
 47
0.0
 48
0.01
140
2.799999999999998
141
0.0
142
0.0
143
25.399999999999999
144
1.0
145
0.0
146
1.0
147
1.0
 71
     0
 72
     0
 73
     0
 74
     0
 75
     0
 76
     0
 77
     3
 78
     9
170
     0
171
     2
172
     1
173
     0
174
     0
175
     0
176
   256
177
   256
178
    40
  0
DIMSTYLE
  2
BIGT$0
 70
     0
  3

  4

  5

  6

  7

 40
1.0
 41
2.2299999999999991
 42
0.5
 43
7.0
 44
1.0
 45
0.0
 46
0.0
 47
0.0
 48
0.01
140
2.799999999999998
141
0.0
142
0.0
143
25.399999999999999
144
1.0
145
0.0
146
1.0
147
1.0
 71
     0
 72
     0
 73
     0
 74
     0
 75
     0
 76
     0
 77
     3
 78
     9
170
     0
171
     2
172
     1
173
     0
174
     1
175
     0
176
   256
177
   256
178
    40
  0
DIMSTYLE
  2
BIGT$4
 70
     0
  3

  4

  5

  6

  7

 40
1.0
 41
2.2299999999999991
 42
0.5
 43
2.5
 44
1.0
 45
0.0
 46
0.0
 47
0.0
 48
0.01
140
2.799999999999998
141
0.0
142
0.0
143
25.399999999999999
144
1.0
145
0.0
146
1.0
147
1.0
 71
     0
 72
     0
 73
     0
 74
     0
 75
     0
 76
     0
 77
     3
 78
     9
170
     0
171
     2
172
     1
173
     0
174
     0
175
     0
176
   256
177
   256
178
    40
  0
DIMSTYLE
  2
BIGT$SH
 70
     0
  3

  4

  5

  6

  7

 40
1.0
 41
2.2299999999999991
 42
0.5
 43
7.0
 44
1.0
 45
0.0
 46
0.0
 47
0.0
 48
0.0
140
2.799999999999998
141
0.0
142
0.0
143
25.399999999999999
144
1.0
145
0.0
146
1.0
147
1.0
 71
     0
 72
     0
 73
     0
 74
     0
 75
     0
 76
     0
 77
     3
 78
     9
170
     0
171
     2
172
     1
173
     0
174
     0
175
     0
176
   256
177
   256
178
    40
  0
DIMSTYLE
  2
BIGT$SF
 70
     0
  3

  4

  5

  6

  7

 40
1.0
 41
2.2299999999999991
 42
0.5
 43
7.0
 44
1.0
 45
0.0
 46
0.0
 47
0.0
 48
0.0
140
2.799999999999998
141
0.0
142
0.0
143
25.399999999999999
144
1.0
145
0.0
146
1.0
147
1.0
 71
     0
 72
     0
 73
     0
 74
     0
 75
     0
 76
     0
 77
     3
 78
     9
170
     0
171
     2
172
     1
173
     0
174
     0
175
     0
176
   256
177
   256
178
    40
  0
DIMSTYLE
  2
TECHNICAL_OSAKA
 70
     0
  3

  4
"
  5

  6

  7

 40
1.0
 41
2.5
 42
1.0
 43
10.0
 44
1.0
 45
0.0
 46
0.0
 47
0.1
 48
0.1
140
2.799999999999998
141
0.0
142
0.0
143
0.0393701
144
1.0
145
0.0
146
0.71
147
1.5
 71
     0
 72
     0
 73
     0
 74
     0
 75
     0
 76
     0
 77
     3
 78
     8
170
     0
171
     2
172
     1
173
     0
174
     0
175
     0
176
   256
177
   256
178
    40
  0
DIMSTYLE
  2
TECHNICAL_OSAKA$3
 70
     0
  3

  4
"
  5

  6

  7

 40
1.0
 41
2.5
 42
1.0
 43
10.0
 44
1.0
 45
0.0
 46
0.0
 47
0.1
 48
0.1
140
2.799999999999998
141
0.0
142
0.0
143
0.0393701
144
1.0
145
0.0
146
0.71
147
1.5
 71
     0
 72
     0
 73
     0
 74
     1
 75
     0
 76
     0
 77
     3
 78
     8
170
     0
171
     2
172
     0
173
     0
174
     0
175
     0
176
   256
177
   256
178
    40
  0
DIMSTYLE
  2
TECHNICAL_OSAKA$4
 70
     0
  3

  4
"
  5

  6

  7

 40
1.0
 41
2.5
 42
1.0
 43
10.0
 44
1.0
 45
0.0
 46
0.0
 47
0.1
 48
0.1
140
2.799999999999998
141
0.0
142
0.0
143
0.0393701
144
1.0
145
0.0
146
0.71
147
1.5
 71
     0
 72
     0
 73
     0
 74
     1
 75
     0
 76
     0
 77
     3
 78
     8
170
     0
171
     2
172
     0
173
     0
174
     0
175
     0
176
   256
177
   256
178
    40
  0
DIMSTYLE
  2
TECHNICAL_OSAKA$6
 70
     0
  3

  4
"
  5

  6

  7

 40
1.0
 41
2.5
 42
1.0
 43
10.0
 44
1.0
 45
0.0
 46
0.0
 47
0.1
 48
0.1
140
2.799999999999998
141
0.0
142
0.0
143
0.0393701
144
1.0
145
0.0
146
0.71
147
1.5
 71
     0
 72
     0
 73
     0
 74
     0
 75
     0
 76
     0
 77
     0
 78
     8
170
     0
171
     2
172
     1
173
     0
174
     0
175
     0
176
   256
177
   256
178
    40
  0
DIMSTYLE
  2
TECHNICAL_OSAKA$7
 70
     0
  3

  4
"
  5

  6

  7

 40
1.0
 41
2.5
 42
1.0
 43
10.0
 44
1.0
 45
0.0
 46
0.0
 47
0.1
 48
0.1
140
2.799999999999998
141
0.0
142
0.0
143
0.0393701
144
1.0
145
0.0
146
0.71
147
1.5
 71
     0
 72
     0
 73
     0
 74
     0
 75
     0
 76
     0
 77
     3
 78
     8
170
     0
171
     2
172
     1
173
     0
174
     0
175
     0
176
   256
177
   256
178
    40
  0
DIMSTYLE
  2
TECHNICAL_OSAKA$SF
 70
     0
  3

  4
"
  5

  6

  7

 40
1.0
 41
2.5
 42
1.0
 43
10.0
 44
1.0
 45
0.0
 46
0.0
 47
0.1
 48
0.1
140
3.5
141
0.0
142
0.0
143
0.0393701
144
1.0
145
0.0
146
0.71
147
1.5
 71
     0
 72
     0
 73
     0
 74
     0
 75
     1
 76
     1
 77
     3
 78
     8
170
     0
171
     2
172
     1
173
     0
174
     0
175
     0
176
   256
177
   256
178
    40
  0
DIMSTYLE
  2
TECHNICAL_OSAKA$SH
 70
     0
  3

  4
"
  5

  6

  7

 40
1.0
 41
2.5
 42
1.0
 43
10.0
 44
1.0
 45
0.0
 46
0.0
 47
0.1
 48
0.1
140
3.5
141
0.0
142
0.0
143
0.0393701
144
2.0
145
0.0
146
0.71
147
1.5
 71
     0
 72
     0
 73
     0
 74
     0
 75
     1
 76
     1
 77
     3
 78
     8
170
     0
171
     2
172
     1
173
     1
174
     0
175
     0
176
   256
177
   256
178
    40
  0
DIMSTYLE
  2
AM_ANSI
 70
     0
  3

  4
mm
  5

  6

  7

 40
1.0
 41
0.12
 42
0.05
 43
0.5
 44
0.1
 45
0.0
 46
0.0
 47
0.1
 48
0.1
140
0.12
141
0.0
142
0.0
143
25.399999999999999
144
1.0
145
0.0
146
0.71
147
0.06
 71
     0
 72
     0
 73
     1
 74
     1
 75
     0
 76
     0
 77
     0
 78
     7
170
     0
171
     2
172
     0
173
     0
174
     0
175
     0
176
   256
177
   256
178
     2
  0
DIMSTYLE
  2
AM_ANSI$3
 70
     0
  3

  4
mm
  5

  6

  7

 40
1.0
 41
0.12
 42
0.05
 43
0.5
 44
0.1
 45
0.0
 46
0.0
 47
0.1
 48
0.1
140
0.12
141
0.0
142
0.0
143
25.399999999999999
144
1.0
145
0.0
146
0.71
147
0.06
 71
     0
 72
     0
 73
     1
 74
     1
 75
     0
 76
     0
 77
     0
 78
     7
170
     0
171
     2
172
     0
173
     0
174
     0
175
     0
176
   256
177
   256
178
     2
  0
DIMSTYLE
  2
AM_ANSI$4
 70
     0
  3

  4
mm
  5

  6

  7

 40
1.0
 41
0.12
 42
0.05
 43
0.5
 44
0.1
 45
0.0
 46
0.0
 47
0.1
 48
0.1
140
0.12
141
0.0
142
0.0
143
25.399999999999999
144
1.0
145
0.0
146
0.71
147
0.06
 71
     0
 72
     0
 73
     1
 74
     1
 75
     0
 76
     0
 77
     0
 78
     7
170
     0
171
     2
172
     0
173
     0
174
     0
175
     0
176
   256
177
   256
178
     2
  0
DIMSTYLE
  2
AM_ANSI$7
 70
     0
  3

  4
mm
  5

  6

  7

 40
1.0
 41
0.12
 42
0.05
 43
0.5
 44
0.1
 45
0.0
 46
0.0
 47
0.1
 48
0.1
140
0.12
141
0.0
142
0.0
143
25.399999999999999
144
1.0
145
0.0
146
0.71
147
0.06
 71
     0
 72
     0
 73
     1
 74
     1
 75
     0
 76
     0
 77
     0
 78
     7
170
     0
171
     2
172
     0
173
     0
174
     0
175
     0
176
   256
177
   256
178
     2
  0
DIMSTYLE
  2
AM_ANSI$SF
 70
     0
  3

  4
mm
  5

  6

  7

 40
1.0
 41
0.12
 42
0.05
 43
0.5
 44
0.1
 45
0.0
 46
0.0
 47
0.1
 48
0.1
140
0.12
141
0.0
142
0.0
143
25.399999999999999
144
1.0
145
0.0
146
0.71
147
0.06
 71
     0
 72
     0
 73
     1
 74
     1
 75
     1
 76
     1
 77
     0
 78
     7
170
     0
171
     2
172
     0
173
     0
174
     0
175
     0
176
   256
177
   256
178
     2
  0
DIMSTYLE
  2
AM_ANSI$SH
 70
     0
  3

  4
mm
  5

  6
GENAXEH
  7

 40
1.0
 41
0.12
 42
0.05
 43
0.5
 44
0.1
 45
0.0
 46
0.0
 47
0.1
 48
0.1
140
0.12
141
0.0
142
0.0
143
25.399999999999999
144
1.0
145
0.0
146
0.71
147
0.06
 71
     0
 72
     0
 73
     1
 74
     1
 75
     1
 76
     1
 77
     0
 78
     7
170
     0
171
     2
172
     0
173
     1
174
     0
175
     0
176
   256
177
   256
178
     2
  0
ENDTAB
  0
ENDSEC
  0
SECTION
  2
BLOCKS
  0
BLOCK
  8
0
  2
$MODEL_SPACE
 70
     0
 10
0.0
 20
0.0
 30
0.0
  3
$MODEL_SPACE
  1

  0
ENDBLK
  5
49E5
  8
0
  0
BLOCK
 67
     1
  8
0
  2
$PAPER_SPACE
 70
     0
 10
0.0
 20
0.0
 30
0.0
  3
$PAPER_SPACE
  1

  0
ENDBLK
  5
49E1
 67
     1
  8
0
  0
BLOCK
  8
0
  2
_OPEN
 70
     0
 10
0.0
 20
0.0
 30
0.0
  3
_OPEN
  1

  0
LINE
  5
4858
  8
0
  6
BYBLOCK
 62
     0
 10
-1.0
 20
0.1666666666666666
 30
0.0
 11
0.0
 21
0.0
 31
0.0
  0
LINE
  5
4859
  8
0
  6
BYBLOCK
 62
     0
 10
-1.0
 20
-0.1666666666666666
 30
0.0
 11
0.0
 21
0.0
 31
0.0
  0
LINE
  5
485A
  8
0
  6
BYBLOCK
 62
     0
 10
0.0
 20
0.0
 30
0.0
 11
-1.0
 21
0.0
 31
0.0
  0
ENDBLK
  5
485B
  8
0
  0
BLOCK
  8
0
  2
GENAXEH
 70
     0
 10
0.0
 20
0.0
 30
0.0
  3
GENAXEH
  1

  0
LINE
  5
4893
  8
0
 10
-1.0
 20
0.0
 30
0.0
 11
1.0
 21
0.0
 31
0.0
  0
ENDBLK
  5
4894
  8
0
  0
BLOCK
  8
0
  2
_OPEN30
 70
     0
 10
0.0
 20
0.0
 30
0.0
  3
_OPEN30
  1

  0
LINE
  5
48CF
  8
0
  6
BYBLOCK
 62
     0
 10
-1.0
 20
0.26794919
 30
0.0
 11
0.0
 21
0.0
 31
0.0
  0
LINE
  5
48D0
  8
0
  6
BYBLOCK
 62
     0
 10
0.0
 20
0.0
 30
0.0
 11
-1.0
 21
-0.26794919
 31
0.0
  0
LINE
  5
48D1
  8
0
  6
BYBLOCK
 62
     0
 10
0.0
 20
0.0
 30
0.0
 11
-1.0
 21
0.0
 31
0.0
  0
ENDBLK
  5
48D2
  8
0
  0
BLOCK
  8
0
  2
*U5
 70
     1
 10
0.0
 20
0.0
 30
0.0
  3
*U5
  1

  0
TEXT
  5
494E
  8
250
 10
-50.969455034163062
 20
-31.383772827718619
 30
0.0
 40
3.0
  1
BBT40
  7
YOKO
  0
ENDBLK
  5
4950
  8
0
  0
BLOCK
  8
0
  2
*U6
 70
     1
 10
0.0
 20
0.0
 30
0.0
  3
*U6
  1

  0
INSERT
  5
4952
  8
250
  2
_OPEN
 10
-26.317042467855739
 20
-18.387097973437701
 30
0.0
 41
2.2299999999999991
 42
2.2299999999999991
 43
2.2299999999999991
 50
59.999999999999972
  0
POLYLINE
  5
4953
  8
250
 66
     1
 10
0.0
 20
0.0
 30
0.0
  0
VERTEX
  5
4954
  8
250
 10
-27.432042467855752
 20
-20.318334623877
 30
0.0
  0
VERTEX
  5
4955
  8
250
 10
-34.398026462734506
 20
-32.38377282771863
 30
0.0
  0
SEQEND
  5
4956
  8
250
  0
ENDBLK
  5
4958
  8
0
  0
BLOCK
  8
0
  2
*U7
 70
     1
 10
0.0
 20
0.0
 30
0.0
  3
*U7
  1

  0
TEXT
  5
495A
  8
250
 10
113.01666666666431
 20
50.000000000012271
 30
0.0
 40
2.799999999999998
  1
64.5
  0
ENDBLK
  5
495C
  8
0
  0
BLOCK
  8
0
  2
*U8
 70
     1
 10
0.0
 20
0.0
 30
0.0
  3
*U8
  1

  0
TEXT
  5
495E
  8
250
 10
70.799999999997766
 20
57.000000000012271
 30
0.0
 40
2.799999999999998
  1
150
  0
ENDBLK
  5
4960
  8
0
  0
BLOCK
  8
0
  2
*U9
 70
     1
 10
0.0
 20
0.0
 30
0.0
  3
*U9
  1

  0
TEXT
  5
4962
  8
250
 10
165.63297244243921
 20
-9.4285714285715052
 30
0.0
 40
3.0
  1
MAX.\U+220520
 50
90.0
  0
ENDBLK
  5
4964
  8
0
  0
BLOCK
  8
0
  2
*U10
 70
     1
 10
0.0
 20
0.0
 30
0.0
  3
*U10
  1

  0
TEXT
  5
4966
  8
250
 10
172.63297244243921
 20
-4.2142857142857899
 30
0.0
 40
3.0
  1
\U+220546
 50
90.0
  0
ENDBLK
  5
4968
  8
0
  0
BLOCK
  8
0
  2
*U11
 70
     1
 10
0.0
 20
0.0
 30
0.0
  3
*U11
  1

  0
TEXT
  5
496A
  8
250
 10
113.4857142857158
 20
-47.999999999987729
 30
0.0
 40
3.0
  1
48ü`65
  0
ENDBLK
  5
496C
  8
0
  0
BLOCK
  8
0
  2
*U12
 70
     1
 10
0.0
 20
0.0
 30
0.0
  3
*U12
  1

  0
TEXT
  5
496E
  8
250
 10
38.083333333333528
 20
50.0
 30
0.0
 40
2.799999999999998
  1
85.5
  0
ENDBLK
  5
4970
  8
0
  0
BLOCK
  8
0
  2
_ACMFILLEDHALF
 70
     0
 10
0.0
 20
0.0
 30
0.0
  3
_ACMFILLEDHALF
  1

  0
TRACE
  5
4ABC
  8
241
 62
     0
 10
-0.8
 20
0.0
 30
0.0
 11
-1.0
 21
0.166666666
 31
0.0
 12
0.0
 22
0.0
 32
0.0
 13
0.0
 23
0.0
 33
0.0
  0
LINE
  5
4ABD
  8
241
 62
     0
 10
-1.0
 20
0.0
 30
0.0
 11
-0.8
 21
0.0
 31
0.0
  0
ENDBLK
  5
4ABB
  8
0
  0
ENDSEC
  0
SECTION
  2
ENTITIES
  0
LINE
  5
435D
  8
240
 10
48.031088913245028
 20
-34.500000000000092
 30
0.0
 11
51.749999999999822
 21
-34.500000000000043
 31
0.0
  0
ARC
  5
435E
  8
240
 10
48.031088913245028
 20
-32.500000000000092
 30
0.0
 40
2.0
 50
209.99999999999829
 51
270.0
1001
GENIUS_GENOBJ-N-FIL_13
1002
{
1000
OWNER
1000
GEN
1002
}
1001
GENIUS_GENODEF_13
1002
{
1000
HIER
1070
     0
1002
}
1002
{
1000
MANEDIT
1070
     0
1002
}
1002
{
1000
NOSEL
1070
     0
1002
}
1002
{
1000
BEHIND
1070
     0
1002
}
1002
{
1000
OTHER
1070
     0
1002
}
1002
{
1000
REACTOR
1002
}
  0
LINE
  5
435F
  8
240
 10
48.031088913245028
 20
34.499999999999922
 30
0.0
 11
51.749999999999822
 21
34.499999999999922
 31
0.0
  0
ARC
  5
4360
  8
240
 10
48.031088913245028
 20
32.499999999999922
 30
0.0
 40
2.0
 50
90.0
 51
150.00000000000171
1001
GENIUS_GENOBJ-N-FIL_13
1002
{
1000
OWNER
1000
GEN
1002
}
1001
GENIUS_GENODEF_13
1002
{
1000
HIER
1070
     0
1002
}
1002
{
1000
MANEDIT
1070
     0
1002
}
1002
{
1000
NOSEL
1070
     0
1002
}
1002
{
1000
BEHIND
1070
     0
1002
}
1002
{
1000
OTHER
1070
     0
1002
}
1002
{
1000
REACTOR
1002
}
  0
LINE
  5
4361
  8
240
 10
26.999999999999929
 20
31.249999999999929
 30
0.0
 11
44.422649730810292
 21
31.249999999999929
 31
0.0
  0
LINE
  5
4362
  8
240
 10
26.749999999999861
 20
31.499999999999911
 30
0.0
 11
26.999999999999929
 21
31.24999999999989
 31
0.0
  0
LINE
  5
4363
  8
240
 10
26.999999999999929
 20
-31.250000000000089
 30
0.0
 11
44.422649730810292
 21
-31.250000000000089
 31
0.0
  0
LINE
  5
4364
  8
240
 10
26.749999999999972
 20
-31.500000000000028
 30
0.0
 11
26.999999999999929
 21
-31.25000000000011
 31
0.0
  0
LINE
  5
4365
  8
241
 10
26.999999999999929
 20
-31.25000000000011
 30
0.0
 11
26.999999999999829
 21
31.249999999999929
 31
0.0
  0
LINE
  5
4366
  8
241
 10
44.999999999999922
 20
-31.25000000000043
 30
0.0
 11
44.999999999999972
 21
31.433503419072519
 31
0.0
  0
LINE
  5
4367
  8
241
 10
47.165063509460481
 20
-34.302775637731997
 30
0.0
 11
47.165063509460417
 21
34.302775637731827
 31
0.0
  0
LINE
  5
4368
  8
240
 10
46.299038105676139
 20
33.499999999999858
 30
0.0
 11
45.288675134594577
 21
31.750000000000259
 31
0.0
  0
ARC
  5
4369
  8
240
 10
44.422649730810292
 20
32.250000000000199
 30
0.0
 40
1.0
 50
269.99999999999682
 51
330.00000000000028
1001
GENIUS_GENODEF_13
1002
{
1000
HIER
1070
     0
1002
}
1002
{
1000
MANEDIT
1070
     0
1002
}
1002
{
1000
NOSEL
1070
     0
1002
}
1002
{
1000
BEHIND
1070
     0
1002
}
1002
{
1000
OTHER
1070
     0
1002
}
1002
{
1000
REACTOR
1002
}
1001
GENIUS_GENOBJ-N-FIL_13
1002
{
1000
OWNER
1000
GEN
1002
}
  0
LINE
  5
436A
  8
240
 10
51.749999999999822
 20
34.499999999999922
 30
0.0
 11
51.999999999999829
 21
34.249999999999922
 31
0.0
1001
GENIUS_GENFIL_13
1070
     0
1040
0.25
1040
0.25
1040
0.5
1040
45.0
1002
{
1002
}
1001
GENIUS_GENODEF_13
1002
{
1000
HIER
1070
     0
1002
}
1002
{
1000
MANEDIT
1070
     0
1002
}
1002
{
1000
NOSEL
1070
     0
1002
}
1002
{
1000
BEHIND
1070
     0
1002
}
1002
{
1000
OTHER
1070
     0
1002
}
1002
{
1000
REACTOR
1002
}
1001
GENIUS_GENOBJ-N-CHA_13
1002
{
1000
OWNER
1000
GEN
1002
}
  0
LINE
  5
436B
  8
240
 10
46.299038105676139
 20
-33.500000000000043
 30
0.0
 11
45.288675134594577
 21
-31.75000000000043
 31
0.0
  0
ARC
  5
436C
  8
240
 10
44.422649730810292
 20
-32.250000000000369
 30
0.0
 40
1.0
 50
29.999999999999719
 51
90.000000000003226
  0
LINE
  5
436D
  8
240
 10
51.749999999999822
 20
-34.500000000000043
 30
0.0
 11
51.999999999999829
 21
-34.250000000000043
 31
0.0
1001
GENIUS_GENFIL_13
1070
     0
1040
0.25
1040
0.25
1040
0.5
1040
45.0
1002
{
1002
}
1001
GENIUS_GENODEF_13
1002
{
1000
HIER
1070
     0
1002
}
1002
{
1000
MANEDIT
1070
     0
1002
}
1002
{
1000
NOSEL
1070
     0
1002
}
1002
{
1000
BEHIND
1070
     0
1002
}
1002
{
1000
OTHER
1070
     0
1002
}
1002
{
1000
REACTOR
1002
}
1001
GENIUS_GENOBJ-N-CHA_13
1002
{
1000
OWNER
1000
GEN
1002
}
  0
LINE
  5
436F
  8
240
 10
-65.39999999999992
 20
0.0000000000003126
 30
0.0
 11
-65.399999999999977
 21
-10.9580111940609
 31
0.0
  0
LINE
  5
4370
  8
240
 10
-65.39999999999992
 20
-0.0000000000003695
 30
0.0
 11
-65.399999999999977
 21
10.958011194060839
 31
0.0
  0
LINE
  5
4371
  8
240
 10
-0.0000000000000568
 20
22.225000000000001
 30
0.0
 11
-63.688613786143442
 21
12.937077156187399
 31
0.0
  0
LINE
  5
4373
  8
240
 10
-0.0000000000000568
 20
-22.225000000000051
 30
0.0
 11
-63.688613786143442
 21
-12.937077156187479
 31
0.0
  0
LINE
  5
4378
  8
240
 10
0.9999999999999431
 20
31.000000000000028
 30
0.0
 11
0.9999999999999431
 21
22.225000000000001
 31
0.0
  0
LINE
  5
4379
  8
240
 10
0.9999999999999431
 20
-31.000000000000082
 30
0.0
 11
0.9999999999999431
 21
-22.225000000000069
 31
0.0
  0
ARC
  5
437B
  8
240
 10
1.499999999999942
 20
31.000000000000028
 30
0.0
 40
0.5
 50
90.0
 51
180.0
  0
ARC
  5
437C
  8
240
 10
1.499999999999942
 20
-31.000000000000082
 30
0.0
 40
0.5
 50
180.0
 51
270.0
  0
LINE
  5
437D
  8
241
 10
0.0000000000000568
 20
-22.225000000000051
 30
0.0
 11
-0.0000000000000568
 21
22.225000000000001
 31
0.0
  0
LINE
  5
437E
  8
241
 10
0.9999999999999431
 20
22.225000000000001
 30
0.0
 11
0.9999999999999431
 21
-22.225000000000069
 31
0.0
  0
LINE
  5
4393
  8
245
 10
160.61747891291509
 20
-0.0000000000000853
 30
0.0
 11
-67.450703158701145
 21
-0.0000000000000284
 31
0.0
  0
LINE
  5
4395
  8
241
 10
63.499999999999602
 20
0.0000000000004832
 30
0.0
 11
66.499999999999602
 21
0.00000000000054
 31
0.0
  0
LINE
  5
4396
  8
241
 10
63.499999999999602
 20
-3.0068731247932581
 30
0.0
 11
65.499999999999602
 21
-3.0068731247932581
 31
0.0
  0
LINE
  5
4397
  8
241
 10
63.499999999999652
 20
-5.9908621295080859
 30
0.0
 11
66.499999999999659
 21
-5.9908621295080859
 31
0.0
  0
LINE
  5
4398
  8
241
 10
63.499999999999723
 20
-8.9292570560359934
 30
0.0
 11
65.49999999999973
 21
-8.9292570560359934
 31
0.0
  0
LINE
  5
4399
  8
241
 10
63.499999999999723
 20
-11.79969494473457
 30
0.0
 11
66.49999999999973
 21
-11.79969494473457
 31
0.0
  0
LINE
  5
439A
  8
241
 10
63.499999999999773
 20
-14.580330030053091
 30
0.0
 11
65.499999999999773
 21
-14.580330030053091
 31
0.0
  0
LINE
  5
439B
  8
241
 10
63.499999999999773
 20
-17.249999999998892
 30
0.0
 11
66.499999999999773
 21
-17.249999999998892
 31
0.0
  0
LINE
  5
439C
  8
241
 10
63.499999999999829
 20
-19.788387054110022
 30
0.0
 11
65.499999999999815
 21
-19.788387054110022
 31
0.0
  0
LINE
  5
439D
  8
241
 10
63.499999999999829
 20
-22.176172534184531
 30
0.0
 11
66.499999999999829
 21
-22.176172534184531
 31
0.0
  0
LINE
  5
439E
  8
241
 10
63.499999999999879
 20
-24.395183950934751
 30
0.0
 11
65.499999999999901
 21
-24.395183950934751
 31
0.0
  0
LINE
  5
439F
  8
241
 10
63.499999999999879
 20
-26.428533287603589
 30
0.0
 11
66.499999999999901
 21
-26.428533287603589
 31
0.0
  0
LINE
  5
43A0
  8
241
 10
63.499999999999943
 20
-28.260745527969078
 30
0.0
 11
65.499999999999929
 21
-28.260745527969078
 31
0.0
  0
LINE
  5
43A1
  8
241
 10
63.499999999999943
 20
-29.76418209036618
 30
0.0
 11
66.499999999999929
 21
-29.76418209036618
 31
0.0
  0
LINE
  5
43A2
  8
241
 10
63.499999999999943
 20
-31.267618652763279
 30
0.0
 11
65.499999999999929
 21
-31.267618652763279
 31
0.0
  0
LINE
  5
43A3
  8
241
 10
63.5
 20
-32.419395417112668
 30
0.0
 11
66.499999999999929
 21
-32.419395417112668
 31
0.0
  0
LINE
  5
43A4
  8
241
 10
63.5
 20
-33.324441006971739
 30
0.0
 11
65.5
 21
-33.324441006971739
 31
0.0
  0
LINE
  5
43A5
  8
241
 10
63.5
 20
-33.84657904556795
 30
0.0
 11
66.5
 21
-33.84657904556795
 31
0.0
  0
LINE
  5
43A6
  8
240
 10
79.671572875254185
 20
34.50000000000027
 30
0.0
 11
63.250000000000057
 21
34.50000000000027
 31
0.0
  0
ARC
  5
43A7
  8
240
 10
83.500000000000455
 20
28.671572875254039
 30
0.0
 40
2.0
 50
0.0
 51
45.0
1001
GENIUS_GENODEF_13
1002
{
1000
HIER
1070
     0
1002
}
1002
{
1000
MANEDIT
1070
     0
1002
}
1002
{
1000
NOSEL
1070
     0
1002
}
1002
{
1000
BEHIND
1070
     0
1002
}
1002
{
1000
OTHER
1070
     0
1002
}
1002
{
1000
REACTOR
1002
}
1001
GENIUS_GENOBJ-N-FIL_13
1002
{
1000
OWNER
1000
GEN
1002
}
  0
LINE
  5
43A8
  8
240
 10
81.085786437627235
 20
33.914213562373362
 30
0.0
 11
84.914213562373504
 21
30.085786437627149
 31
0.0
1001
GENIUS_GENFIL_13
1070
     0
1040
5.0
1040
5.0
1040
0.2500000000000284
1040
45.00000000000162
1002
{
1002
}
1001
GENIUS_GENODEF_13
1002
{
1000
HIER
1070
     0
1002
}
1002
{
1000
MANEDIT
1070
     0
1002
}
1002
{
1000
NOSEL
1070
     0
1002
}
1002
{
1000
BEHIND
1070
     0
1002
}
1002
{
1000
OTHER
1070
     0
1002
}
1002
{
1000
REACTOR
1002
}
1001
GENIUS_GENOBJ-N-CHA_13
1002
{
1000
OWNER
1000
GEN
1002
}
  0
ARC
  5
43A9
  8
240
 10
79.671572875254185
 20
32.50000000000027
 30
0.0
 40
2.0
 50
45.0
 51
90.0
1001
GENIUS_GENFIL_13
1070
     0
1040
5.0
1040
5.0
1040
0.2500000000000284
1040
45.00000000000162
1002
{
1002
}
1001
GENIUS_GENOBJ-N-CHA_13
1002
{
1000
OWNER
1000
GEN
1002
}
1001
GENIUS_GENODEF_13
1002
{
1000
HIER
1070
     0
1002
}
1002
{
1000
MANEDIT
1070
     0
1002
}
1002
{
1000
NOSEL
1070
     0
1002
}
1002
{
1000
BEHIND
1070
     0
1002
}
1002
{
1000
OTHER
1070
     0
1002
}
1002
{
1000
REACTOR
1002
}
1001
GENIUS_GENOBJ-N-FIL_13
1002
{
1000
OWNER
1000
GEN
1002
}
  0
LINE
  5
43AA
  8
241
  6
CONTINUOUS
 10
63.0
 20
-34.249999999999261
 30
0.0
 11
62.99999999999919
 21
34.249999999999417
 31
0.0
  0
LINE
  5
43AB
  8
240
 10
63.25
 20
-34.499999999999233
 30
0.0
 11
63.0
 21
-34.249999999999233
 31
0.0
1001
GENIUS_GENFIL_13
1070
     0
1040
0.25
1040
0.25
1040
0.2500000000000284
1040
45.00000000000162
1002
{
1002
}
1001
GENIUS_GENODEF_13
1002
{
1000
HIER
1070
     0
1002
}
1002
{
1000
MANEDIT
1070
     0
1002
}
1002
{
1000
NOSEL
1070
     0
1002
}
1002
{
1000
BEHIND
1070
     0
1002
}
1002
{
1000
OTHER
1070
     0
1002
}
1002
{
1000
REACTOR
1002
}
1001
GENIUS_GENOBJ-N-CHA_13
1002
{
1000
OWNER
1000
GEN
1002
}
  0
LINE
  5
43AC
  8
240
 10
79.671572875254085
 20
-34.499999999999289
 30
0.0
 11
63.25
 21
-34.499999999999233
 31
0.0
  0
LINE
  5
43AD
  8
240
 10
85.500000000000384
 20
-28.67157287525308
 30
0.0
 11
85.500000000000384
 21
-21.00000000000065
 31
0.0
  0
LINE
  5
43AE
  8
241
 10
85.500000000000384
 20
-21.000000000000629
 30
0.0
 11
85.500000000000455
 21
21.000000000000568
 31
0.0
  0
LINE
  5
43AF
  8
240
 10
85.500000000000455
 20
21.000000000000568
 30
0.0
 11
85.500000000000455
 21
28.671572875254039
 31
0.0
  0
ARC
  5
43B0
  8
240
 10
83.500000000000355
 20
-28.67157287525308
 30
0.0
 40
2.0
 50
315.0
 51
0.0
1001
GENIUS_GENODEF_13
1002
{
1000
HIER
1070
     0
1002
}
1002
{
1000
MANEDIT
1070
     0
1002
}
1002
{
1000
NOSEL
1070
     0
1002
}
1002
{
1000
BEHIND
1070
     0
1002
}
1002
{
1000
OTHER
1070
     0
1002
}
1002
{
1000
REACTOR
1002
}
1001
GENIUS_GENOBJ-N-FIL_13
1002
{
1000
OWNER
1000
GEN
1002
}
  0
LINE
  5
43B1
  8
240
 10
81.085786437627235
 20
-33.91421356237241
 30
0.0
 11
84.914213562373504
 21
-30.085786437626179
 31
0.0
1001
GENIUS_GENFIL_13
1070
     0
1040
5.0
1040
5.0
1040
0.2500000000000284
1040
45.00000000000162
1002
{
1002
}
1001
GENIUS_GENODEF_13
1002
{
1000
HIER
1070
     0
1002
}
1002
{
1000
MANEDIT
1070
     0
1002
}
1002
{
1000
NOSEL
1070
     0
1002
}
1002
{
1000
BEHIND
1070
     0
1002
}
1002
{
1000
OTHER
1070
     0
1002
}
1002
{
1000
REACTOR
1002
}
1001
GENIUS_GENOBJ-N-CHA_13
1002
{
1000
OWNER
1000
GEN
1002
}
  0
ARC
  5
43B2
  8
240
 10
79.671572875254085
 20
-32.499999999999289
 30
0.0
 40
2.0
 50
270.0
 51
315.0
1001
GENIUS_GENFIL_13
1070
     0
1040
5.0
1040
5.0
1040
0.2500000000000284
1040
45.00000000000162
1002
{
1002
}
1001
GENIUS_GENOBJ-N-CHA_13
1002
{
1000
OWNER
1000
GEN
1002
}
1001
GENIUS_GENODEF_13
1002
{
1000
HIER
1070
     0
1002
}
1002
{
1000
MANEDIT
1070
     0
1002
}
1002
{
1000
NOSEL
1070
     0
1002
}
1002
{
1000
BEHIND
1070
     0
1002
}
1002
{
1000
OTHER
1070
     0
1002
}
1002
{
1000
REACTOR
1002
}
1001
GENIUS_GENOBJ-N-FIL_13
1002
{
1000
OWNER
1000
GEN
1002
}
  0
LINE
  5
43B3
  8
240
 10
63.250000000000057
 20
34.50000000000027
 30
0.0
 11
63.000000000000057
 21
34.25000000000027
 31
0.0
  0
LINE
  5
43B4
  8
241
 10
80.500000000000341
 20
-34.32035944224819
 30
0.0
 11
80.500000000000341
 21
34.320359442249192
 31
0.0
  0
LINE
  5
43B5
  8
241
 10
62.999999999999929
 20
34.499999999999858
 30
0.0
 11
62.999999999999261
 21
-34.499999999999922
 31
0.0
  0
ARC
  5
43B6
  8
240
 10
62.499999999999929
 20
34.499999999999858
 30
0.0
 40
0.5
 50
0.0
 51
90.0
1001
GENIUS_GENOBJ-N-FIL_13
1002
{
1000
OWNER
1000
GEN
1002
}
1001
GENIUS_GENODEF_13
1002
{
1000
HIER
1070
     0
1002
}
1002
{
1000
MANEDIT
1070
     0
1002
}
1002
{
1000
NOSEL
1070
     0
1002
}
1002
{
1000
BEHIND
1070
     0
1002
}
1002
{
1000
OTHER
1070
     0
1002
}
1002
{
1000
REACTOR
1002
}
  0
LINE
  5
43B7
  8
240
 10
52.499999999999929
 20
34.999999999999858
 30
0.0
 11
62.499999999999929
 21
34.999999999999858
 31
0.0
  0
LINE
  5
43B8
  8
240
 10
51.999999999999829
 20
34.49999999999973
 30
0.0
 11
52.499999999999929
 21
34.999999999999858
 31
0.0
1001
GENIUS_GENFIL_13
1070
     0
1040
0.5
1040
0.5
1040
0.2500000000000284
1040
45.00000000000162
1002
{
1002
}
1001
GENIUS_GENOBJ-N-CHA_13
1002
{
1000
OWNER
1000
GEN
1002
}
1001
GENIUS_GENODEF_13
1002
{
1000
HIER
1070
     0
1002
}
1002
{
1000
MANEDIT
1070
     0
1002
}
1002
{
1000
NOSEL
1070
     0
1002
}
1002
{
1000
BEHIND
1070
     0
1002
}
1002
{
1000
OTHER
1070
     0
1002
}
1002
{
1000
REACTOR
1002
}
  0
LINE
  5
43B9
  8
241
 10
51.999999999999829
 20
34.49999999999973
 30
0.0
 11
51.999999999999829
 21
-34.499999999999801
 31
0.0
  0
ARC
  5
43BA
  8
240
 10
62.499999999999929
 20
-34.499999999999922
 30
0.0
 40
0.5
 50
270.0
 51
0.0
1001
GENIUS_GENOBJ-N-FIL_13
1002
{
1000
OWNER
1000
GEN
1002
}
1001
GENIUS_GENODEF_13
1002
{
1000
HIER
1070
     0
1002
}
1002
{
1000
MANEDIT
1070
     0
1002
}
1002
{
1000
NOSEL
1070
     0
1002
}
1002
{
1000
BEHIND
1070
     0
1002
}
1002
{
1000
OTHER
1070
     0
1002
}
1002
{
1000
REACTOR
1002
}
  0
LINE
  5
43BB
  8
240
 10
52.499999999999929
 20
-34.999999999999922
 30
0.0
 11
61.999999999999929
 21
-34.999999999999922
 31
0.0
  0
LINE
  5
43BC
  8
240
 10
52.499999999999929
 20
-34.999999999999922
 30
0.0
 11
62.499999999999929
 21
-34.999999999999922
 31
0.0
  0
LINE
  5
43BD
  8
240
 10
51.999999999999829
 20
-34.499999999999801
 30
0.0
 11
52.499999999999929
 21
-34.999999999999922
 31
0.0
1001
GENIUS_GENFIL_13
1070
     0
1040
0.5000000000000995
1040
0.5000000000001421
1040
0.5000000000000995
1040
45.00000000000162
1002
{
1002
}
1001
GENIUS_GENOREF_13
1005
0
  0
LINE
  5
43BE
  8
241
 10
58.399999999999849
 20
28.133974596215211
 30
0.0
 11
58.39999999999992
 21
29.86602540378405
 31
0.0
  0
LINE
  5
43BF
  8
241
 10
58.39999999999992
 20
29.86602540378405
 30
0.0
 11
56.899999999999871
 21
30.732050807568591
 31
0.0
  0
LINE
  5
43C0
  8
241
 10
56.899999999999871
 20
30.732050807568591
 30
0.0
 11
55.39999999999992
 21
29.86602540378405
 31
0.0
  0
LINE
  5
43C1
  8
241
 10
55.399999999999849
 20
29.86602540378405
 30
0.0
 11
55.399999999999807
 21
28.133974596215161
 31
0.0
  0
LINE
  5
43C2
  8
241
 10
55.399999999999807
 20
28.133974596215161
 30
0.0
 11
56.899999999999871
 21
27.267949192430681
 31
0.0
  0
LINE
  5
43C3
  8
241
 10
56.899999999999871
 20
27.267949192430681
 30
0.0
 11
58.399999999999807
 21
28.133974596215161
 31
0.0
  0
LINE
  5
43C4
  8
241
 10
62.999999999999538
 20
-4.9079128927340587
 30
0.0
 11
51.999999999999829
 21
-4.9079128927340587
 31
0.0
  0
LINE
  5
43C5
  8
241
 10
62.999999999999503
 20
-13.07671419502006
 30
0.0
 11
51.999999999999829
 21
-13.07671419502006
 31
0.0
  0
LINE
  5
43C6
  8
241
 10
62.999999999999361
 20
-21.577468684357228
 30
0.0
 11
51.999999999999829
 21
-21.577468684357228
 31
0.0
  0
LINE
  5
43C7
  8
241
 10
62.999999999999361
 20
-27.557446274565599
 30
0.0
 11
51.999999999999829
 21
-27.557446274565599
 31
0.0
  0
LINE
  5
43C8
  8
241
 10
62.999999999999261
 20
-32.465359167299113
 30
0.0
 11
51.999999999999829
 21
-32.465359167299113
 31
0.0
  0
CIRCLE
  5
43CA
  8
241
 10
56.899999999999871
 20
28.999999999999631
 30
0.0
 40
3.5
  0
ARC
  5
43CB
  8
241
 10
56.89999999999992
 20
28.999999999999631
 30
0.0
 40
3.75
 50
180.0
 51
0.0
  0
LINE
  5
43CC
  8
241
 10
53.14999999999992
 20
28.999999999999631
 30
0.0
 11
53.14999999999992
 21
32.749999999999631
 31
0.0
  0
LINE
  5
43CD
  8
241
 10
60.64999999999992
 20
28.999999999999631
 30
0.0
 11
60.64999999999992
 21
32.749999999999631
 31
0.0
  0
LINE
  5
43CE
  8
241
 10
60.64999999999992
 20
32.749999999999631
 30
0.0
 11
53.14999999999992
 21
32.749999999999631
 31
0.0
  0
LINE
  5
43CF
  8
241
 10
62.999999999999538
 20
4.9079128927340321
 30
0.0
 11
51.999999999999829
 21
4.9079128927340321
 31
0.0
  0
LINE
  5
43D0
  8
241
 10
63.499999999999602
 20
3.006873124794224
 30
0.0
 11
65.499999999999602
 21
3.006873124794224
 31
0.0
  0
LINE
  5
43D1
  8
241
 10
63.499999999999652
 20
5.9908621295090541
 30
0.0
 11
66.499999999999659
 21
5.9908621295090541
 31
0.0
  0
LINE
  5
43D2
  8
241
 10
63.499999999999723
 20
8.9292570560369562
 30
0.0
 11
65.49999999999973
 21
8.9292570560369562
 31
0.0
  0
LINE
  5
43D3
  8
241
 10
63.499999999999723
 20
11.799694944735529
 30
0.0
 11
66.49999999999973
 21
11.799694944735529
 31
0.0
  0
LINE
  5
43D4
  8
241
 10
63.499999999999773
 20
14.580330030054061
 30
0.0
 11
65.499999999999773
 21
14.580330030054061
 31
0.0
  0
LINE
  5
43D5
  8
241
 10
63.499999999999773
 20
17.249999999999861
 30
0.0
 11
66.499999999999773
 21
17.249999999999861
 31
0.0
  0
LINE
  5
43D6
  8
241
 10
63.499999999999829
 20
19.788387054110981
 30
0.0
 11
65.499999999999815
 21
19.788387054110981
 31
0.0
  0
LINE
  5
43D7
  8
241
 10
63.499999999999829
 20
22.1761725341855
 30
0.0
 11
66.499999999999829
 21
22.1761725341855
 31
0.0
  0
LINE
  5
43D8
  8
241
 10
63.499999999999879
 20
24.395183950935721
 30
0.0
 11
65.499999999999901
 21
24.395183950935721
 31
0.0
  0
LINE
  5
43D9
  8
241
 10
63.499999999999879
 20
26.428533287604552
 30
0.0
 11
66.499999999999901
 21
26.428533287604552
 31
0.0
  0
LINE
  5
43DA
  8
241
 10
63.499999999999943
 20
28.260745527970052
 30
0.0
 11
65.499999999999929
 21
28.260745527970052
 31
0.0
  0
LINE
  5
43DB
  8
241
 10
63.499999999999943
 20
29.764182090367139
 30
0.0
 11
66.499999999999929
 21
29.764182090367139
 31
0.0
  0
LINE
  5
43DC
  8
241
 10
63.499999999999943
 20
31.267618652764241
 30
0.0
 11
65.499999999999929
 21
31.267618652764241
 31
0.0
  0
LINE
  5
43DD
  8
241
 10
63.5
 20
32.419395417113641
 30
0.0
 11
66.499999999999929
 21
32.419395417113641
 31
0.0
  0
LINE
  5
43DE
  8
241
 10
63.5
 20
33.324441006972712
 30
0.0
 11
65.5
 21
33.324441006972712
 31
0.0
  0
LINE
  5
43DF
  8
241
 10
63.5
 20
33.846579045568923
 30
0.0
 11
66.5
 21
33.846579045568923
 31
0.0
  0
LINE
  5
43E0
  8
240
 10
85.999999999998451
 20
20.749999999999918
 30
0.0
 11
128.4999999999998
 21
20.749999999999918
 31
0.0
  0
LINE
  5
43E1
  8
240
 10
85.999999999998224
 20
-20.749999999999972
 30
0.0
 11
128.4999999999998
 21
-20.749999999999972
 31
0.0
  0
LINE
  5
43E2
  8
240
  6
CONTINUOUS
 10
85.500000000000384
 20
-21.000000000000629
 30
0.0
 11
85.749999999997726
 21
-21.00000000000065
 31
0.0
  0
LINE
  5
43E3
  8
240
 10
85.999999999998181
 20
-20.750000000000199
 30
0.0
 11
85.749999999998067
 21
-21.000000000000249
 31
0.0
  0
LINE
  5
43E4
  8
240
  6
CONTINUOUS
 10
85.500000000000384
 20
21.000000000000568
 30
0.0
 11
85.749999999997726
 21
21.0000000000006
 31
0.0
  0
LINE
  5
43E5
  8
240
 10
85.999999999998181
 20
20.750000000000131
 30
0.0
 11
85.749999999998067
 21
21.000000000000199
 31
0.0
  0
LINE
  5
43E6
  8
241
 10
85.999999999998451
 20
20.749999999999918
 30
0.0
 11
85.999999999998394
 21
-20.749999999999972
 31
0.0
  0
LINE
  5
43E8
  8
243
 10
22.99999999999994
 20
-22.500000000000028
 30
0.0
 11
0.9999999999999431
 21
-22.500000000000028
 31
0.0
  0
LINE
  5
43E9
  8
243
 10
22.99999999999994
 20
-22.500000000000028
 30
0.0
 11
22.99999999999994
 21
-31.500000000000028
 31
0.0
  0
LINE
  5
43EA
  8
243
 10
22.99999999999994
 20
22.499999999999972
 30
0.0
 11
22.99999999999994
 21
31.499999999999972
 31
0.0
  0
LINE
  5
43EB
  8
243
 10
22.99999999999994
 20
22.499999999999972
 30
0.0
 11
0.9999999999999431
 21
22.499999999999829
 31
0.0
  0
ARC
  5
43F1
  8
240
 10
-63.399999999999977
 20
10.958011194060839
 30
0.0
 40
2.0
 50
98.29714496983685
 51
180.0
  0
ARC
  5
43F2
  8
240
 10
-63.399999999999977
 20
-10.9580111940609
 30
0.0
 40
2.0
 50
180.0
 51
261.70285503016322
  0
LINE
  5
43F4
  8
250
 10
-34.398026462734492
 20
-32.38377282771863
 30
0.0
 11
-53.398026462734492
 21
-32.38377282771863
 31
0.0
1001
ITEMNAME
1000
LNSP2
  0
INSERT
  5
43F5
  8
241
  2
*U5
 10
0.0
 20
0.0
 30
0.0
  0
INSERT
  5
43F6
  8
241
  2
*U6
 10
0.0
 20
0.0
 30
0.0
1001
ACAD
1000
DSTYLE
1002
{
1070
    78
1070
     8
1070
   140
1040
3.0
1002
}
  0
LINE
  5
43F7
  8
241
 10
11.56550565266622
 20
-0.0000000000004263
 30
0.0
 11
11.56550565266474
 21
31.326794919240889
 31
0.0
  0
LINE
  5
43F8
  8
241
 10
14.452256998613731
 20
-0.0000000000003126
 30
0.0
 11
14.45225699861248
 21
26.555051025722349
 31
0.0
  0
LINE
  5
43F9
  8
241
 10
18.74774300138483
 20
-0.0000000000001421
 30
0.0
 11
18.747743001383569
 21
26.555051025720768
 31
0.0
  0
LINE
  5
43FA
  8
241
 10
21.63449434733355
 20
-0.0000000000000284
 30
0.0
 11
21.634494347332069
 21
31.326794919244261
 31
0.0
  0
LINE
  5
43FB
  8
240
 10
1.4999999999998861
 20
31.500000000000028
 30
0.0
 11
11.265505652666491
 21
31.499999999999581
 31
0.0
  0
LINE
  5
43FC
  8
240
 10
21.93449434733208
 20
31.500000000000028
 30
0.0
 11
26.749999999999861
 21
31.499999999999911
 31
0.0
  0
LINE
  5
43FD
  8
240
 10
11.26550565266586
 20
31.499999999999911
 30
0.0
 11
11.715505652665851
 21
31.240192378864581
 31
0.0
  0
LINE
  5
43FE
  8
240
 10
11.715505652665851
 20
31.240192378864581
 30
0.0
 11
14.365654458235319
 21
26.650000000000521
 31
0.0
  0
ARC
  5
43FF
  8
240
 10
18.574537920627961
 20
26.79999999999907
 30
0.0
 40
0.3
 50
269.99999999998039
 51
330.00000000000028
  0
ARC
  5
4400
  8
240
 10
14.62546207937066
 20
26.800000000000491
 30
0.0
 40
0.3
 50
209.99999999999611
 51
269.99999999998039
  0
LINE
  5
4401
  8
240
 10
18.57453792062784
 20
26.499999999999059
 30
0.0
 11
14.62546207937055
 21
26.50000000000048
 31
0.0
  0
LINE
  5
4402
  8
240
 10
21.48449434733249
 20
31.240192378864919
 30
0.0
 11
18.834345541763302
 21
26.6499999999991
 31
0.0
  0
LINE
  5
4403
  8
240
 10
21.48449434733249
 20
31.240192378864919
 30
0.0
 11
21.934494347332471
 21
31.500000000000249
 31
0.0
  0
LINE
  5
4404
  8
240
 10
1.4999999999998861
 20
-31.500000000000089
 30
0.0
 11
11.265505652667059
 21
-31.500000000000089
 31
0.0
  0
LINE
  5
4405
  8
240
 10
21.934494347331171
 20
-31.500000000000028
 30
0.0
 11
26.749999999999972
 21
-31.500000000000028
 31
0.0
  0
LINE
  5
4406
  8
240
 10
21.48449434733271
 20
-31.240192378865551
 30
0.0
 11
21.934494347332699
 21
-31.500000000000881
 31
0.0
  0
ARC
  5
4407
  8
240
 10
18.574537920628192
 20
-26.79999999999977
 30
0.0
 40
0.3
 50
29.999999999999719
 51
90.000000000019526
  0
ARC
  5
4408
  8
240
 10
14.625462079370889
 20
-26.80000000000118
 30
0.0
 40
0.3
 50
90.000000000019526
 51
150.00000000000381
  0
LINE
  5
4409
  8
240
 10
18.574537920628071
 20
-26.499999999999751
 30
0.0
 11
14.625462079370781
 21
-26.50000000000118
 31
0.0
  0
LINE
  5
440A
  8
240
 10
11.265505652666089
 20
-31.500000000000661
 30
0.0
 11
11.71550565266608
 21
-31.24019237886532
 31
0.0
  0
LINE
  5
440B
  8
240
 10
11.71550565266608
 20
-31.24019237886532
 30
0.0
 11
14.36565445823555
 21
-26.650000000001199
 31
0.0
  0
LINE
  5
440C
  8
240
 10
21.48449434733271
 20
-31.240192378865551
 30
0.0
 11
18.834345541763518
 21
-26.649999999999771
 31
0.0
  0
LINE
  5
440D
  8
241
 10
21.63449434733355
 20
-0.0000000000003695
 30
0.0
 11
21.63449434733355
 21
-31.326794919244691
 31
0.0
  0
LINE
  5
440E
  8
241
 10
18.74774300138483
 20
-0.0000000000004263
 30
0.0
 11
18.74774300138483
 21
-26.555051025721269
 31
0.0
  0
LINE
  5
440F
  8
241
 10
11.56550565266622
 20
-0.0000000000004263
 30
0.0
 11
11.56550565266622
 21
-31.326794919241738
 31
0.0
  0
LINE
  5
4410
  8
241
 10
14.452256998613731
 20
-0.0000000000004263
 30
0.0
 11
14.452256998613731
 21
-26.555051025723088
 31
0.0
  0
ARC
  5
4416
  8
240
 10
130.4999999999998
 20
-19.000000000000082
 30
0.0
 40
1.0
 50
90.0
 51
180.0
  0
LINE
  5
4417
  8
240
 10
130.4999999999998
 20
-18.000000000000082
 30
0.0
 11
133.9999999999998
 21
-18.000000000000082
 31
0.0
  0
ARC
  5
4418
  8
240
 10
130.4999999999998
 20
18.999999999999879
 30
0.0
 40
1.0
 50
180.0
 51
270.0
  0
LINE
  5
4419
  8
240
 10
130.4999999999998
 20
17.999999999999879
 30
0.0
 11
133.9999999999998
 21
17.999999999999879
 31
0.0
  0
LINE
  5
441A
  8
240
 10
133.9999999999998
 20
19.499999999999879
 30
0.0
 11
134.4999999999998
 21
19.999999999999879
 31
0.0
  0
LINE
  5
441B
  8
240
 10
133.9999999999998
 20
-19.500000000000082
 30
0.0
 11
134.4999999999998
 21
-20.000000000000082
 31
0.0
  0
LINE
  5
441C
  8
240
 10
134.4999999999998
 20
-22.000000000000089
 30
0.0
 11
134.4999999999998
 21
-20.000000000000082
 31
0.0
  0
LINE
  5
441D
  8
240
 10
134.4999999999998
 20
21.99999999999989
 30
0.0
 11
134.4999999999998
 21
19.999999999999879
 31
0.0
  0
ARC
  5
441E
  8
240
 10
135.4999999999998
 20
21.99999999999989
 30
0.0
 40
1.0
 50
90.0
 51
180.0
  0
ARC
  5
441F
  8
240
 10
135.4999999999998
 20
-22.000000000000089
 30
0.0
 40
1.0
 50
180.0
 51
270.0
  0
LINE
  5
4420
  8
240
 10
135.4999999999998
 20
22.99999999999989
 30
0.0
 11
148.08578643762681
 21
22.99999999999989
 31
0.0
  0
ARC
  5
4421
  8
240
 10
148.08578643762681
 20
21.99999999999989
 30
0.0
 40
1.0000000000000271
 50
45.000000000001151
 51
90.0
  0
LINE
  5
4422
  8
240
 10
135.4999999999998
 20
-23.000000000000089
 30
0.0
 11
148.08578643762681
 21
-23.000000000000089
 31
0.0
  0
ARC
  5
4423
  8
240
 10
148.08578643762681
 20
-22.000000000000089
 30
0.0
 40
0.9999999999999856
 50
270.0
 51
314.99999999999881
  0
LINE
  5
4424
  8
240
 10
149.7363961030679
 20
21.76360389693204
 30
0.0
 11
148.79289321881339
 21
22.707106781186472
 31
0.0
  0
LINE
  5
4425
  8
240
 10
149.9999999999998
 20
-0.0000000000001137
 30
0.0
 11
149.9999999999998
 21
21.12720779386413
 31
0.0
  0
ARC
  5
4426
  8
240
 10
149.09999999999991
 20
21.12720779386413
 30
0.0
 40
0.9000000000000055
 50
0.0
 51
45.000000000001151
  0
LINE
  5
4427
  8
240
 10
149.9999999999998
 20
-0.0000000000001137
 30
0.0
 11
149.9999999999998
 21
-21.127207793864301
 31
0.0
  0
LINE
  5
4428
  8
240
 10
148.79289321881339
 20
-22.707106781186639
 30
0.0
 11
149.7363961030679
 21
-21.76360389693221
 31
0.0
  0
ARC
  5
4429
  8
240
 10
149.09999999999991
 20
-21.127207793864301
 30
0.0
 40
0.9000000000000031
 50
314.99999999999881
 51
0.0
  0
LINE
  5
442A
  8
240
 10
133.9999999999998
 20
-18.000000000000082
 30
0.0
 11
133.9999999999998
 21
-19.500000000000082
 31
0.0
  0
LINE
  5
442B
  8
240
 10
133.9999999999998
 20
19.499999999999879
 30
0.0
 11
133.9999999999998
 21
17.999999999999879
 31
0.0
  0
LINE
  5
442C
  8
241
 10
131.4999999999998
 20
17.499999999999879
 30
0.0
 11
130.9999999999998
 21
17.999999999999879
 31
0.0
  0
LINE
  5
442D
  8
241
 10
131.4999999999998
 20
17.499999999999879
 30
0.0
 11
131.4999999999998
 21
-0.0000000000001137
 31
0.0
  0
LINE
  5
442E
  8
241
 10
131.4999999999998
 20
-17.500000000000082
 30
0.0
 11
131.4999999999998
 21
-0.0000000000001137
 31
0.0
  0
LINE
  5
442F
  8
241
 10
131.4999999999998
 20
-17.500000000000082
 30
0.0
 11
130.9999999999998
 21
-18.000000000000082
 31
0.0
  0
LINE
  5
4430
  8
241
 10
135.4999999999998
 20
-20.843134832984578
 30
0.0
 11
135.4999999999998
 21
-23.000000000000089
 31
0.0
  0
LINE
  5
4431
  8
241
 10
135.4999999999998
 20
-18.843134832984578
 30
0.0
 11
135.4999999999998
 21
-2.0000000000000839
 31
0.0
  0
LINE
  5
4432
  8
241
 10
135.4999999999998
 20
18.84313483298439
 30
0.0
 11
135.4999999999998
 21
1.9999999999998861
 31
0.0
  0
LINE
  5
4433
  8
241
 10
135.4999999999998
 20
20.843134832984362
 30
0.0
 11
135.4999999999998
 21
22.99999999999989
 31
0.0
  0
LINE
  5
4434
  8
241
 10
134.4999999999998
 20
-0.0000000000001137
 30
0.0
 11
134.4999999999998
 21
-20.000000000000082
 31
0.0
  0
LINE
  5
4435
  8
241
 10
134.4999999999998
 20
-0.0000000000001137
 30
0.0
 11
134.4999999999998
 21
19.999999999999879
 31
0.0
  0
LINE
  5
4436
  8
241
 10
148.08578643762681
 20
22.21381267738872
 30
0.0
 11
148.08578643762681
 21
-22.346263008514772
 31
0.0
  0
LINE
  5
4437
  8
241
 10
129.4999999999998
 20
18.999999999999879
 30
0.0
 11
129.4999999999998
 21
-0.0000000000001137
 31
0.0
  0
LINE
  5
4438
  8
241
 10
129.4999999999998
 20
-19.000000000000082
 30
0.0
 11
129.4999999999998
 21
-0.0000000000001137
 31
0.0
  0
LINE
  5
4439
  8
241
 10
133.9999999999998
 20
17.999999999999879
 30
0.0
 11
133.9999999999998
 21
-18.000000000000082
 31
0.0
  0
LINE
  5
443A
  8
241
 10
143.4999999999998
 20
-2.0000000000000839
 30
0.0
 11
134.4999999999998
 21
-2.0000000000000839
 31
0.0
  0
LINE
  5
443B
  8
241
 10
143.4999999999998
 20
1.9999999999998861
 30
0.0
 11
134.4999999999998
 21
1.9999999999998861
 31
0.0
  0
LINE
  5
443C
  8
241
 10
143.4999999999998
 20
1.9999999999998861
 30
0.0
 11
143.4999999999998
 21
-0.0000000000001137
 31
0.0
  0
LINE
  5
443D
  8
241
 10
143.4999999999998
 20
-2.0000000000000839
 30
0.0
 11
143.4999999999998
 21
-0.0000000000001137
 31
0.0
  0
LINE
  5
443E
  8
241
 10
143.4999999999998
 20
20.843134832984362
 30
0.0
 11
134.4999999999998
 21
20.843134832984362
 31
0.0
  0
LINE
  5
443F
  8
241
 10
143.4999999999998
 20
18.84313483298439
 30
0.0
 11
134.4999999999998
 21
18.84313483298439
 31
0.0
  0
LINE
  5
4440
  8
241
 10
143.4999999999998
 20
20.843134832984362
 30
0.0
 11
143.4999999999998
 21
18.84313483298439
 31
0.0
  0
LINE
  5
4441
  8
241
 10
143.4999999999998
 20
-20.843134832984578
 30
0.0
 11
134.4999999999998
 21
-20.843134832984578
 31
0.0
  0
LINE
  5
4442
  8
241
 10
143.4999999999998
 20
-18.843134832984578
 30
0.0
 11
134.4999999999998
 21
-18.843134832984578
 31
0.0
  0
LINE
  5
4443
  8
241
 10
143.4999999999998
 20
-20.843134832984578
 30
0.0
 11
143.4999999999998
 21
-18.843134832984578
 31
0.0
  0
LINE
  5
4444
  8
242
 10
133.9999999999998
 20
17.499999999999879
 30
0.0
 11
131.4999999999998
 21
17.499999999999879
 31
0.0
  0
LINE
  5
4445
  8
242
 10
133.9999999999998
 20
-17.500000000000082
 30
0.0
 11
131.4999999999998
 21
-17.500000000000082
 31
0.0
  0
LINE
  5
4448
  8
246
 10
91.999999999999929
 20
9.4999999999999432
 30
0.0
 11
84.809401076758377
 21
2.3094010767584039
 31
0.0
  0
LINE
  5
4449
  8
246
 10
84.809401076758377
 20
1.15470053837913
 30
0.0
 11
80.398717474235454
 21
1.15470053837913
 31
0.0
  0
LINE
  5
444A
  8
246
 10
84.809401076758377
 20
2.309401076758375
 30
0.0
 11
80.398717474235454
 21
2.3094010767584039
 31
0.0
  0
LINE
  5
444B
  8
246
 10
79.999999999999915
 20
2.999999999999885
 30
0.0
 11
80.398717474235454
 21
2.309401076758375
 31
0.0
  0
LINE
  5
444C
  8
246
 10
79.999999999999915
 20
1.7123935666980961
 30
0.0
 11
79.999999999999915
 21
2.999999999999885
 31
0.0
  0
ARC
  5
444D
  8
246
 10
72.999999999999929
 20
8.7499999999998863
 30
0.0
 40
1.0
 50
90.0
 51
180.0
  0
LINE
  5
444E
  8
246
 10
72.999999999999929
 20
9.7499999999998863
 30
0.0
 11
76.999999999999929
 21
9.7499999999998863
 31
0.0
  0
LINE
  5
4451
  8
246
 10
91.999999999999929
 20
-9.5000000000001421
 30
0.0
 11
84.809401076758377
 21
-2.3094010767586042
 31
0.0
  0
LINE
  5
4452
  8
246
 10
84.809401076758377
 20
-1.1547005383793569
 30
0.0
 11
80.398717474235454
 21
-1.1547005383793569
 31
0.0
  0
LINE
  5
4453
  8
246
 10
84.809401076758377
 20
-2.3094010767586042
 30
0.0
 11
80.398717474235454
 21
-2.3094010767586042
 31
0.0
  0
LINE
  5
4454
  8
246
 10
79.999999999999915
 20
-3.0000000000000839
 30
0.0
 11
80.398717474235454
 21
-2.309401076758574
 31
0.0
  0
LINE
  5
4455
  8
246
 10
79.999999999999915
 20
-1.7123935666982939
 30
0.0
 11
79.999999999999915
 21
-3.0000000000000839
 31
0.0
  0
LINE
  5
4456
  8
246
 10
72.999999999999929
 20
-9.7500000000000835
 30
0.0
 11
76.999999999999929
 21
-9.7500000000000835
 31
0.0
  0
LINE
  5
4457
  8
246
 10
144.39999999999981
 20
-14.25000000000008
 30
0.0
 11
111.9999999999999
 21
-10.84462277739217
 31
0.0
  0
LINE
  5
4458
  8
246
 10
144.39999999999981
 20
-12.50000000000008
 30
0.0
 11
144.39999999999981
 21
-14.25000000000008
 31
0.0
  0
LINE
  5
4459
  8
246
 10
146.7999999999999
 20
-14.25000000000008
 30
0.0
 11
146.9999999999998
 21
-14.25000000000008
 31
0.0
  0
LINE
  5
445A
  8
246
 10
146.9999999999998
 20
-14.25000000000008
 30
0.0
 11
149.9999999999998
 21
-12.517949192431191
 31
0.0
  0
LINE
  5
445B
  8
246
 10
146.7999999999999
 20
-12.50000000000008
 30
0.0
 11
146.7999999999999
 21
-14.25000000000008
 31
0.0
  0
LINE
  5
445C
  8
246
 10
144.39999999999981
 20
-12.50000000000008
 30
0.0
 11
146.7999999999999
 21
-12.50000000000008
 31
0.0
  0
LINE
  5
445D
  8
246
 10
149.9999999999998
 20
-10.00000000000008
 30
0.0
 11
111.9999999999999
 21
-10.00000000000008
 31
0.0
  0
LINE
  5
445E
  8
246
 10
144.39999999999981
 20
14.249999999999879
 30
0.0
 11
111.9999999999999
 21
10.844622777391971
 31
0.0
  0
LINE
  5
445F
  8
246
 10
144.39999999999981
 20
12.499999999999879
 30
0.0
 11
144.39999999999981
 21
14.249999999999879
 31
0.0
  0
LINE
  5
4460
  8
246
 10
146.7999999999999
 20
14.249999999999879
 30
0.0
 11
146.9999999999998
 21
14.249999999999879
 31
0.0
  0
LINE
  5
4461
  8
246
 10
146.9999999999998
 20
14.249999999999879
 30
0.0
 11
149.9999999999998
 21
12.51794919243099
 31
0.0
  0
LINE
  5
4462
  8
246
 10
146.7999999999999
 20
12.499999999999879
 30
0.0
 11
146.7999999999999
 21
14.249999999999879
 31
0.0
  0
LINE
  5
4463
  8
246
 10
144.39999999999981
 20
12.499999999999879
 30
0.0
 11
146.7999999999999
 21
12.499999999999879
 31
0.0
  0
LINE
  5
4464
  8
246
 10
149.9999999999998
 20
9.9999999999998863
 30
0.0
 11
111.9999999999999
 21
9.9999999999998863
 31
0.0
  0
LINE
  5
4465
  8
243
 10
141.9999999999998
 20
17.499999999999879
 30
0.0
 11
141.4999999999998
 21
17.999999999999879
 31
0.0
  0
LINE
  5
4466
  8
243
 10
133.9999999999998
 20
17.999999999999879
 30
0.0
 11
141.4999999999998
 21
17.999999999999879
 31
0.0
  0
LINE
  5
4467
  8
243
 10
141.9999999999998
 20
-17.500000000000082
 30
0.0
 11
141.4999999999998
 21
-18.000000000000082
 31
0.0
  0
LINE
  5
4468
  8
243
 10
133.9999999999998
 20
-18.000000000000082
 30
0.0
 11
141.4999999999998
 21
-18.000000000000082
 31
0.0
  0
LINE
  5
446A
  8
246
 10
76.999999999999929
 20
9.7499999999998863
 30
0.0
 11
77.749999999999929
 21
10.499999999999879
 31
0.0
  0
LINE
  5
446B
  8
246
 10
76.999999999999929
 20
-9.7500000000000835
 30
0.0
 11
77.749999999999929
 21
-10.50000000000008
 31
0.0
  0
LINE
  5
446E
  8
246
 10
80.398717474235454
 20
-2.3094010767586042
 30
0.0
 11
80.398717474235454
 21
2.3094010767584039
 31
0.0
  0
LINE
  5
446F
  8
246
 10
84.809401076758377
 20
-2.3094010767586042
 30
0.0
 11
84.809401076758377
 21
2.309401076758375
 31
0.0
  0
LINE
  5
4471
  8
246
 10
111.9999999999999
 20
-10.84462277739217
 30
0.0
 11
111.9999999999999
 21
10.844622777391971
 31
0.0
  0
LINE
  5
4474
  8
246
 10
91.299999999999969
 20
-10.50000000000008
 30
0.0
 11
91.999999999999929
 21
-9.8000000000000966
 31
0.0
  0
LINE
  5
4475
  8
246
 10
91.999999999999929
 20
-9.8000000000000966
 30
0.0
 11
91.999999999999929
 21
9.7999999999998941
 31
0.0
  0
LINE
  5
4476
  8
246
 10
91.999999999999929
 20
9.7999999999998941
 30
0.0
 11
91.299999999999969
 21
10.499999999999879
 31
0.0
  0
LINE
  5
4477
  8
246
 10
77.749999999999929
 20
10.499999999999879
 30
0.0
 11
91.299999999999969
 21
10.499999999999879
 31
0.0
  0
LINE
  5
4479
  8
246
 10
77.749999999999929
 20
-10.50000000000008
 30
0.0
 11
91.299999999999969
 21
-10.50000000000008
 31
0.0
  0
LINE
  5
447B
  8
246
 10
71.999999999999929
 20
8.7499999999998863
 30
0.0
 11
71.999999999999929
 21
-8.7500000000000853
 31
0.0
  0
ARC
  5
447C
  8
246
 10
72.999999999999929
 20
-8.7500000000000853
 30
0.0
 40
1.0
 50
180.0
 51
270.0
  0
LINE
  5
447D
  8
246
 10
79.999999999999915
 20
2.999999999999885
 30
0.0
 11
71.999999999999929
 21
2.999999999999885
 31
0.0
  0
LINE
  5
447E
  8
246
 10
79.999999999999915
 20
-3.0000000000000839
 30
0.0
 11
71.999999999999929
 21
-3.0000000000000839
 31
0.0
  0
LINE
  5
447F
  8
243
 10
141.9999999999998
 20
-17.500000000000082
 30
0.0
 11
141.9999999999998
 21
-13.997749835362439
 31
0.0
  0
LINE
  5
4480
  8
243
 10
141.9999999999998
 20
17.499999999999879
 30
0.0
 11
141.9999999999998
 21
13.997749835362271
 31
0.0
  0
LINE
  5
4481
  8
244
 10
133.9999999999998
 20
17.499999999999879
 30
0.0
 11
141.9999999999998
 21
17.499999999999879
 31
0.0
  0
LINE
  5
4482
  8
244
 10
133.9999999999998
 20
-17.500000000000082
 30
0.0
 11
141.9999999999998
 21
-17.500000000000082
 31
0.0
  0
LINE
  5
4487
  8
246
 10
77.39999999999992
 20
10.14999999999989
 30
0.0
 11
91.64999999999992
 21
10.14999999999989
 31
0.0
  0
LINE
  5
4489
  8
246
 10
77.39999999999992
 20
-10.150000000000119
 30
0.0
 11
91.64999999999992
 21
-10.150000000000119
 31
0.0
  0
ARC
  5
448B
  8
240
 10
128.4999999999998
 20
19.749999999999829
 30
0.0
 40
1.0
 50
0.0
 51
90.0
1001
GENIUS_GENOREF_13
1005
0
  0
LINE
  5
448C
  8
240
 10
129.4999999999998
 20
19.749999999999829
 30
0.0
 11
129.4999999999998
 21
18.999999999999879
 31
0.0
  0
ARC
  5
448D
  8
240
 10
128.4999999999998
 20
-19.75000000000006
 30
0.0
 40
1.0
 50
270.0
 51
0.0
  0
LINE
  5
448E
  8
240
 10
129.4999999999998
 20
-19.75000000000006
 30
0.0
 11
129.4999999999998
 21
-19.00000000000011
 31
0.0
  0
LINE
  5
448F
  8
241
 10
128.4999999999998
 20
20.749999999999829
 30
0.0
 11
128.4999999999998
 21
16.357752945141382
 31
0.0
  0
LINE
  5
4490
  8
241
 10
128.4999999999998
 20
-16.105948363995481
 30
0.0
 11
128.4999999999998
 21
-20.75000000000006
 31
0.0
  0
LINE
  5
456F
  8
250
 10
85.499999999997499
 20
29.171572875258761
 30
0.0
 11
85.499999999997499
 21
50.00000000001225
 31
0.0
  0
LINE
  5
4570
  8
250
 10
149.99999999999781
 20
21.62720779387648
 30
0.0
 11
149.99999999999781
 21
50.000000000012292
 31
0.0
  0
LINE
  5
4571
  8
250
 10
87.729999999997503
 20
49.000000000012271
 30
0.0
 11
147.76999999999779
 21
49.000000000012271
 31
0.0
  0
INSERT
  5
4574
  8
241
  2
*U7
 10
0.0
 20
0.0
 30
0.0
  0
LINE
  5
4576
  8
250
 10
-0.0000000000022937
 20
22.724999999997131
 30
0.0
 11
-0.0000000000022907
 21
57.00000000001225
 31
0.0
  0
LINE
  5
4577
  8
250
 10
149.99999999999781
 20
21.62720779387648
 30
0.0
 11
149.99999999999781
 21
57.00000000001225
 31
0.0
  0
LINE
  5
4578
  8
250
 10
2.229999999997708
 20
56.000000000012271
 30
0.0
 11
147.76999999999779
 21
56.000000000012271
 31
0.0
  0
INSERT
  5
457B
  8
241
  2
*U8
 10
0.0
 20
0.0
 30
0.0
  0
LINE
  5
457C
  8
250
 10
150.4999999999998
 20
-10.00000000000008
 30
0.0
 11
167.6329724424391
 21
-10.000000000000091
 31
0.0
  0
LINE
  5
457D
  8
250
 10
150.4999999999998
 20
9.9999999999998863
 30
0.0
 11
167.6329724424391
 21
9.9999999999998792
 31
0.0
  0
LINE
  5
457E
  8
250
 10
166.6329724424391
 20
-7.7700000000000893
 30
0.0
 11
166.6329724424391
 21
7.7699999999998779
 31
0.0
  0
INSERT
  5
4581
  8
241
  2
*U9
 10
0.0
 20
0.0
 30
0.0
  0
LINE
  5
4582
  8
250
 10
148.58578643762681
 20
-23.000000000000089
 30
0.0
 11
174.63297244243921
 21
-23.000000000000089
 31
0.0
  0
LINE
  5
4583
  8
250
 10
148.58578643762681
 20
22.99999999999989
 30
0.0
 11
174.63297244243921
 21
22.999999999999879
 31
0.0
  0
LINE
  5
4584
  8
250
 10
173.63297244243921
 20
-20.770000000000081
 30
0.0
 11
173.63297244243921
 21
20.769999999999879
 31
0.0
  0
INSERT
  5
4587
  8
241
  2
*U10
 10
0.0
 20
0.0
 30
0.0
  0
LINE
  5
4588
  8
250
 10
92.000000000000909
 20
-10.299999999993551
 30
0.0
 11
92.000000000000909
 21
-49.999999999987729
 31
0.0
  0
LINE
  5
4589
  8
250
 10
150.0000000000021
 20
-21.627207793851952
 30
0.0
 11
150.0000000000021
 21
-49.999999999987729
 31
0.0
  0
LINE
  5
458A
  8
250
 10
94.230000000000913
 20
-48.999999999987722
 30
0.0
 11
147.77000000000211
 21
-48.999999999987722
 31
0.0
  0
INSERT
  5
458D
  8
241
  2
*U11
 10
0.0
 20
0.0
 30
0.0
  0
LINE
  5
458E
  8
250
 10
147.76999999999779
 20
49.371666666678927
 30
0.0
 11
149.99999999999781
 21
49.000000000012271
 31
0.0
  0
LINE
  5
458F
  8
250
 10
147.76999999999779
 20
48.628333333345601
 30
0.0
 11
149.99999999999781
 21
49.000000000012271
 31
0.0
  0
LINE
  5
4590
  8
250
 10
149.99999999999781
 20
49.000000000012271
 30
0.0
 11
147.76999999999779
 21
49.000000000012271
 31
0.0
  0
LINE
  5
4591
  8
250
 10
87.729999999997503
 20
48.628333333345601
 30
0.0
 11
85.499999999997499
 21
49.000000000012271
 31
0.0
  0
LINE
  5
4592
  8
250
 10
87.729999999997503
 20
49.371666666678927
 30
0.0
 11
85.499999999997499
 21
49.000000000012271
 31
0.0
  0
LINE
  5
4593
  8
250
 10
85.499999999997499
 20
49.000000000012271
 30
0.0
 11
87.729999999997503
 21
49.000000000012271
 31
0.0
  0
LINE
  5
4594
  8
250
 10
147.76999999999779
 20
56.371666666678927
 30
0.0
 11
149.99999999999781
 21
56.000000000012271
 31
0.0
  0
LINE
  5
4595
  8
250
 10
147.76999999999779
 20
55.628333333345587
 30
0.0
 11
149.99999999999781
 21
56.000000000012271
 31
0.0
  0
LINE
  5
4596
  8
250
 10
149.99999999999781
 20
56.000000000012271
 30
0.0
 11
147.76999999999779
 21
56.000000000012271
 31
0.0
  0
LINE
  5
4597
  8
250
 10
2.229999999997708
 20
55.628333333345587
 30
0.0
 11
-0.0000000000022908
 21
56.000000000012271
 31
0.0
  0
LINE
  5
4598
  8
250
 10
2.229999999997708
 20
56.371666666678927
 30
0.0
 11
-0.0000000000022908
 21
56.000000000012271
 31
0.0
  0
LINE
  5
4599
  8
250
 10
-0.0000000000022908
 20
56.000000000012271
 30
0.0
 11
2.229999999997708
 21
56.000000000012271
 31
0.0
  0
LINE
  5
459A
  8
250
 10
166.26130577577251
 20
7.7699999999998779
 30
0.0
 11
166.6329724424391
 21
9.9999999999998792
 31
0.0
  0
LINE
  5
459B
  8
250
 10
167.00463910910591
 20
7.7699999999998779
 30
0.0
 11
166.6329724424391
 21
9.9999999999998792
 31
0.0
  0
LINE
  5
459C
  8
250
 10
166.6329724424391
 20
9.9999999999998792
 30
0.0
 11
166.6329724424391
 21
7.7699999999998779
 31
0.0
  0
LINE
  5
459D
  8
250
 10
167.00463910910591
 20
-7.7700000000000893
 30
0.0
 11
166.6329724424391
 21
-10.000000000000091
 31
0.0
  0
LINE
  5
459E
  8
250
 10
166.26130577577251
 20
-7.7700000000000893
 30
0.0
 11
166.6329724424391
 21
-10.000000000000091
 31
0.0
  0
LINE
  5
459F
  8
250
 10
166.6329724424391
 20
-10.000000000000091
 30
0.0
 11
166.6329724424391
 21
-7.7700000000000893
 31
0.0
  0
LINE
  5
45A0
  8
250
 10
173.26130577577251
 20
20.769999999999879
 30
0.0
 11
173.63297244243921
 21
22.999999999999879
 31
0.0
  0
LINE
  5
45A1
  8
250
 10
174.00463910910591
 20
20.769999999999879
 30
0.0
 11
173.63297244243921
 21
22.999999999999879
 31
0.0
  0
LINE
  5
45A2
  8
250
 10
173.63297244243921
 20
22.999999999999879
 30
0.0
 11
173.63297244243921
 21
20.769999999999879
 31
0.0
  0
LINE
  5
45A3
  8
250
 10
174.00463910910591
 20
-20.770000000000081
 30
0.0
 11
173.63297244243921
 21
-23.000000000000089
 31
0.0
  0
LINE
  5
45A4
  8
250
 10
173.26130577577251
 20
-20.770000000000081
 30
0.0
 11
173.63297244243921
 21
-23.000000000000089
 31
0.0
  0
LINE
  5
45A5
  8
250
 10
173.63297244243921
 20
-23.000000000000089
 30
0.0
 11
173.63297244243921
 21
-20.770000000000081
 31
0.0
  0
LINE
  5
45A6
  8
250
 10
147.77000000000211
 20
-48.628333333321059
 30
0.0
 11
150.0000000000021
 21
-48.999999999987722
 31
0.0
  0
LINE
  5
45A7
  8
250
 10
147.77000000000211
 20
-49.371666666654399
 30
0.0
 11
150.0000000000021
 21
-48.999999999987722
 31
0.0
  0
LINE
  5
45A8
  8
250
 10
150.0000000000021
 20
-48.999999999987722
 30
0.0
 11
147.77000000000211
 21
-48.999999999987722
 31
0.0
  0
LINE
  5
45A9
  8
250
 10
94.230000000000913
 20
-49.371666666654399
 30
0.0
 11
92.000000000000909
 21
-48.999999999987722
 31
0.0
  0
LINE
  5
45AA
  8
250
 10
94.230000000000913
 20
-48.628333333321059
 30
0.0
 11
92.000000000000909
 21
-48.999999999987722
 31
0.0
  0
LINE
  5
45AB
  8
250
 10
92.000000000000909
 20
-48.999999999987722
 30
0.0
 11
94.230000000000913
 21
-48.999999999987722
 31
0.0
  0
LINE
  5
45DF
  8
AM_5
 10
-0.0000000000000568
 20
22.724999999999991
 30
0.0
 11
-0.0000000000000543
 21
50.0
 31
0.0
  0
LINE
  5
45E0
  8
250
 10
85.500000000000455
 20
29.171572875254039
 30
0.0
 11
85.500000000000455
 21
50.0
 31
0.0
  0
LINE
  5
45E1
  8
250
 10
2.229999999999944
 20
49.0
 30
0.0
 11
83.270000000000465
 21
49.0
 31
0.0
  0
INSERT
  5
45E4
  8
241
  2
*U12
 10
0.0
 20
0.0
 30
0.0
  0
LINE
  5
45E5
  8
250
 10
83.270000000000465
 20
49.37166666666667
 30
0.0
 11
85.500000000000455
 21
49.0
 31
0.0
  0
LINE
  5
45E6
  8
250
 10
83.270000000000465
 20
48.62833333333333
 30
0.0
 11
85.500000000000455
 21
49.0
 31
0.0
  0
LINE
  5
45E7
  8
250
 10
85.500000000000455
 20
49.0
 30
0.0
 11
83.270000000000465
 21
49.0
 31
0.0
  0
LINE
  5
45E8
  8
250
 10
2.229999999999944
 20
48.62833333333333
 30
0.0
 11
-0.0000000000000543
 21
49.0
 31
0.0
  0
LINE
  5
45E9
  8
250
 10
2.229999999999944
 20
49.37166666666667
 30
0.0
 11
-0.0000000000000543
 21
49.0
 31
0.0
  0
LINE
  5
45EA
  8
250
 10
-0.0000000000000543
 20
49.0
 30
0.0
 11
2.229999999999944
 21
49.0
 31
0.0
  0
TEXT
  5
463B
  8
241
 10
-63.0
 20
69.999999999999972
 30
0.0
 40
5.0
  1
BBT40-NBS20-150NRA
  7
YOKO
 11
-63.0
 21
69.999999999999972
 31
0.0
 73
     1
  0
LINE
  5
4AE0
  8
240
 10
-0.0000000000000568
 20
22.225000000000001
 30
0.0
 11
0.9999999999999431
 21
22.225000000000001
 31
0.0
  0
LINE
  5
4AE1
  8
240
 10
0.0000000000000568
 20
-22.225000000000069
 30
0.0
 11
0.9999999999999431
 21
-22.225000000000069
 31
0.0
  0
VIEWPORT
  5
22
 67
     1
  8
0
 10
261.51769911504419
 20
148.5
 30
0.0
 40
523.0353982300885
 41
297.0
 68
     1
 69
     1
1001
ACAD
1000
MVIEW
1002
{
1070
    16
1010
0.0
1020
0.0
1030
0.0
1010
0.0
1020
0.0
1030
1.0
1040
0.0
1040
297.0
1040
261.51769911504419
1040
148.5
1040
50.0
1040
0.0
1040
0.0
1070
     0
1070
   100
1070
     1
1070
     1
1070
     0
1070
     0
1070
     0
1070
     0
1040
0.0
1040
0.0
1040
0.0
1040
1.0
1040
1.0
1040
10.0
1040
10.0
1070
     0
1002
{
1002
}
1002
}
1001
GENIUS_GENODEF_13
1002
{
1000
HIER
1070
     0
1002
}
1002
{
1000
MANEDIT
1070
     0
1002
}
1002
{
1000
NOSEL
1070
     0
1002
}
1002
{
1000
BEHIND
1070
     0
1002
}
1002
{
1000
OTHER
1070
     0
1002
}
1002
{
1000
REACTOR
1002
}
1001
GENIUS_GENOBJ-N-SDF_13
1002
{
1000
OWNER
1000
GEN
1002
}
1001
GENIUS_GENSCREG_15
1000
PF
1040
1.0
1000
DF
1040
1.0
1000
MIN
1011
0.0
1021
0.0
1031
0.0
1021
0.0
1031
0.0
1000
MAX
1011
523.0353982300885
1021
0.0
1031
0.0
1021
297.0
1031
0.0
1000
FLAGS
1070
     4
  0
ENDSEC
  0
EOF
