  0
SECTION
  2
HEADER
  9
$ACADVER
  1
AC1009
  9
$INSBASE
 10
0.0
 20
0.0
 30
0.0
  9
$EXTMIN
 10
-76.047619047619051
 20
-50.0
 30
0.0
  9
$EXTMAX
 10
145.00464010910591
 20
75.000000000000369
 30
0.0
  9
$LIMMIN
 10
0.0
 20
0.0
  9
$LIMMAX
 10
297.0
 20
210.0
  9
$ORTHOMODE
 70
     0
  9
$REGENMODE
 70
     1
  9
$FILLMODE
 70
     1
  9
$QTEXTMODE
 70
     0
  9
$MIRRTEXT
 70
     1
  9
$DRAGMODE
 70
     2
  9
$LTSCALE
 40
10.0
  9
$OSMODE
 70
    63
  9
$ATTMODE
 70
     1
  9
$TEXTSIZE
 40
3.0
  9
$TRACEWID
 40
1.0
  9
$TEXTSTYLE
  7
YOKO
  9
$CLAYER
  8
240
  9
$CELTYPE
  6
BYLAYER
  9
$CECOLOR
 62
   256
  9
$DIMSCALE
 40
1.0
  9
$DIMASZ
 40
2.2299999999999991
  9
$DIMEXO
 40
0.5
  9
$DIMDLI
 40
7.0
  9
$DIMRND
 40
0.0
  9
$DIMDLE
 40
0.0
  9
$DIMEXE
 40
1.0
  9
$DIMTP
 40
0.0
  9
$DIMTM
 40
0.01
  9
$DIMTXT
 40
2.7999999999999989
  9
$DIMCEN
 40
0.0
  9
$DIMTSZ
 40
0.0
  9
$DIMTOL
 70
     0
  9
$DIMLIM
 70
     0
  9
$DIMTIH
 70
     0
  9
$DIMTOH
 70
     0
  9
$DIMSE1
 70
     0
  9
$DIMSE2
 70
     0
  9
$DIMTAD
 70
     3
  9
$DIMZIN
 70
     9
  9
$DIMBLK
  1
OPEN
  9
$DIMASO
 70
     1
  9
$DIMSHO
 70
     1
  9
$DIMPOST
  1

  9
$DIMAPOST
  1

  9
$DIMALT
 70
     0
  9
$DIMALTD
 70
     2
  9
$DIMALTF
 40
25.399999999999999
  9
$DIMLFAC
 40
1.0
  9
$DIMTOFL
 70
     1
  9
$DIMTVP
 40
0.0
  9
$DIMTIX
 70
     1
  9
$DIMSOXD
 70
     0
  9
$DIMSAH
 70
     0
  9
$DIMBLK1
  1

  9
$DIMBLK2
  1

  9
$DIMSTYLE
  2
BIGT
  9
$DIMCLRD
 70
   256
  9
$DIMCLRE
 70
   256
  9
$DIMCLRT
 70
    40
  9
$DIMTFAC
 40
1.0
  9
$DIMGAP
 40
1.0
  9
$LUNITS
 70
     2
  9
$LUPREC
 70
     6
  9
$SKETCHINC
 40
1.0
  9
$FILLETRAD
 40
0.0
  9
$AUNITS
 70
     0
  9
$AUPREC
 70
     6
  9
$MENU
  1
.
  9
$ELEVATION
 40
0.0
  9
$PELEVATION
 40
0.0
  9
$THICKNESS
 40
0.0
  9
$LIMCHECK
 70
     0
  9
$BLIPMODE
 70
     0
  9
$CHAMFERA
 40
0.2
  9
$CHAMFERB
 40
0.2
  9
$SKPOLY
 70
     0
  9
$TDCREATE
 40
2457241.7426276621
  9
$TDUPDATE
 40
2457242.3803989119
  9
$TDINDWG
 40
0.0054472106
  9
$TDUSRTIMER
 40
0.0054471759
  9
$USRTIMER
 70
     1
  9
$ANGBASE
 50
0.0
  9
$ANGDIR
 70
     0
  9
$PDMODE
 70
     1
  9
$PDSIZE
 40
0.0
  9
$PLINEWID
 40
0.0
  9
$COORDS
 70
     1
  9
$SPLFRAME
 70
     0
  9
$SPLINETYPE
 70
     6
  9
$SPLINESEGS
 70
     4
  9
$ATTDIA
 70
     1
  9
$ATTREQ
 70
     1
  9
$HANDLING
 70
     1
  9
$HANDSEED
  5
494C
  9
$SURFTAB1
 70
     6
  9
$SURFTAB2
 70
     6
  9
$SURFTYPE
 70
     6
  9
$SURFU
 70
     6
  9
$SURFV
 70
     6
  9
$UCSNAME
  2

  9
$UCSORG
 10
0.0
 20
0.0
 30
0.0
  9
$UCSXDIR
 10
1.0
 20
0.0
 30
0.0
  9
$UCSYDIR
 10
0.0
 20
1.0
 30
0.0
  9
$PUCSNAME
  2

  9
$PUCSORG
 10
0.0
 20
0.0
 30
0.0
  9
$PUCSXDIR
 10
1.0
 20
0.0
 30
0.0
  9
$PUCSYDIR
 10
0.0
 20
1.0
 30
0.0
  9
$USERI1
 70
     1
  9
$USERI2
 70
     0
  9
$USERI3
 70
     0
  9
$USERI4
 70
     0
  9
$USERI5
 70
     0
  9
$USERR1
 40
0.0
  9
$USERR2
 40
0.0
  9
$USERR3
 40
0.0
  9
$USERR4
 40
0.0
  9
$USERR5
 40
0.0
  9
$WORLDVIEW
 70
     1
  9
$SHADEDGE
 70
     3
  9
$SHADEDIF
 70
    70
  9
$TILEMODE
 70
     1
  9
$MAXACTVP
 70
    16
  9
$PLIMCHECK
 70
     0
  9
$PEXTMIN
 10
1.0000000000000000E+020
 20
1.0000000000000000E+020
 30
1.0000000000000000E+020
  9
$PEXTMAX
 10
-1.0000000000000000E+020
 20
-1.0000000000000000E+020
 30
-1.0000000000000000E+020
  9
$PLIMMIN
 10
0.0
 20
0.0
  9
$PLIMMAX
 10
420.0
 20
297.0
  9
$UNITMODE
 70
     0
  9
$VISRETAIN
 70
     1
  9
$PLINEGEN
 70
     0
  9
$PSLTSCALE
 70
     1
  0
ENDSEC
  0
SECTION
  2
TABLES
  0
TABLE
  2
VPORT
 70
     1
  0
VPORT
  2
*ACTIVE
 70
     0
 10
0.0
 20
0.0
 11
1.0
 21
1.0
 12
34.478394113455849
 22
24.196292233243579
 13
0.0
 23
0.0
 14
7.0
 24
7.0
 15
7.0
 25
7.0
 16
0.0
 26
0.0
 36
1.0
 17
0.0
 27
0.0
 37
0.0
 40
154.64069316991851
 41
1.4355016538037479
 42
50.0
 43
0.0
 44
0.0
 50
0.0
 51
0.0
 71
     0
 72
  2000
 73
     1
 74
     0
 75
     1
 76
     1
 77
     0
 78
     0
  0
ENDTAB
  0
TABLE
  2
LTYPE
 70
    13
  0
LTYPE
  2
CONTINUOUS
 70
     0
  3
Solid line
 72
    65
 73
     0
 40
0.0
  0
LTYPE
  2
CENTER2
 70
     0
  3
___ _ ___ _ ___ _ ___ _ ___ _ ___ _ ___ _ ___ _
 72
    65
 73
     4
 40
1.125
 49
0.75
 49
-0.125
 49
0.125
 49
-0.125
  0
LTYPE
  2
HIDDEN2
 70
     0
  3
_ _ _ _ _ _ _ _ _ _ _ _ _ _ _ _ _ _ _ _ _ _ _ _
 72
    65
 73
     2
 40
0.1875
 49
0.125
 49
-0.0625
  0
LTYPE
  2
PHANTOM2
 70
     0
  3
___ _ _ ___ _ _ ___ _ _ ___ _ _ ___ _ _ ___ _ _
 72
    65
 73
     6
 40
1.25
 49
0.625
 49
-0.125
 49
0.125
 49
-0.125
 49
0.125
 49
-0.125
  0
LTYPE
  2
AM_ISO02W050
 70
     0
  3
__ __ __ __ __ __ __ __ __ __ __ __ __ __ __
 72
    65
 73
     2
 40
7.5
 49
6.0
 49
-1.5
  0
LTYPE
  2
AMCONSTR
 70
     0
  3
_______________________
 72
    65
 73
     2
 40
9999.0
 49
9999.0
 49
0.0
  0
LTYPE
  2
ACISOWELD
 70
     0
  3
_ _ _ _ _
 72
    65
 73
     2
 40
2.0
 49
2.0
 49
-1.0
  0
LTYPE
  2
ACISOTGB
 70
     0
  3
__ . . __ . .
 72
    65
 73
     6
 40
9.0
 49
4.0
 49
-1.0
 49
1.0
 49
-1.0
 49
1.0
 49
-1.0
  0
LTYPE
  2
ACISOTGL
 70
     0
  3
_ _ _ _ _
 72
    65
 73
     2
 40
3.0
 49
2.0
 49
-1.0
  0
LTYPE
  2
ACJISTGB
 70
     0
  3
__ . . __ . .
 72
    65
 73
     6
 40
9.0
 49
4.0
 49
-1.0
 49
1.0
 49
-1.0
 49
1.0
 49
-1.0
  0
LTYPE
  2
ACJISTGL
 70
     0
  3
_ _ _ _ _
 72
    65
 73
     2
 40
3.0
 49
2.0
 49
-1.0
  0
ENDTAB
  0
TABLE
  2
LAYER
 70
    11
  0
LAYER
  2
0
 70
     0
 62
     7
  6
CONTINUOUS
  0
LAYER
  2
DEFPOINTS
 70
     0
 62
     7
  6
CONTINUOUS
  0
LAYER
  2
245
 70
     0
 62
     2
  6
CENTER2
  0
LAYER
  2
240
 70
     0
 62
     4
  6
CONTINUOUS
  0
LAYER
  2
241
 70
     0
 62
   211
  6
CONTINUOUS
  0
LAYER
  2
242
 70
     0
 62
     3
  6
CONTINUOUS
  0
LAYER
  2
243
 70
     0
 62
   211
  6
HIDDEN2
  0
LAYER
  2
244
 70
     0
 62
     3
  6
HIDDEN2
  0
LAYER
  2
246
 70
     0
 62
     3
  6
PHANTOM2
  0
LAYER
  2
250
 70
     0
 62
     3
  6
CONTINUOUS
  0
LAYER
  2
AM_5
 70
     0
 62
     3
  6
CONTINUOUS
  0
ENDTAB
  0
TABLE
  2
STYLE
 70
     6
  0
STYLE
  2
STANDARD
 70
     0
 40
0.0
 41
1.0
 50
0.0
 71
     0
 42
3.0
  3
romans.shx
  4
extfont.shx
  0
STYLE
  2
ACISOTS
 70
     0
 40
1.0
 41
1.0
 50
0.0
 71
     0
 42
3.0
  3
amgdt.shx
  4
extfont.shx
  0
STYLE
  2
ACISOGDT
 70
     0
 40
0.0
 41
1.0
 50
0.0
 71
     0
 42
3.0
  3
amgdt.shx
  4
extfont.shx
  0
STYLE
  2
ACJISTS
 70
     0
 40
1.0
 41
1.0
 50
0.0
 71
     0
 42
3.0
  3
amgdt.shx
  4
extfont.shx
  0
STYLE
  2
ACJISGDT
 70
     0
 40
0.0
 41
1.0
 50
0.0
 71
     0
 42
3.0
  3
amgdt.shx
  4
extfont.shx
  0
STYLE
  2
YOKO
 70
     0
 40
0.0
 41
1.0
 50
0.0
 71
     0
 42
3.0
  3
romans.shx
  4
extfont.shx
  0
ENDTAB
  0
TABLE
  2
VIEW
 70
     0
  0
ENDTAB
  0
TABLE
  2
UCS
 70
     0
  0
ENDTAB
  0
TABLE
  2
APPID
 70
    35
  0
APPID
  2
ACAD
 70
     0
  0
APPID
  2
GLOBAL
 70
     0
  0
APPID
  2
DETAIL
 70
     0
  0
APPID
  2
GRPNAME
 70
     0
  0
APPID
  2
GPARA
 70
     0
  0
APPID
  2
MCAD_NO_VIS
 70
     0
  0
APPID
  2
ACAD_TEMP_GRAPHIC
 70
     0
  0
APPID
  2
ACATTRIBSERVICES
 70
     0
  0
APPID
  2
GENIUS_GENSCREG_15
 70
     0
  0
APPID
  2
GENIUS_GENODEF_13
 70
     0
  0
APPID
  2
GENIUS_GENOBJ-N-SDF_13
 70
     0
  0
APPID
  2
GENIUS_GENREC_14
 70
     0
  0
APPID
  2
GENIUS_GENOBJ-N-REC_13
 70
     0
  0
APPID
  2
GENIUS_GENDIMSH_14
 70
     0
  0
APPID
  2
GENIUS_GENOBJ-N-DIM_13
 70
     0
  0
APPID
  2
GENIUS_GENDIM_13
 70
     0
  0
APPID
  2
GENIUS_GENDTOL_13
 70
     0
  0
APPID
  2
GENIUS_GENOLIS_13
 70
     0
  0
APPID
  2
GENIUS_GENOENT_13
 70
     0
  0
APPID
  2
GENIUS_GENOBJ-F-FEM_13
 70
     0
  0
APPID
  2
GENIUS_GENOREF_13
 70
     0
  0
APPID
  2
GENIUS_GEFFEM_13
 70
     0
  0
APPID
  2
GENIUS_GEFFEMP_13
 70
     0
  0
APPID
  2
AD_DRAW
 70
     0
  0
APPID
  2
DESIGNERASSEMBLIES
 70
     0
  0
APPID
  2
ACADM_DIM_EDIT
 70
     0
  0
APPID
  2
AMDT_DM_ADJ
 70
     0
  0
APPID
  2
ITEMNAME
 70
     0
  0
APPID
  2
GENIUS_GENOBJ-N-FIL_13
 70
     0
  0
APPID
  2
GENIUS_GENFIL_13
 70
     0
  0
APPID
  2
GENIUS_GENOBJ-N-CHA_13
 70
     0
  0
APPID
  2
ACAD_NAV_VCDISPLAY
 70
     0
  0
APPID
  2
ACAD_DSTYLE_DIMINSPECT
 70
     0
  0
APPID
  2
ACAD_EXEMPT_FROM_CAD_STANDARDS
 70
     0
  0
APPID
  2
ACAD_MLEADERVER
 70
     0
  0
ENDTAB
  0
TABLE
  2
DIMSTYLE
 70
    23
  0
DIMSTYLE
  2
BIGT
 70
     0
  3

  4

  5
OPEN
  6

  7

 40
1.0
 41
2.2299999999999991
 42
0.5
 43
7.0
 44
1.0
 45
0.0
 46
0.0
 47
0.0
 48
0.01
140
2.7999999999999989
141
0.0
142
0.0
143
25.399999999999999
144
1.0
145
0.0
146
1.0
147
1.0
 71
     0
 72
     0
 73
     0
 74
     0
 75
     0
 76
     0
 77
     3
 78
     9
170
     0
171
     2
172
     1
173
     0
174
     1
175
     0
176
   256
177
   256
178
    40
  0
DIMSTYLE
  2
AM_ISO
 70
     0
  3

  4
"
  5

  6

  7

 40
1.0
 41
2.5
 42
1.0
 43
10.0
 44
1.0
 45
0.0
 46
0.0
 47
0.1
 48
0.1
140
3.5
141
0.0
142
0.0
143
0.0393701
144
1.0
145
0.0
146
0.71
147
1.5
 71
     0
 72
     0
 73
     0
 74
     0
 75
     0
 76
     0
 77
     1
 78
     8
170
     0
171
     2
172
     1
173
     0
174
     0
175
     0
176
   256
177
   256
178
     2
  0
DIMSTYLE
  2
AM_ISO$3
 70
     0
  3

  4
"
  5

  6

  7

 40
1.0
 41
2.5
 42
1.0
 43
10.0
 44
1.0
 45
0.0
 46
0.0
 47
0.1
 48
0.1
140
3.5
141
0.0
142
0.0
143
0.0393701
144
1.0
145
0.0
146
0.71
147
1.5
 71
     0
 72
     0
 73
     0
 74
     1
 75
     0
 76
     0
 77
     1
 78
     8
170
     0
171
     2
172
     0
173
     0
174
     0
175
     0
176
   256
177
   256
178
     2
  0
DIMSTYLE
  2
AM_ISO$4
 70
     0
  3

  4
"
  5

  6

  7

 40
1.0
 41
2.5
 42
1.0
 43
10.0
 44
1.0
 45
0.0
 46
0.0
 47
0.1
 48
0.1
140
3.5
141
0.0
142
0.0
143
0.0393701
144
1.0
145
0.0
146
0.71
147
1.5
 71
     0
 72
     0
 73
     0
 74
     1
 75
     0
 76
     0
 77
     1
 78
     8
170
     0
171
     2
172
     0
173
     0
174
     0
175
     0
176
   256
177
   256
178
     2
  0
DIMSTYLE
  2
AM_ISO$6
 70
     0
  3

  4
"
  5

  6

  7

 40
1.0
 41
2.5
 42
1.0
 43
10.0
 44
1.0
 45
0.0
 46
0.0
 47
0.1
 48
0.1
140
3.5
141
0.0
142
0.0
143
0.0393701
144
1.0
145
0.0
146
0.71
147
1.5
 71
     0
 72
     0
 73
     0
 74
     0
 75
     0
 76
     0
 77
     0
 78
     8
170
     0
171
     2
172
     1
173
     0
174
     0
175
     0
176
   256
177
   256
178
     2
  0
DIMSTYLE
  2
AM_ISO$7
 70
     0
  3

  4
"
  5

  6

  7

 40
1.0
 41
2.5
 42
1.0
 43
10.0
 44
1.0
 45
0.0
 46
0.0
 47
0.1
 48
0.1
140
5.0
141
0.0
142
0.0
143
0.0393701
144
1.0
145
0.0
146
0.71
147
1.5
 71
     0
 72
     0
 73
     0
 74
     0
 75
     0
 76
     0
 77
     1
 78
     8
170
     0
171
     2
172
     1
173
     0
174
     0
175
     0
176
   256
177
   256
178
     2
  0
DIMSTYLE
  2
AM_ISO$SF
 70
     0
  3

  4
"
  5

  6

  7

 40
1.0
 41
2.5
 42
1.0
 43
10.0
 44
1.0
 45
0.0
 46
0.0
 47
0.1
 48
0.1
140
3.5
141
0.0
142
0.0
143
0.0393701
144
1.0
145
0.0
146
0.71
147
1.5
 71
     0
 72
     0
 73
     0
 74
     0
 75
     1
 76
     1
 77
     1
 78
     8
170
     0
171
     2
172
     1
173
     0
174
     0
175
     0
176
   256
177
   256
178
     2
  0
DIMSTYLE
  2
AM_ISO$SH
 70
     0
  3

  4
"
  5

  6
GENAXEH
  7

 40
1.0
 41
2.5
 42
1.0
 43
10.0
 44
1.0
 45
0.0
 46
0.0
 47
0.1
 48
0.1
140
3.5
141
0.0
142
0.0
143
0.0393701
144
2.0
145
0.0
146
0.71
147
1.5
 71
     0
 72
     0
 73
     0
 74
     0
 75
     1
 76
     1
 77
     1
 78
     8
170
     0
171
     2
172
     1
173
     1
174
     0
175
     0
176
   256
177
   256
178
     2
  0
DIMSTYLE
  2
BIGT$2
 70
     0
  3

  4

  5
OPEN
  6

  7

 40
1.0
 41
2.2299999999999991
 42
0.5
 43
7.0
 44
1.0
 45
0.0
 46
0.0
 47
0.0
 48
0.01
140
2.7999999999999989
141
0.0
142
0.0
143
25.399999999999999
144
1.0
145
0.0
146
1.0
147
1.0
 71
     0
 72
     0
 73
     0
 74
     0
 75
     0
 76
     0
 77
     3
 78
     9
170
     0
171
     2
172
     1
173
     0
174
     0
175
     0
176
   256
177
   256
178
    40
  0
DIMSTYLE
  2
BIGT$3
 70
     0
  3

  4

  5
OPEN
  6

  7

 40
1.0
 41
2.2299999999999991
 42
0.5
 43
2.5
 44
1.0
 45
0.0
 46
0.0
 47
0.0
 48
0.01
140
2.7999999999999989
141
0.0
142
0.0
143
25.399999999999999
144
1.0
145
0.0
146
1.0
147
1.0
 71
     0
 72
     0
 73
     0
 74
     0
 75
     0
 76
     0
 77
     3
 78
     9
170
     0
171
     2
172
     1
173
     0
174
     0
175
     0
176
   256
177
   256
178
    40
  0
DIMSTYLE
  2
BIGT$7
 70
     0
  3

  4

  5
OPEN
  6

  7

 40
0.0
 41
2.2299999999999991
 42
0.5
 43
7.0
 44
1.0
 45
0.0
 46
0.0
 47
0.0
 48
0.01
140
2.7999999999999989
141
0.0
142
0.0
143
25.399999999999999
144
1.0
145
0.0
146
1.0
147
1.0
 71
     0
 72
     0
 73
     0
 74
     0
 75
     0
 76
     0
 77
     3
 78
     9
170
     0
171
     2
172
     0
173
     0
174
     0
175
     0
176
   256
177
   256
178
    40
  0
DIMSTYLE
  2
BIGT$6
 70
     0
  3

  4

  5
OPEN
  6

  7

 40
1.0
 41
2.2299999999999991
 42
0.5
 43
2.5
 44
1.0
 45
0.0
 46
0.0
 47
0.0
 48
0.01
140
2.7999999999999989
141
0.0
142
0.0
143
25.399999999999999
144
1.0
145
0.0
146
1.0
147
1.0
 71
     0
 72
     0
 73
     0
 74
     0
 75
     0
 76
     0
 77
     3
 78
     9
170
     0
171
     2
172
     1
173
     0
174
     0
175
     0
176
   256
177
   256
178
    40
  0
DIMSTYLE
  2
BIGT$0
 70
     0
  3

  4

  5
OPEN
  6

  7

 40
1.0
 41
2.2299999999999991
 42
0.5
 43
7.0
 44
1.0
 45
0.0
 46
0.0
 47
0.0
 48
0.01
140
2.7999999999999989
141
0.0
142
0.0
143
25.399999999999999
144
1.0
145
0.0
146
1.0
147
1.0
 71
     0
 72
     0
 73
     0
 74
     0
 75
     0
 76
     0
 77
     3
 78
     9
170
     0
171
     2
172
     1
173
     0
174
     1
175
     0
176
   256
177
   256
178
    40
  0
DIMSTYLE
  2
BIGT$4
 70
     0
  3

  4

  5
OPEN
  6

  7

 40
1.0
 41
2.2299999999999991
 42
0.5
 43
2.5
 44
1.0
 45
0.0
 46
0.0
 47
0.0
 48
0.01
140
2.7999999999999989
141
0.0
142
0.0
143
25.399999999999999
144
1.0
145
0.0
146
1.0
147
1.0
 71
     0
 72
     0
 73
     0
 74
     0
 75
     0
 76
     0
 77
     3
 78
     9
170
     0
171
     2
172
     1
173
     0
174
     0
175
     0
176
   256
177
   256
178
    40
  0
DIMSTYLE
  2
BIGT$SH
 70
     0
  3

  4

  5
OPEN
  6

  7

 40
1.0
 41
2.2299999999999991
 42
0.5
 43
7.0
 44
1.0
 45
0.0
 46
0.0
 47
0.0
 48
0.0
140
2.7999999999999989
141
0.0
142
0.0
143
25.399999999999999
144
1.0
145
0.0
146
1.0
147
1.0
 71
     0
 72
     0
 73
     0
 74
     0
 75
     0
 76
     0
 77
     3
 78
     9
170
     0
171
     2
172
     1
173
     0
174
     0
175
     0
176
   256
177
   256
178
    40
  0
DIMSTYLE
  2
BIGT$SF
 70
     0
  3

  4

  5
OPEN
  6

  7

 40
1.0
 41
2.2299999999999991
 42
0.5
 43
7.0
 44
1.0
 45
0.0
 46
0.0
 47
0.0
 48
0.0
140
2.7999999999999989
141
0.0
142
0.0
143
25.399999999999999
144
1.0
145
0.0
146
1.0
147
1.0
 71
     0
 72
     0
 73
     0
 74
     0
 75
     0
 76
     0
 77
     3
 78
     9
170
     0
171
     2
172
     1
173
     0
174
     0
175
     0
176
   256
177
   256
178
    40
  0
DIMSTYLE
  2
TECHNICAL_OSAKA
 70
     0
  3

  4
"
  5
OPEN30
  6

  7

 40
1.0
 41
2.5
 42
1.0
 43
10.0
 44
1.0
 45
0.0
 46
0.0
 47
0.1
 48
0.1
140
2.7999999999999989
141
0.0
142
0.0
143
0.0393701
144
1.0
145
0.0
146
0.71
147
1.5
 71
     0
 72
     0
 73
     0
 74
     0
 75
     0
 76
     0
 77
     3
 78
     8
170
     0
171
     2
172
     1
173
     0
174
     0
175
     0
176
   256
177
   256
178
    40
  0
DIMSTYLE
  2
TECHNICAL_OSAKA$3
 70
     0
  3

  4
"
  5
OPEN30
  6

  7

 40
1.0
 41
2.5
 42
1.0
 43
10.0
 44
1.0
 45
0.0
 46
0.0
 47
0.1
 48
0.1
140
2.7999999999999989
141
0.0
142
0.0
143
0.0393701
144
1.0
145
0.0
146
0.71
147
1.5
 71
     0
 72
     0
 73
     0
 74
     1
 75
     0
 76
     0
 77
     3
 78
     8
170
     0
171
     2
172
     0
173
     0
174
     0
175
     0
176
   256
177
   256
178
    40
  0
DIMSTYLE
  2
TECHNICAL_OSAKA$4
 70
     0
  3

  4
"
  5
OPEN30
  6

  7

 40
1.0
 41
2.5
 42
1.0
 43
10.0
 44
1.0
 45
0.0
 46
0.0
 47
0.1
 48
0.1
140
2.7999999999999989
141
0.0
142
0.0
143
0.0393701
144
1.0
145
0.0
146
0.71
147
1.5
 71
     0
 72
     0
 73
     0
 74
     1
 75
     0
 76
     0
 77
     3
 78
     8
170
     0
171
     2
172
     0
173
     0
174
     0
175
     0
176
   256
177
   256
178
    40
  0
DIMSTYLE
  2
TECHNICAL_OSAKA$6
 70
     0
  3

  4
"
  5
OPEN30
  6

  7

 40
1.0
 41
2.5
 42
1.0
 43
10.0
 44
1.0
 45
0.0
 46
0.0
 47
0.1
 48
0.1
140
2.7999999999999989
141
0.0
142
0.0
143
0.0393701
144
1.0
145
0.0
146
0.71
147
1.5
 71
     0
 72
     0
 73
     0
 74
     0
 75
     0
 76
     0
 77
     0
 78
     8
170
     0
171
     2
172
     1
173
     0
174
     0
175
     0
176
   256
177
   256
178
    40
  0
DIMSTYLE
  2
TECHNICAL_OSAKA$7
 70
     0
  3

  4
"
  5
OPEN30
  6

  7

 40
1.0
 41
2.5
 42
1.0
 43
10.0
 44
1.0
 45
0.0
 46
0.0
 47
0.1
 48
0.1
140
2.7999999999999989
141
0.0
142
0.0
143
0.0393701
144
1.0
145
0.0
146
0.71
147
1.5
 71
     0
 72
     0
 73
     0
 74
     0
 75
     0
 76
     0
 77
     3
 78
     8
170
     0
171
     2
172
     1
173
     0
174
     0
175
     0
176
   256
177
   256
178
    40
  0
DIMSTYLE
  2
TECHNICAL_OSAKA$SF
 70
     0
  3

  4
"
  5
OPEN30
  6
OPEN30
  7
OPEN30
 40
1.0
 41
2.5
 42
1.0
 43
10.0
 44
1.0
 45
0.0
 46
0.0
 47
0.1
 48
0.1
140
3.5
141
0.0
142
0.0
143
0.0393701
144
1.0
145
0.0
146
0.71
147
1.5
 71
     0
 72
     0
 73
     0
 74
     0
 75
     1
 76
     1
 77
     3
 78
     8
170
     0
171
     2
172
     1
173
     0
174
     0
175
     0
176
   256
177
   256
178
    40
  0
DIMSTYLE
  2
TECHNICAL_OSAKA$SH
 70
     0
  3

  4
"
  5
OPEN30
  6
GENAXEH
  7
OPEN30
 40
1.0
 41
2.5
 42
1.0
 43
10.0
 44
1.0
 45
0.0
 46
0.0
 47
0.1
 48
0.1
140
3.5
141
0.0
142
0.0
143
0.0393701
144
2.0
145
0.0
146
0.71
147
1.5
 71
     0
 72
     0
 73
     0
 74
     0
 75
     1
 76
     1
 77
     3
 78
     8
170
     0
171
     2
172
     1
173
     1
174
     0
175
     0
176
   256
177
   256
178
    40
  0
ENDTAB
  0
ENDSEC
  0
SECTION
  2
BLOCKS
  0
BLOCK
  8
0
  2
$MODEL_SPACE
 70
     0
 10
0.0
 20
0.0
 30
0.0
  3
$MODEL_SPACE
  1

  0
ENDBLK
  5
1C
  8
0
  0
BLOCK
 67
     1
  8
0
  2
$PAPER_SPACE
 70
     0
 10
0.0
 20
0.0
 30
0.0
  3
$PAPER_SPACE
  1

  0
ENDBLK
  5
19
 67
     1
  8
0
  0
BLOCK
  8
0
  2
_OPEN
 70
     0
 10
0.0
 20
0.0
 30
0.0
  3
_OPEN
  1

  0
LINE
  5
4850
  8
0
  6
BYBLOCK
 62
     0
 10
-1.0
 20
0.1666666666666666
 30
0.0
 11
0.0
 21
0.0
 31
0.0
  0
LINE
  5
4851
  8
0
  6
BYBLOCK
 62
     0
 10
-1.0
 20
-0.1666666666666666
 30
0.0
 11
0.0
 21
0.0
 31
0.0
  0
LINE
  5
4852
  8
0
  6
BYBLOCK
 62
     0
 10
0.0
 20
0.0
 30
0.0
 11
-1.0
 21
0.0
 31
0.0
  0
ENDBLK
  5
4853
  8
0
  0
BLOCK
  8
0
  2
GENAXEH
 70
     0
 10
0.0
 20
0.0
 30
0.0
  3
GENAXEH
  1

  0
LINE
  5
488B
  8
0
 10
-1.0
 20
0.0
 30
0.0
 11
1.0
 21
0.0
 31
0.0
  0
ENDBLK
  5
488C
  8
0
  0
BLOCK
  8
0
  2
_OPEN30
 70
     0
 10
0.0
 20
0.0
 30
0.0
  3
_OPEN30
  1

  0
LINE
  5
48C7
  8
0
  6
BYBLOCK
 62
     0
 10
-1.0
 20
0.26794919
 30
0.0
 11
0.0
 21
0.0
 31
0.0
  0
LINE
  5
48C8
  8
0
  6
BYBLOCK
 62
     0
 10
0.0
 20
0.0
 30
0.0
 11
-1.0
 21
-0.26794919
 31
0.0
  0
LINE
  5
48C9
  8
0
  6
BYBLOCK
 62
     0
 10
0.0
 20
0.0
 30
0.0
 11
-1.0
 21
0.0
 31
0.0
  0
ENDBLK
  5
48CA
  8
0
  0
ENDSEC
  0
SECTION
  2
ENTITIES
  0
LINE
  5
434D
  8
245
 10
-67.450703158701145
 20
0.0
 30
0.0
 11
131.63903296443829
 21
0.0
 31
0.0
  0
LINE
  5
434F
  8
240
 10
26.999999999999918
 20
31.25
 30
0.0
 11
34.422649730810292
 21
31.25
 31
0.0
  0
LINE
  5
4350
  8
240
 10
26.749999999999829
 20
31.50000000000006
 30
0.0
 11
26.999999999999918
 21
31.25
 31
0.0
  0
LINE
  5
4354
  8
240
 10
26.999999999999918
 20
-31.25
 30
0.0
 11
34.422649730810292
 21
-31.25
 31
0.0
  0
LINE
  5
4355
  8
240
 10
26.74999999999994
 20
-31.49999999999995
 30
0.0
 11
26.999999999999918
 21
-31.25
 31
0.0
  0
LINE
  5
4356
  8
241
 10
26.999999999999918
 20
-31.25
 30
0.0
 11
26.99999999999989
 21
31.25
 31
0.0
  0
LINE
  5
4357
  8
241
 10
34.999999999999922
 20
-31.250000000000341
 30
0.0
 11
34.999999999999972
 21
31.433503419072601
 31
0.0
  0
LINE
  5
4358
  8
241
 10
37.165063509460481
 20
-34.302775637731877
 30
0.0
 11
37.165063509459863
 21
34.302775637731628
 31
0.0
  0
LINE
  5
4359
  8
240
 10
36.299038105676118
 20
33.499999999999943
 30
0.0
 11
35.288675134594598
 21
31.750000000000341
 31
0.0
  0
ARC
  5
435A
  8
240
 10
34.422649730810292
 20
32.250000000000277
 30
0.0
 40
1.0
 50
269.99999999999682
 51
330.00000000000028
1001
GENIUS_GENODEF_13
1002
{
1000
HIER
1070
     0
1002
}
1002
{
1000
MANEDIT
1070
     0
1002
}
1002
{
1000
NOSEL
1070
     0
1002
}
1002
{
1000
BEHIND
1070
     0
1002
}
1002
{
1000
OTHER
1070
     0
1002
}
1002
{
1000
REACTOR
1002
}
1001
GENIUS_GENOBJ-N-FIL_13
1002
{
1000
OWNER
1000
GEN
1002
}
  0
LINE
  5
435B
  8
240
 10
36.299038105676118
 20
-33.499999999999943
 30
0.0
 11
35.288675134594598
 21
-31.750000000000341
 31
0.0
  0
ARC
  5
435C
  8
240
 10
34.422649730810292
 20
-32.250000000000277
 30
0.0
 40
1.0
 50
29.99999999999973
 51
90.000000000003254
  0
LINE
  5
435D
  8
240
 10
38.031088913245043
 20
-34.5
 30
0.0
 11
41.749999999999822
 21
-34.5
 31
0.0
  0
LINE
  5
435E
  8
240
 10
38.031088913245043
 20
34.5
 30
0.0
 11
41.749999999999822
 21
34.5
 31
0.0
  0
ARC
  5
435F
  8
240
 10
38.031088913245071
 20
-32.5
 30
0.0
 40
2.0
 50
209.99999999999969
 51
269.99999999999841
1001
GENIUS_GENODEF_13
1002
{
1000
HIER
1070
     0
1002
}
1002
{
1000
MANEDIT
1070
     0
1002
}
1002
{
1000
NOSEL
1070
     0
1002
}
1002
{
1000
BEHIND
1070
     0
1002
}
1002
{
1000
OTHER
1070
     0
1002
}
1002
{
1000
REACTOR
1002
}
1001
GENIUS_GENOBJ-N-FIL_13
1002
{
1000
OWNER
1000
GEN
1002
}
  0
ARC
  5
4360
  8
240
 10
38.031088913245071
 20
32.5
 30
0.0
 40
2.0
 50
90.0
 51
150.00000000000031
1001
GENIUS_GENOBJ-N-FIL_13
1002
{
1000
OWNER
1000
GEN
1002
}
1001
GENIUS_GENODEF_13
1002
{
1000
HIER
1070
     0
1002
}
1002
{
1000
MANEDIT
1070
     0
1002
}
1002
{
1000
NOSEL
1070
     0
1002
}
1002
{
1000
BEHIND
1070
     0
1002
}
1002
{
1000
OTHER
1070
     0
1002
}
1002
{
1000
REACTOR
1002
}
  0
LINE
  5
4363
  8
240
 10
-65.399999999999977
 20
10.958011194060839
 30
0.0
 11
-65.399999999999977
 21
-10.9580111940609
 31
0.0
  0
LINE
  5
4364
  8
240
 10
-0.0000000000000568
 20
22.225000000000001
 30
0.0
 11
-63.688613786143442
 21
12.937077156187399
 31
0.0
  0
LINE
  5
4366
  8
240
 10
-0.0000000000000568
 20
-22.225000000000051
 30
0.0
 11
-63.688613786143442
 21
-12.937077156187479
 31
0.0
  0
LINE
  5
436B
  8
240
 10
0.9999999999999431
 20
31.000000000000028
 30
0.0
 11
0.9999999999999431
 21
22.225000000000001
 31
0.0
  0
LINE
  5
436C
  8
240
 10
0.9999999999999431
 20
-31.00000000000006
 30
0.0
 11
0.9999999999999431
 21
-22.22500000000008
 31
0.0
  0
ARC
  5
436E
  8
240
 10
1.4999999999999429
 20
31.000000000000028
 30
0.0
 40
0.5
 50
90.0
 51
180.0
  0
ARC
  5
436F
  8
240
 10
1.4999999999999429
 20
-31.00000000000006
 30
0.0
 40
0.5
 50
180.0
 51
270.0
  0
LINE
  5
4370
  8
241
 10
0.0000000000000568
 20
-22.22500000000008
 30
0.0
 11
-0.0000000000000568
 21
22.225000000000001
 31
0.0
  0
LINE
  5
4371
  8
241
 10
0.9999999999999431
 20
22.225000000000001
 30
0.0
 11
0.9999999999999431
 21
-22.22500000000008
 31
0.0
  0
LINE
  5
4388
  8
243
 10
22.99999999999994
 20
-22.500000000000028
 30
0.0
 11
0.9999999999999431
 21
-22.5
 31
0.0
  0
LINE
  5
4389
  8
243
 10
22.99999999999994
 20
-22.500000000000028
 30
0.0
 11
22.99999999999994
 21
-31.500000000000028
 31
0.0
  0
LINE
  5
438A
  8
243
 10
22.99999999999994
 20
22.499999999999972
 30
0.0
 11
22.99999999999994
 21
31.499999999999972
 31
0.0
  0
LINE
  5
438B
  8
243
 10
22.99999999999994
 20
22.499999999999972
 30
0.0
 11
0.9999999999999431
 21
22.499999999999829
 31
0.0
  0
ARC
  5
4391
  8
240
 10
-63.399999999999977
 20
10.958011194060839
 30
0.0
 40
2.0
 50
98.297144969836836
 51
180.0
  0
ARC
  5
4392
  8
240
 10
-63.399999999999977
 20
-10.95801119406093
 30
0.0
 40
2.0
 50
180.0
 51
261.70285503016322
  0
LINE
  5
4394
  8
250
 10
-34.398026462734492
 20
-32.383772827718623
 30
0.0
 11
-53.398026462734492
 21
-32.383772827718623
 31
0.0
1001
ITEMNAME
1000
LNSP2
  0
LINE
  5
4397
  8
240
 10
1.4999999999998861
 20
31.500000000000028
 30
0.0
 11
11.265505652666491
 21
31.499999999999581
 31
0.0
  0
LINE
  5
4398
  8
240
 10
21.93449434733208
 20
31.500000000000028
 30
0.0
 11
26.74999999999994
 21
31.49999999999995
 31
0.0
  0
LINE
  5
4399
  8
240
 10
11.26550565266586
 20
31.499999999999911
 30
0.0
 11
11.715505652665851
 21
31.240192378864581
 31
0.0
  0
LINE
  5
439A
  8
240
 10
11.715505652665851
 20
31.240192378864581
 30
0.0
 11
14.365654458235319
 21
26.650000000000521
 31
0.0
  0
ARC
  5
439B
  8
240
 10
18.574537920627961
 20
26.79999999999907
 30
0.0
 40
0.3
 50
269.99999999998039
 51
330.00000000000028
  0
ARC
  5
439C
  8
240
 10
14.62546207937066
 20
26.800000000000491
 30
0.0
 40
0.3
 50
209.99999999999611
 51
269.99999999998039
  0
LINE
  5
439D
  8
240
 10
18.57453792062784
 20
26.499999999999059
 30
0.0
 11
14.62546207937055
 21
26.50000000000048
 31
0.0
  0
LINE
  5
439E
  8
240
 10
21.48449434733249
 20
31.240192378864919
 30
0.0
 11
18.834345541763302
 21
26.6499999999991
 31
0.0
  0
LINE
  5
439F
  8
240
 10
21.48449434733249
 20
31.240192378864919
 30
0.0
 11
21.934494347332471
 21
31.500000000000259
 31
0.0
  0
LINE
  5
43A0
  8
240
 10
1.4999999999998861
 20
-31.50000000000011
 30
0.0
 11
11.265505652667059
 21
-31.50000000000011
 31
0.0
  0
LINE
  5
43A1
  8
240
 10
21.934494347331171
 20
-31.50000000000006
 30
0.0
 11
26.749999999999829
 21
-31.50000000000006
 31
0.0
  0
LINE
  5
43A2
  8
240
 10
21.48449434733271
 20
-31.240192378865569
 30
0.0
 11
21.934494347332699
 21
-31.500000000000909
 31
0.0
  0
ARC
  5
43A3
  8
240
 10
18.574537920628192
 20
-26.79999999999978
 30
0.0
 40
0.3
 50
29.99999999999973
 51
90.000000000019526
  0
ARC
  5
43A4
  8
240
 10
14.625462079370889
 20
-26.800000000001202
 30
0.0
 40
0.3
 50
90.000000000019526
 51
150.00000000000389
  0
LINE
  5
43A5
  8
240
 10
18.574537920628071
 20
-26.499999999999769
 30
0.0
 11
14.625462079370781
 21
-26.50000000000119
 31
0.0
  0
LINE
  5
43A6
  8
240
 10
11.265505652666089
 20
-31.500000000000622
 30
0.0
 11
11.71550565266608
 21
-31.240192378865292
 31
0.0
  0
LINE
  5
43A7
  8
240
 10
11.71550565266608
 20
-31.240192378865292
 30
0.0
 11
14.36565445823555
 21
-26.650000000001231
 31
0.0
  0
LINE
  5
43A8
  8
240
 10
21.48449434733271
 20
-31.240192378865569
 30
0.0
 11
18.834345541763518
 21
-26.64999999999975
 31
0.0
  0
LINE
  5
43A9
  8
241
 10
21.634494347332069
 20
31.326794919244261
 30
0.0
 11
21.63449434733355
 21
-31.326794919244659
 31
0.0
  0
LINE
  5
43AA
  8
241
 10
18.747743001383579
 20
26.555051025720761
 30
0.0
 11
18.74774300138483
 21
-26.555051025721301
 31
0.0
  0
LINE
  5
43AB
  8
241
 10
11.56550565266474
 20
31.326794919240889
 30
0.0
 11
11.56550565266622
 21
-31.32679491924176
 31
0.0
  0
LINE
  5
43AC
  8
241
 10
14.45225699861248
 20
26.555051025722349
 30
0.0
 11
14.452256998613731
 21
-26.55505102572312
 31
0.0
  0
ARC
  5
43B1
  8
240
 10
100.5
 20
-19.0
 30
0.0
 40
1.0
 50
90.0
 51
180.0
  0
LINE
  5
43B2
  8
240
 10
100.5
 20
-18.0
 30
0.0
 11
104.0
 21
-18.0
 31
0.0
  0
ARC
  5
43B3
  8
240
 10
100.5
 20
19.0
 30
0.0
 40
1.0
 50
180.0
 51
270.0
  0
LINE
  5
43B4
  8
240
 10
100.5
 20
18.0
 30
0.0
 11
104.0
 21
18.0
 31
0.0
  0
LINE
  5
43B5
  8
240
 10
104.0
 20
19.5
 30
0.0
 11
104.5
 21
20.0
 31
0.0
  0
LINE
  5
43B6
  8
240
 10
104.0
 20
-19.5
 30
0.0
 11
104.5
 21
-20.0
 31
0.0
  0
LINE
  5
43B7
  8
240
 10
104.5
 20
-22.0
 30
0.0
 11
104.5
 21
-20.0
 31
0.0
  0
LINE
  5
43B8
  8
240
 10
104.5
 20
22.0
 30
0.0
 11
104.5
 21
20.0
 31
0.0
  0
ARC
  5
43B9
  8
240
 10
105.5
 20
22.0
 30
0.0
 40
1.0
 50
90.0
 51
180.0
  0
ARC
  5
43BA
  8
240
 10
105.5
 20
-22.0
 30
0.0
 40
1.0
 50
180.0
 51
270.0
  0
LINE
  5
43BB
  8
240
 10
105.5
 20
23.0
 30
0.0
 11
118.08578643762689
 21
23.0
 31
0.0
  0
ARC
  5
43BC
  8
240
 10
118.08578643762689
 20
22.0
 30
0.0
 40
1.000000000000028
 50
45.000000000002302
 51
90.0
  0
LINE
  5
43BD
  8
240
 10
105.5
 20
-23.0
 30
0.0
 11
118.08578643762689
 21
-23.0
 31
0.0
  0
ARC
  5
43BE
  8
240
 10
118.08578643762689
 20
-22.0
 30
0.0
 40
0.9999999999999857
 50
270.0
 51
314.99999999999773
  0
LINE
  5
43BF
  8
240
 10
119.7363961030679
 20
21.76360389693215
 30
0.0
 11
118.7928932188134
 21
22.707106781186582
 31
0.0
  0
ARC
  5
43C0
  8
240
 10
119.09999999999999
 20
21.127207793864251
 30
0.0
 40
0.9000000000000056
 50
0.0
 51
45.000000000002302
  0
LINE
  5
43C1
  8
240
 10
120.0
 20
21.127207793864251
 30
0.0
 11
120.0
 21
-21.127207793864191
 31
0.0
  0
LINE
  5
43C2
  8
240
 10
118.7928932188134
 20
-22.70710678118655
 30
0.0
 11
119.7363961030679
 21
-21.763603896932089
 31
0.0
  0
ARC
  5
43C3
  8
240
 10
119.09999999999999
 20
-21.127207793864191
 30
0.0
 40
0.9000000000000031
 50
314.99999999999773
 51
0.0
  0
LINE
  5
43C4
  8
240
 10
104.0
 20
-18.0
 30
0.0
 11
104.0
 21
-19.5
 31
0.0
  0
LINE
  5
43C5
  8
240
 10
104.0
 20
19.5
 30
0.0
 11
104.0
 21
18.0
 31
0.0
  0
LINE
  5
43C6
  8
241
 10
101.4999999999999
 20
17.5
 30
0.0
 11
100.9999999999999
 21
18.0
 31
0.0
  0
LINE
  5
43C7
  8
241
 10
101.5
 20
-17.5
 30
0.0
 11
101.5
 21
17.5
 31
0.0
  0
LINE
  5
43C8
  8
241
 10
101.4999999999999
 20
-17.5
 30
0.0
 11
100.9999999999999
 21
-18.0
 31
0.0
  0
LINE
  5
43C9
  8
241
 10
105.5
 20
-20.84313483298445
 30
0.0
 11
105.5
 21
-23.0
 31
0.0
  0
LINE
  5
43CA
  8
241
 10
105.5
 20
-18.843134832984472
 30
0.0
 11
105.5
 21
-2.0
 31
0.0
  0
LINE
  5
43CB
  8
241
 10
105.5
 20
18.8431348329845
 30
0.0
 11
105.5
 21
2.0
 31
0.0
  0
LINE
  5
43CC
  8
241
 10
105.5
 20
20.843134832984479
 30
0.0
 11
105.5
 21
23.0
 31
0.0
  0
LINE
  5
43CD
  8
241
 10
104.5
 20
20.0
 30
0.0
 11
104.5
 21
-20.0
 31
0.0
  0
LINE
  5
43CE
  8
241
 10
118.08578643762689
 20
22.21381267738883
 30
0.0
 11
118.08578643762689
 21
-22.346263008514651
 31
0.0
  0
LINE
  5
43CF
  8
241
 10
99.500000000000014
 20
-19.0
 30
0.0
 11
99.500000000000014
 21
19.0
 31
0.0
  0
LINE
  5
43D0
  8
241
 10
104.0
 20
18.0
 30
0.0
 11
104.0
 21
-18.0
 31
0.0
  0
LINE
  5
43D1
  8
241
 10
113.5
 20
-2.0
 30
0.0
 11
104.5
 21
-2.0
 31
0.0
  0
LINE
  5
43D2
  8
241
 10
113.5
 20
2.0
 30
0.0
 11
104.5
 21
2.0
 31
0.0
  0
LINE
  5
43D3
  8
241
 10
113.5
 20
-2.0
 30
0.0
 11
113.5
 21
2.0
 31
0.0
  0
LINE
  5
43D4
  8
241
 10
113.5
 20
20.843134832984479
 30
0.0
 11
104.5
 21
20.843134832984479
 31
0.0
  0
LINE
  5
43D5
  8
241
 10
113.5
 20
18.8431348329845
 30
0.0
 11
104.5
 21
18.8431348329845
 31
0.0
  0
LINE
  5
43D6
  8
241
 10
113.5
 20
20.843134832984479
 30
0.0
 11
113.5
 21
18.8431348329845
 31
0.0
  0
LINE
  5
43D7
  8
241
 10
113.5
 20
-20.84313483298445
 30
0.0
 11
104.5
 21
-20.84313483298445
 31
0.0
  0
LINE
  5
43D8
  8
241
 10
113.5
 20
-18.843134832984472
 30
0.0
 11
104.5
 21
-18.843134832984472
 31
0.0
  0
LINE
  5
43D9
  8
241
 10
113.5
 20
-20.84313483298445
 30
0.0
 11
113.5
 21
-18.843134832984472
 31
0.0
  0
LINE
  5
43DA
  8
242
 10
104.0
 20
17.5
 30
0.0
 11
101.5
 21
17.5
 31
0.0
  0
LINE
  5
43DB
  8
242
 10
104.0
 20
-17.5
 30
0.0
 11
101.5
 21
-17.5
 31
0.0
  0
LINE
  5
43DE
  8
246
 10
62.0
 20
9.5000000000000568
 30
0.0
 11
54.809401076758427
 21
2.309401076758518
 31
0.0
  0
LINE
  5
43DF
  8
246
 10
54.809401076758427
 20
1.154700538379245
 30
0.0
 11
50.398717474235532
 21
1.154700538379245
 31
0.0
  0
LINE
  5
43E0
  8
246
 10
54.809401076758427
 20
2.30940107675849
 30
0.0
 11
50.398717474235532
 21
2.309401076758518
 31
0.0
  0
LINE
  5
43E1
  8
246
 10
50.0
 20
3.0
 30
0.0
 11
50.398717474235532
 21
2.30940107675849
 31
0.0
  0
LINE
  5
43E2
  8
246
 10
50.0
 20
1.71239356669821
 30
0.0
 11
50.0
 21
3.0
 31
0.0
  0
ARC
  5
43E3
  8
246
 10
43.0
 20
8.75
 30
0.0
 40
1.0
 50
90.0
 51
180.0
  0
LINE
  5
43E4
  8
246
 10
43.0
 20
9.75
 30
0.0
 11
47.0
 21
9.75
 31
0.0
  0
LINE
  5
43E7
  8
246
 10
62.0
 20
-9.5000000000000284
 30
0.0
 11
54.809401076758427
 21
-2.30940107675849
 31
0.0
  0
LINE
  5
43E8
  8
246
 10
54.809401076758427
 20
-1.154700538379245
 30
0.0
 11
50.398717474235532
 21
-1.154700538379245
 31
0.0
  0
LINE
  5
43E9
  8
246
 10
54.809401076758427
 20
-2.30940107675849
 30
0.0
 11
50.398717474235532
 21
-2.30940107675849
 31
0.0
  0
LINE
  5
43EA
  8
246
 10
50.0
 20
-3.0
 30
0.0
 11
50.398717474235532
 21
-2.30940107675849
 31
0.0
  0
LINE
  5
43EB
  8
246
 10
50.0
 20
-1.71239356669821
 30
0.0
 11
50.0
 21
-3.0
 31
0.0
  0
LINE
  5
43EC
  8
246
 10
43.0
 20
-9.75
 30
0.0
 11
47.0
 21
-9.75
 31
0.0
  0
LINE
  5
43ED
  8
246
 10
114.40000000000001
 20
-14.24999999999997
 30
0.0
 11
82.0
 21
-10.844622777392059
 31
0.0
  0
LINE
  5
43EE
  8
246
 10
114.40000000000001
 20
-12.5
 30
0.0
 11
114.40000000000001
 21
-14.24999999999997
 31
0.0
  0
LINE
  5
43EF
  8
246
 10
116.8
 20
-14.25
 30
0.0
 11
117.0
 21
-14.25
 31
0.0
  0
LINE
  5
43F0
  8
246
 10
117.0
 20
-14.25
 30
0.0
 11
120.0
 21
-12.5179491924311
 31
0.0
  0
LINE
  5
43F1
  8
246
 10
116.7999999999999
 20
-12.5
 30
0.0
 11
116.8
 21
-14.25
 31
0.0
  0
LINE
  5
43F2
  8
246
 10
114.40000000000001
 20
-12.5
 30
0.0
 11
116.7999999999999
 21
-12.5
 31
0.0
  0
LINE
  5
43F3
  8
246
 10
120.0
 20
-10.0
 30
0.0
 11
82.0
 21
-10.0
 31
0.0
  0
LINE
  5
43F4
  8
246
 10
114.40000000000001
 20
14.25
 30
0.0
 11
82.0
 21
10.84462277739209
 31
0.0
  0
LINE
  5
43F5
  8
246
 10
114.40000000000001
 20
12.5
 30
0.0
 11
114.40000000000001
 21
14.25
 31
0.0
  0
LINE
  5
43F6
  8
246
 10
116.8
 20
14.25
 30
0.0
 11
117.0
 21
14.25
 31
0.0
  0
LINE
  5
43F7
  8
246
 10
117.0
 20
14.25
 30
0.0
 11
120.0
 21
12.5179491924311
 31
0.0
  0
LINE
  5
43F8
  8
246
 10
116.7999999999999
 20
12.5
 30
0.0
 11
116.8
 21
14.25
 31
0.0
  0
LINE
  5
43F9
  8
246
 10
114.40000000000001
 20
12.5
 30
0.0
 11
116.7999999999999
 21
12.5
 31
0.0
  0
LINE
  5
43FA
  8
246
 10
120.0
 20
10.0
 30
0.0
 11
82.0
 21
10.0
 31
0.0
  0
LINE
  5
43FB
  8
243
 10
112.0
 20
17.5
 30
0.0
 11
111.5
 21
18.0
 31
0.0
  0
LINE
  5
43FC
  8
243
 10
104.0
 20
18.0
 30
0.0
 11
111.5
 21
18.0
 31
0.0
  0
LINE
  5
43FD
  8
243
 10
112.0
 20
-17.5
 30
0.0
 11
111.5
 21
-18.0
 31
0.0
  0
LINE
  5
43FE
  8
243
 10
104.0
 20
-18.0
 30
0.0
 11
111.5
 21
-18.0
 31
0.0
  0
LINE
  5
4400
  8
246
 10
47.0
 20
9.75
 30
0.0
 11
47.75
 21
10.5
 31
0.0
  0
LINE
  5
4401
  8
246
 10
47.0
 20
-9.75
 30
0.0
 11
47.75
 21
-10.5
 31
0.0
  0
LINE
  5
4403
  8
246
 10
50.398717474235532
 20
-2.30940107675849
 30
0.0
 11
50.398717474235532
 21
2.309401076758518
 31
0.0
  0
LINE
  5
4404
  8
246
 10
54.809401076758427
 20
-2.30940107675849
 30
0.0
 11
54.809401076758427
 21
2.30940107675849
 31
0.0
  0
LINE
  5
4406
  8
246
 10
82.0
 20
-10.844622777392059
 30
0.0
 11
82.0
 21
10.84462277739209
 31
0.0
  0
LINE
  5
4409
  8
246
 10
61.300000000000011
 20
-10.5
 30
0.0
 11
62.0
 21
-9.7999999999999812
 31
0.0
  0
LINE
  5
440A
  8
246
 10
62.0
 20
-9.7999999999999812
 30
0.0
 11
62.0
 21
9.8000000000000114
 31
0.0
  0
LINE
  5
440B
  8
246
 10
62.0
 20
9.8000000000000114
 30
0.0
 11
61.300000000000011
 21
10.5
 31
0.0
  0
LINE
  5
440C
  8
246
 10
47.75
 20
10.5
 30
0.0
 11
61.300000000000011
 21
10.5
 31
0.0
  0
LINE
  5
440D
  8
246
 10
47.75
 20
-10.5
 30
0.0
 11
61.300000000000011
 21
-10.5
 31
0.0
  0
LINE
  5
440F
  8
246
 10
42.0
 20
8.75
 30
0.0
 11
42.0
 21
-8.75
 31
0.0
  0
ARC
  5
4410
  8
246
 10
43.0
 20
-8.75
 30
0.0
 40
1.0
 50
180.0
 51
270.0
  0
LINE
  5
4411
  8
246
 10
50.0
 20
3.0
 30
0.0
 11
42.0
 21
3.0
 31
0.0
  0
LINE
  5
4412
  8
246
 10
50.0
 20
-3.0
 30
0.0
 11
42.0
 21
-3.0
 31
0.0
  0
LINE
  5
4413
  8
243
 10
112.0
 20
-17.5
 30
0.0
 11
112.0
 21
-13.997749835362351
 31
0.0
  0
LINE
  5
4414
  8
243
 10
112.0
 20
17.5
 30
0.0
 11
112.0
 21
13.997749835362381
 31
0.0
  0
LINE
  5
4415
  8
244
 10
104.0
 20
17.5
 30
0.0
 11
112.0
 21
17.5
 31
0.0
  0
LINE
  5
4416
  8
244
 10
104.0
 20
-17.5
 30
0.0
 11
112.0
 21
-17.5
 31
0.0
  0
LINE
  5
441B
  8
246
 10
47.39999999999997
 20
10.15
 30
0.0
 11
61.649999999999977
 21
10.15
 31
0.0
  0
LINE
  5
441D
  8
246
 10
47.39999999999997
 20
-10.14999999999997
 30
0.0
 11
61.649999999999977
 21
-10.14999999999997
 31
0.0
  0
ARC
  5
441F
  8
240
 10
98.499999999999972
 20
19.74999999999994
 30
0.0
 40
1.0
 50
0.0
 51
90.0
1001
GENIUS_GENOREF_13
1005
0
  0
LINE
  5
4420
  8
240
 10
99.499999999999972
 20
19.74999999999994
 30
0.0
 11
99.500000000000014
 21
19.0
 31
0.0
  0
ARC
  5
4421
  8
240
 10
98.499999999999972
 20
-19.74999999999994
 30
0.0
 40
1.0
 50
270.0
 51
0.0
  0
LINE
  5
4422
  8
240
 10
99.499999999999972
 20
-19.74999999999994
 30
0.0
 11
99.500000000000014
 21
-19.0
 31
0.0
  0
LINE
  5
4423
  8
241
 10
98.499999999999972
 20
20.74999999999994
 30
0.0
 11
98.499999999999943
 21
16.357752945141499
 31
0.0
  0
LINE
  5
4424
  8
241
 10
98.499999999999943
 20
-16.10594836399537
 30
0.0
 11
98.499999999999972
 21
-20.74999999999994
 31
0.0
  0
LINE
  5
44B8
  8
241
 10
53.499999999999581
 20
0.0000000000005116
 30
0.0
 11
56.499999999999588
 21
0.0000000000005684
 31
0.0
  0
LINE
  5
44B9
  8
241
 10
53.499999999999623
 20
-3.0068731247932301
 30
0.0
 11
55.499999999999609
 21
-3.0068731247932301
 31
0.0
  0
LINE
  5
44BA
  8
241
 10
53.499999999999652
 20
-5.9908621295080593
 30
0.0
 11
56.499999999999638
 21
-5.9908621295080593
 31
0.0
  0
LINE
  5
44BB
  8
241
 10
53.499999999999702
 20
-8.9292570560359632
 30
0.0
 11
55.499999999999702
 21
-8.9292570560359632
 31
0.0
  0
LINE
  5
44BC
  8
241
 10
53.499999999999723
 20
-11.79969494473454
 30
0.0
 11
56.49999999999973
 21
-11.79969494473454
 31
0.0
  0
LINE
  5
44BD
  8
241
 10
53.499999999999758
 20
-14.58033003005306
 30
0.0
 11
55.499999999999751
 21
-14.58033003005306
 31
0.0
  0
LINE
  5
44BE
  8
241
 10
53.499999999999787
 20
-17.24999999999886
 30
0.0
 11
56.499999999999787
 21
-17.24999999999886
 31
0.0
  0
LINE
  5
44BF
  8
241
 10
53.499999999999808
 20
-19.78838705410999
 30
0.0
 11
55.499999999999822
 21
-19.78838705410999
 31
0.0
  0
LINE
  5
44C0
  8
241
 10
53.499999999999837
 20
-22.176172534184499
 30
0.0
 11
56.499999999999837
 21
-22.176172534184499
 31
0.0
  0
LINE
  5
44C1
  8
241
 10
53.499999999999872
 20
-24.395183950934719
 30
0.0
 11
55.499999999999872
 21
-24.395183950934719
 31
0.0
  0
LINE
  5
44C2
  8
241
 10
53.499999999999901
 20
-26.42853328760356
 30
0.0
 11
56.499999999999901
 21
-26.42853328760356
 31
0.0
  0
LINE
  5
44C3
  8
241
 10
53.499999999999929
 20
-28.26074552796905
 30
0.0
 11
55.499999999999929
 21
-28.26074552796905
 31
0.0
  0
LINE
  5
44C4
  8
241
 10
53.499999999999929
 20
-29.764182090366148
 30
0.0
 11
56.499999999999929
 21
-29.764182090366148
 31
0.0
  0
LINE
  5
44C5
  8
241
 10
53.499999999999957
 20
-31.26761865276325
 30
0.0
 11
55.499999999999957
 21
-31.26761865276325
 31
0.0
  0
LINE
  5
44C6
  8
241
 10
53.499999999999979
 20
-32.419395417112639
 30
0.0
 11
56.49999999999995
 21
-32.419395417112639
 31
0.0
  0
LINE
  5
44C7
  8
241
 10
53.499999999999979
 20
-33.324441006971711
 30
0.0
 11
55.499999999999979
 21
-33.324441006971711
 31
0.0
  0
LINE
  5
44C8
  8
241
 10
53.499999999999979
 20
-33.846579045567921
 30
0.0
 11
56.499999999999979
 21
-33.846579045567921
 31
0.0
  0
LINE
  5
44C9
  8
240
 10
69.671572875254171
 20
34.500000000000291
 30
0.0
 11
53.250000000000043
 21
34.500000000000291
 31
0.0
  0
ARC
  5
44CA
  8
240
 10
73.500000000000441
 20
28.671572875254071
 30
0.0
 40
2.0
 50
0.0
 51
45.000000000000057
1001
GENIUS_GENODEF_13
1002
{
1000
HIER
1070
     0
1002
}
1002
{
1000
MANEDIT
1070
     0
1002
}
1002
{
1000
NOSEL
1070
     0
1002
}
1002
{
1000
BEHIND
1070
     0
1002
}
1002
{
1000
OTHER
1070
     0
1002
}
1002
{
1000
REACTOR
1002
}
1001
GENIUS_GENOBJ-N-FIL_13
1002
{
1000
OWNER
1000
GEN
1002
}
  0
LINE
  5
44CB
  8
240
 10
71.085786437627249
 20
33.914213562373391
 30
0.0
 11
74.914213562373519
 21
30.085786437627181
 31
0.0
1001
GENIUS_GENFIL_13
1070
     0
1040
5.0
1040
5.0
1040
0.2500000000000284
1040
45.00000000000162
1002
{
1002
}
1001
GENIUS_GENODEF_13
1002
{
1000
HIER
1070
     0
1002
}
1002
{
1000
MANEDIT
1070
     0
1002
}
1002
{
1000
NOSEL
1070
     0
1002
}
1002
{
1000
BEHIND
1070
     0
1002
}
1002
{
1000
OTHER
1070
     0
1002
}
1002
{
1000
REACTOR
1002
}
1001
GENIUS_GENOBJ-N-CHA_13
1002
{
1000
OWNER
1000
GEN
1002
}
  0
ARC
  5
44CC
  8
240
 10
69.671572875254171
 20
32.500000000000277
 30
0.0
 40
2.0
 50
45.000000000000057
 51
90.0
1001
GENIUS_GENFIL_13
1070
     0
1040
5.0
1040
5.0
1040
0.2500000000000284
1040
45.00000000000162
1002
{
1002
}
1001
GENIUS_GENOBJ-N-CHA_13
1002
{
1000
OWNER
1000
GEN
1002
}
1001
GENIUS_GENODEF_13
1002
{
1000
HIER
1070
     0
1002
}
1002
{
1000
MANEDIT
1070
     0
1002
}
1002
{
1000
NOSEL
1070
     0
1002
}
1002
{
1000
BEHIND
1070
     0
1002
}
1002
{
1000
OTHER
1070
     0
1002
}
1002
{
1000
REACTOR
1002
}
1001
GENIUS_GENOBJ-N-FIL_13
1002
{
1000
OWNER
1000
GEN
1002
}
  0
LINE
  5
44CD
  8
241
  6
CONTINUOUS
 10
53.000000000000007
 20
-34.249999999999233
 30
0.0
 11
52.999999999999183
 21
34.24999999999946
 31
0.0
  0
LINE
  5
44CE
  8
240
 10
53.250000000000007
 20
-34.499999999999218
 30
0.0
 11
53.000000000000007
 21
-34.249999999999218
 31
0.0
1001
GENIUS_GENFIL_13
1070
     0
1040
0.25
1040
0.25
1040
0.2500000000000284
1040
45.00000000000162
1002
{
1002
}
1001
GENIUS_GENODEF_13
1002
{
1000
HIER
1070
     0
1002
}
1002
{
1000
MANEDIT
1070
     0
1002
}
1002
{
1000
NOSEL
1070
     0
1002
}
1002
{
1000
BEHIND
1070
     0
1002
}
1002
{
1000
OTHER
1070
     0
1002
}
1002
{
1000
REACTOR
1002
}
1001
GENIUS_GENOBJ-N-CHA_13
1002
{
1000
OWNER
1000
GEN
1002
}
  0
LINE
  5
44CF
  8
240
 10
69.671572875254142
 20
-34.499999999999247
 30
0.0
 11
53.250000000000007
 21
-34.499999999999218
 31
0.0
  0
LINE
  5
44D0
  8
240
 10
75.500000000000412
 20
-28.671572875253041
 30
0.0
 11
75.500000000000412
 21
-21.000000000000611
 31
0.0
  0
LINE
  5
44D1
  8
241
 10
75.500000000000412
 20
-21.0000000000006
 30
0.0
 11
75.500000000000455
 21
21.0000000000006
 31
0.0
  0
LINE
  5
44D2
  8
240
 10
75.500000000000441
 20
21.0000000000006
 30
0.0
 11
75.500000000000455
 21
28.671572875254071
 31
0.0
  0
ARC
  5
44D3
  8
240
 10
73.500000000000412
 20
-28.671572875253041
 30
0.0
 40
2.0
 50
314.99999999999989
 51
0.0
1001
GENIUS_GENODEF_13
1002
{
1000
HIER
1070
     0
1002
}
1002
{
1000
MANEDIT
1070
     0
1002
}
1002
{
1000
NOSEL
1070
     0
1002
}
1002
{
1000
BEHIND
1070
     0
1002
}
1002
{
1000
OTHER
1070
     0
1002
}
1002
{
1000
REACTOR
1002
}
1001
GENIUS_GENOBJ-N-FIL_13
1002
{
1000
OWNER
1000
GEN
1002
}
  0
LINE
  5
44D4
  8
240
 10
71.08578643762722
 20
-33.914213562372353
 30
0.0
 11
74.91421356237349
 21
-30.08578643762614
 31
0.0
1001
GENIUS_GENFIL_13
1070
     0
1040
5.0
1040
5.0
1040
0.2500000000000284
1040
45.00000000000162
1002
{
1002
}
1001
GENIUS_GENODEF_13
1002
{
1000
HIER
1070
     0
1002
}
1002
{
1000
MANEDIT
1070
     0
1002
}
1002
{
1000
NOSEL
1070
     0
1002
}
1002
{
1000
BEHIND
1070
     0
1002
}
1002
{
1000
OTHER
1070
     0
1002
}
1002
{
1000
REACTOR
1002
}
1001
GENIUS_GENOBJ-N-CHA_13
1002
{
1000
OWNER
1000
GEN
1002
}
  0
ARC
  5
44D5
  8
240
 10
69.671572875254142
 20
-32.499999999999247
 30
0.0
 40
2.0
 50
270.0
 51
314.99999999999989
1001
GENIUS_GENFIL_13
1070
     0
1040
5.0
1040
5.0
1040
0.2500000000000284
1040
45.00000000000162
1002
{
1002
}
1001
GENIUS_GENOBJ-N-CHA_13
1002
{
1000
OWNER
1000
GEN
1002
}
1001
GENIUS_GENODEF_13
1002
{
1000
HIER
1070
     0
1002
}
1002
{
1000
MANEDIT
1070
     0
1002
}
1002
{
1000
NOSEL
1070
     0
1002
}
1002
{
1000
BEHIND
1070
     0
1002
}
1002
{
1000
OTHER
1070
     0
1002
}
1002
{
1000
REACTOR
1002
}
1001
GENIUS_GENOBJ-N-FIL_13
1002
{
1000
OWNER
1000
GEN
1002
}
  0
LINE
  5
44D6
  8
240
 10
53.250000000000043
 20
34.500000000000291
 30
0.0
 11
53.000000000000043
 21
34.250000000000291
 31
0.0
  0
LINE
  5
44D7
  8
241
 10
70.500000000000327
 20
-34.320359442248161
 30
0.0
 11
70.500000000000355
 21
34.320359442249213
 31
0.0
  0
LINE
  5
44D8
  8
241
 10
52.999999999999957
 20
34.499999999999893
 30
0.0
 11
52.999999999999268
 21
-34.499999999999893
 31
0.0
  0
ARC
  5
44D9
  8
240
 10
52.499999999999957
 20
34.499999999999893
 30
0.0
 40
0.5
 50
0.0
 51
90.0
1001
GENIUS_GENOBJ-N-FIL_13
1002
{
1000
OWNER
1000
GEN
1002
}
1001
GENIUS_GENODEF_13
1002
{
1000
HIER
1070
     0
1002
}
1002
{
1000
MANEDIT
1070
     0
1002
}
1002
{
1000
NOSEL
1070
     0
1002
}
1002
{
1000
BEHIND
1070
     0
1002
}
1002
{
1000
OTHER
1070
     0
1002
}
1002
{
1000
REACTOR
1002
}
  0
LINE
  5
44DA
  8
240
 10
42.49999999999995
 20
34.999999999999893
 30
0.0
 11
52.499999999999957
 21
34.999999999999893
 31
0.0
  0
LINE
  5
44DB
  8
240
 10
41.999999999999837
 20
34.499999999999773
 30
0.0
 11
42.49999999999995
 21
34.999999999999893
 31
0.0
1001
GENIUS_GENFIL_13
1070
     0
1040
0.5
1040
0.5
1040
0.2500000000000284
1040
45.00000000000162
1002
{
1002
}
1001
GENIUS_GENOBJ-N-CHA_13
1002
{
1000
OWNER
1000
GEN
1002
}
1001
GENIUS_GENODEF_13
1002
{
1000
HIER
1070
     0
1002
}
1002
{
1000
MANEDIT
1070
     0
1002
}
1002
{
1000
NOSEL
1070
     0
1002
}
1002
{
1000
BEHIND
1070
     0
1002
}
1002
{
1000
OTHER
1070
     0
1002
}
1002
{
1000
REACTOR
1002
}
  0
LINE
  5
44DC
  8
241
 10
41.999999999999808
 20
34.499999999999773
 30
0.0
 11
41.999999999999837
 21
-34.499999999999773
 31
0.0
  0
ARC
  5
44DD
  8
240
 10
52.499999999999957
 20
-34.499999999999893
 30
0.0
 40
0.5
 50
270.0
 51
0.0
1001
GENIUS_GENOBJ-N-FIL_13
1002
{
1000
OWNER
1000
GEN
1002
}
1001
GENIUS_GENODEF_13
1002
{
1000
HIER
1070
     0
1002
}
1002
{
1000
MANEDIT
1070
     0
1002
}
1002
{
1000
NOSEL
1070
     0
1002
}
1002
{
1000
BEHIND
1070
     0
1002
}
1002
{
1000
OTHER
1070
     0
1002
}
1002
{
1000
REACTOR
1002
}
  0
LINE
  5
44DE
  8
240
 10
42.49999999999995
 20
-34.999999999999893
 30
0.0
 11
51.99999999999995
 21
-34.999999999999893
 31
0.0
  0
LINE
  5
44DF
  8
240
 10
42.49999999999995
 20
-34.999999999999893
 30
0.0
 11
52.499999999999957
 21
-34.999999999999893
 31
0.0
  0
LINE
  5
44E0
  8
240
 10
41.999999999999837
 20
-34.499999999999773
 30
0.0
 11
42.49999999999995
 21
-34.999999999999893
 31
0.0
1001
GENIUS_GENFIL_13
1070
     0
1040
0.5000000000000995
1040
0.5000000000001421
1040
0.5000000000000995
1040
45.00000000000162
1002
{
1002
}
1001
GENIUS_GENOREF_13
1005
0
  0
LINE
  5
44E1
  8
241
 10
48.399999999999878
 20
28.133974596215239
 30
0.0
 11
48.399999999999928
 21
29.866025403784079
 31
0.0
  0
LINE
  5
44E2
  8
241
 10
48.399999999999928
 20
29.866025403784079
 30
0.0
 11
46.899999999999871
 21
30.732050807568609
 31
0.0
  0
LINE
  5
44E3
  8
241
 10
46.899999999999871
 20
30.732050807568609
 30
0.0
 11
45.399999999999928
 21
29.866025403784079
 31
0.0
  0
LINE
  5
44E4
  8
241
 10
45.399999999999871
 20
29.866025403784079
 30
0.0
 11
45.399999999999821
 21
28.133974596215179
 31
0.0
  0
LINE
  5
44E5
  8
241
 10
45.399999999999821
 20
28.133974596215179
 30
0.0
 11
46.899999999999871
 21
27.267949192430709
 31
0.0
  0
LINE
  5
44E6
  8
241
 10
46.899999999999871
 20
27.267949192430709
 30
0.0
 11
48.399999999999821
 21
28.133974596215179
 31
0.0
  0
LINE
  5
44E7
  8
241
 10
52.999999999999559
 20
-4.9079128927340321
 30
0.0
 11
41.999999999999837
 21
-4.9079128927340321
 31
0.0
  0
LINE
  5
44E8
  8
241
 10
52.999999999999503
 20
-13.076714195020029
 30
0.0
 11
41.999999999999837
 21
-13.076714195020029
 31
0.0
  0
LINE
  5
44E9
  8
241
 10
52.999999999999389
 20
-21.5774686843572
 30
0.0
 11
41.999999999999837
 21
-21.5774686843572
 31
0.0
  0
LINE
  5
44EA
  8
241
 10
52.999999999999389
 20
-27.55744627456556
 30
0.0
 11
41.999999999999837
 21
-27.55744627456556
 31
0.0
  0
LINE
  5
44EB
  8
241
 10
52.999999999999268
 20
-32.465359167299091
 30
0.0
 11
41.999999999999837
 21
-32.465359167299091
 31
0.0
  0
CIRCLE
  5
44ED
  8
241
 10
46.899999999999871
 20
28.999999999999659
 30
0.0
 40
3.5
  0
ARC
  5
44EE
  8
241
 10
46.899999999999928
 20
28.999999999999659
 30
0.0
 40
3.75
 50
180.0
 51
0.0
  0
LINE
  5
44EF
  8
241
 10
43.149999999999928
 20
28.999999999999659
 30
0.0
 11
43.149999999999928
 21
32.749999999999659
 31
0.0
  0
LINE
  5
44F0
  8
241
 10
50.649999999999942
 20
28.999999999999659
 30
0.0
 11
50.649999999999942
 21
32.749999999999659
 31
0.0
  0
LINE
  5
44F1
  8
241
 10
50.649999999999942
 20
32.749999999999659
 30
0.0
 11
43.149999999999928
 21
32.749999999999659
 31
0.0
  0
LINE
  5
44F2
  8
241
 10
52.999999999999559
 20
4.9079128927340596
 30
0.0
 11
41.999999999999837
 21
4.9079128927340596
 31
0.0
  0
LINE
  5
44F3
  8
241
 10
53.499999999999623
 20
3.0068731247942528
 30
0.0
 11
55.499999999999609
 21
3.0068731247942528
 31
0.0
  0
LINE
  5
44F4
  8
241
 10
53.499999999999652
 20
5.9908621295090816
 30
0.0
 11
56.499999999999638
 21
5.9908621295090816
 31
0.0
  0
LINE
  5
44F5
  8
241
 10
53.499999999999702
 20
8.9292570560369882
 30
0.0
 11
55.499999999999702
 21
8.9292570560369882
 31
0.0
  0
LINE
  5
44F6
  8
241
 10
53.499999999999723
 20
11.79969494473556
 30
0.0
 11
56.49999999999973
 21
11.79969494473556
 31
0.0
  0
LINE
  5
44F7
  8
241
 10
53.499999999999758
 20
14.58033003005408
 30
0.0
 11
55.499999999999751
 21
14.58033003005408
 31
0.0
  0
LINE
  5
44F8
  8
241
 10
53.499999999999787
 20
17.249999999999879
 30
0.0
 11
56.499999999999787
 21
17.249999999999879
 31
0.0
  0
LINE
  5
44F9
  8
241
 10
53.499999999999808
 20
19.788387054111009
 30
0.0
 11
55.499999999999822
 21
19.788387054111009
 31
0.0
  0
LINE
  5
44FA
  8
241
 10
53.499999999999837
 20
22.176172534185518
 30
0.0
 11
56.499999999999837
 21
22.176172534185518
 31
0.0
  0
LINE
  5
44FB
  8
241
 10
53.499999999999872
 20
24.395183950935749
 30
0.0
 11
55.499999999999872
 21
24.395183950935749
 31
0.0
  0
LINE
  5
44FC
  8
241
 10
53.499999999999901
 20
26.42853328760458
 30
0.0
 11
56.499999999999901
 21
26.42853328760458
 31
0.0
  0
LINE
  5
44FD
  8
241
 10
53.499999999999929
 20
28.26074552797008
 30
0.0
 11
55.499999999999929
 21
28.26074552797008
 31
0.0
  0
LINE
  5
44FE
  8
241
 10
53.499999999999929
 20
29.764182090367171
 30
0.0
 11
56.499999999999929
 21
29.764182090367171
 31
0.0
  0
LINE
  5
44FF
  8
241
 10
53.499999999999957
 20
31.26761865276427
 30
0.0
 11
55.499999999999957
 21
31.26761865276427
 31
0.0
  0
LINE
  5
4500
  8
241
 10
53.499999999999979
 20
32.419395417113662
 30
0.0
 11
56.49999999999995
 21
32.419395417113662
 31
0.0
  0
LINE
  5
4501
  8
241
 10
53.499999999999979
 20
33.324441006972727
 30
0.0
 11
55.499999999999979
 21
33.324441006972727
 31
0.0
  0
LINE
  5
4502
  8
241
 10
53.499999999999979
 20
33.846579045568937
 30
0.0
 11
56.499999999999979
 21
33.846579045568937
 31
0.0
  0
LINE
  5
4503
  8
240
 10
75.999999999998451
 20
20.74999999999994
 30
0.0
 11
98.499999999999943
 21
20.74999999999994
 31
0.0
  0
LINE
  5
4504
  8
240
 10
75.999999999998224
 20
-20.749999999999929
 30
0.0
 11
98.499999999999943
 21
-20.749999999999929
 31
0.0
  0
LINE
  5
4505
  8
240
  6
CONTINUOUS
 10
75.500000000000384
 20
-21.0000000000006
 30
0.0
 11
75.749999999997712
 21
-21.000000000000611
 31
0.0
  0
LINE
  5
4506
  8
240
 10
75.999999999998167
 20
-20.75000000000016
 30
0.0
 11
75.749999999998053
 21
-21.00000000000021
 31
0.0
  0
LINE
  5
4507
  8
240
  6
CONTINUOUS
 10
75.500000000000384
 20
21.0000000000006
 30
0.0
 11
75.749999999997712
 21
21.000000000000629
 31
0.0
  0
LINE
  5
4508
  8
240
 10
75.999999999998167
 20
20.750000000000171
 30
0.0
 11
75.749999999998053
 21
21.000000000000231
 31
0.0
  0
LINE
  5
4509
  8
241
 10
75.999999999998451
 20
20.74999999999994
 30
0.0
 11
75.999999999998423
 21
-20.74999999999994
 31
0.0
  0
LINE
  5
4571
  8
240
 10
-0.0000000000000568
 20
22.225000000000001
 30
0.0
 11
0.9999999999999431
 21
22.225000000000001
 31
0.0
  0
LINE
  5
4572
  8
240
 10
0.0000000000000568
 20
-22.22500000000008
 30
0.0
 11
0.9999999999999431
 21
-22.22500000000008
 31
0.0
  0
LINE
  5
45E3
  8
AM_5
 10
-0.0000000000000568
 20
22.725000000000051
 30
0.0
 11
-0.0000000000000547
 21
49.99999999999968
 31
0.0
  0
LINE
  5
45E4
  8
AM_5
 10
75.500000000000384
 20
29.171572875253052
 30
0.0
 11
75.500000000000384
 21
49.99999999999968
 31
0.0
  0
LINE
  5
45E5
  8
250
 10
2.2299999999999449
 20
48.999999999999687
 30
0.0
 11
73.270000000000394
 21
48.999999999999687
 31
0.0
  0
LINE
  5
45E9
  8
AM_5
 10
75.500000000000384
 20
29.171572875253052
 30
0.0
 11
75.500000000000384
 21
50.0
 31
0.0
  0
LINE
  5
45EA
  8
AM_5
 10
120.0
 20
21.627207793864191
 30
0.0
 11
120.0
 21
50.0
 31
0.0
  0
LINE
  5
45EB
  8
250
 10
77.730000000000402
 20
49.0
 30
0.0
 11
117.77
 21
49.0
 31
0.0
  0
LINE
  5
45EF
  8
AM_5
 10
-0.0000000000000568
 20
22.725000000000051
 30
0.0
 11
-0.0000000000000543
 21
57.0
 31
0.0
  0
LINE
  5
45F0
  8
AM_5
 10
120.0
 20
21.627207793864191
 30
0.0
 11
120.0
 21
57.0
 31
0.0
  0
LINE
  5
45F1
  8
250
 10
2.2299999999999449
 20
56.0
 30
0.0
 11
117.77
 21
56.0
 31
0.0
  0
LINE
  5
45F5
  8
250
 10
118.43285433117479
 20
-23.0
 30
0.0
 11
145.00464010910591
 21
-23.000000000000011
 31
0.0
  0
LINE
  5
45F6
  8
250
 10
118.4861374911541
 20
23.0
 30
0.0
 11
145.00464010910591
 21
22.999999999999989
 31
0.0
  0
LINE
  5
45F7
  8
250
 10
144.00464010910591
 20
-20.77000000000001
 30
0.0
 11
144.00464010910591
 21
20.769999999999989
 31
0.0
  0
LINE
  5
45FB
  8
250
 10
120.5
 20
10.0
 30
0.0
 11
137.63297244243921
 21
9.9999999999999947
 31
0.0
  0
LINE
  5
45FC
  8
250
 10
120.5
 20
-10.0
 30
0.0
 11
137.63297244243921
 21
-10.0
 31
0.0
  0
LINE
  5
45FD
  8
250
 10
136.63297244243921
 20
7.7699999999999942
 30
0.0
 11
136.63297244243921
 21
-7.770000000000004
 31
0.0
  0
LINE
  5
4601
  8
250
 10
62.0
 20
-10.30000000000001
 30
0.0
 11
62.0
 21
-50.0
 31
0.0
  0
LINE
  5
4602
  8
250
 10
120.0
 20
-21.62720779386424
 30
0.0
 11
120.0
 21
-50.0
 31
0.0
  0
LINE
  5
4603
  8
250
 10
64.230000000000004
 20
-49.0
 30
0.0
 11
117.77
 21
-49.0
 31
0.0
  0
POLYLINE
  5
4608
  8
250
 66
     1
 10
0.0
 20
0.0
 30
0.0
1001
ACAD
1000
DSTYLE
1002
{
1070
    78
1070
     8
1070
   140
1040
3.0
1002
}
  0
VERTEX
  5
4945
  8
250
 10
-27.432042467855752
 20
-20.318334623877
 30
0.0
  0
VERTEX
  5
4946
  8
250
 10
-34.398026462734506
 20
-32.383772827718623
 30
0.0
  0
SEQEND
  5
4947
  8
250
  0
TEXT
  5
4609
  8
250
 10
-50.969455034163069
 20
-31.383772827718619
 30
0.0
 40
3.0
  1
BBT40
  7
YOKO
1001
ITEMNAME
1000
LNSP3
  0
LINE
  5
460A
  8
250
 10
-27.753915242928962
 20
-20.132501290543669
 30
0.0
 11
-26.317042467855739
 21
-18.387097973437701
 31
0.0
  0
LINE
  5
460B
  8
250
 10
-27.110169692782531
 20
-20.504167957210338
 30
0.0
 11
-26.317042467855739
 21
-18.387097973437701
 31
0.0
  0
LINE
  5
460C
  8
250
 10
-26.317042467855739
 20
-18.387097973437701
 30
0.0
 11
-27.432042467855752
 21
-20.318334623877
 31
0.0
  0
TEXT
  5
460D
  8
250
 10
33.083333333333513
 20
49.99999999999968
 30
0.0
 40
2.7999999999999989
  1
75.5
  0
LINE
  5
460E
  8
250
 10
73.270000000000394
 20
49.371666666666357
 30
0.0
 11
75.500000000000384
 21
48.999999999999687
 31
0.0
  0
LINE
  5
460F
  8
250
 10
73.270000000000394
 20
48.628333333333018
 30
0.0
 11
75.500000000000384
 21
48.999999999999687
 31
0.0
  0
LINE
  5
4610
  8
250
 10
75.500000000000384
 20
48.999999999999687
 30
0.0
 11
73.270000000000394
 21
48.999999999999687
 31
0.0
  0
LINE
  5
4611
  8
250
 10
2.2299999999999449
 20
48.628333333333018
 30
0.0
 11
-0.0000000000000548
 21
48.999999999999687
 31
0.0
  0
LINE
  5
4612
  8
250
 10
2.2299999999999449
 20
49.371666666666357
 30
0.0
 11
-0.0000000000000548
 21
48.999999999999687
 31
0.0
  0
LINE
  5
4613
  8
250
 10
-0.0000000000000548
 20
48.999999999999687
 30
0.0
 11
2.2299999999999449
 21
48.999999999999687
 31
0.0
  0
TEXT
  5
4614
  8
250
 10
93.083333333333528
 20
50.0
 30
0.0
 40
2.7999999999999989
  1
44.5
  0
LINE
  5
4615
  8
250
 10
117.77
 20
49.37166666666667
 30
0.0
 11
120.0
 21
49.0
 31
0.0
  0
LINE
  5
4616
  8
250
 10
117.77
 20
48.62833333333333
 30
0.0
 11
120.0
 21
49.0
 31
0.0
  0
LINE
  5
4617
  8
250
 10
120.0
 20
49.0
 30
0.0
 11
117.77
 21
49.0
 31
0.0
  0
LINE
  5
4618
  8
250
 10
77.730000000000402
 20
48.62833333333333
 30
0.0
 11
75.500000000000384
 21
49.0
 31
0.0
  0
LINE
  5
4619
  8
250
 10
77.730000000000402
 20
49.37166666666667
 30
0.0
 11
75.500000000000384
 21
49.0
 31
0.0
  0
LINE
  5
461A
  8
250
 10
75.500000000000384
 20
49.0
 30
0.0
 11
77.730000000000402
 21
49.0
 31
0.0
  0
TEXT
  5
461B
  8
250
 10
55.799999999999983
 20
57.000000000000007
 30
0.0
 40
2.7999999999999989
  1
120
  0
LINE
  5
461C
  8
250
 10
117.77
 20
56.37166666666667
 30
0.0
 11
120.0
 21
56.0
 31
0.0
  0
LINE
  5
461D
  8
250
 10
117.77
 20
55.62833333333333
 30
0.0
 11
120.0
 21
56.0
 31
0.0
  0
LINE
  5
461E
  8
250
 10
120.0
 20
56.0
 30
0.0
 11
117.77
 21
56.0
 31
0.0
  0
LINE
  5
461F
  8
250
 10
2.2299999999999449
 20
55.62833333333333
 30
0.0
 11
-0.0000000000000543
 21
56.0
 31
0.0
  0
LINE
  5
4620
  8
250
 10
2.2299999999999449
 20
56.37166666666667
 30
0.0
 11
-0.0000000000000543
 21
56.0
 31
0.0
  0
LINE
  5
4621
  8
250
 10
-0.0000000000000543
 20
56.0
 30
0.0
 11
2.2299999999999449
 21
56.0
 31
0.0
  0
TEXT
  5
4622
  8
250
 10
143.00464010910591
 20
-3.9333333333333149
 30
0.0
 40
2.7999999999999989
  1
\U+220546
 50
90.0
  0
LINE
  5
4623
  8
250
 10
143.63297344243921
 20
20.769999999999989
 30
0.0
 11
144.00464010910591
 21
22.999999999999989
 31
0.0
  0
LINE
  5
4624
  8
250
 10
144.3763067757726
 20
20.769999999999989
 30
0.0
 11
144.00464010910591
 21
22.999999999999989
 31
0.0
  0
LINE
  5
4625
  8
250
 10
144.00464010910591
 20
22.999999999999989
 30
0.0
 11
144.00464010910591
 21
20.769999999999989
 31
0.0
  0
LINE
  5
4626
  8
250
 10
144.3763067757726
 20
-20.77000000000001
 30
0.0
 11
144.00464010910591
 21
-23.000000000000011
 31
0.0
  0
LINE
  5
4627
  8
250
 10
143.63297344243921
 20
-20.77000000000001
 30
0.0
 11
144.00464010910591
 21
-23.000000000000011
 31
0.0
  0
LINE
  5
4628
  8
250
 10
144.00464010910591
 20
-23.000000000000011
 30
0.0
 11
144.00464010910591
 21
-20.77000000000001
 31
0.0
  0
TEXT
  5
4629
  8
250
 10
135.6329724424393
 20
-9.4285714285714501
 30
0.0
 40
3.0
  1
MAX.\U+220520
 50
90.0
  0
LINE
  5
462A
  8
250
 10
137.00463910910591
 20
-7.770000000000004
 30
0.0
 11
136.63297244243921
 21
-10.0
 31
0.0
  0
LINE
  5
462B
  8
250
 10
136.2613057757726
 20
-7.770000000000004
 30
0.0
 11
136.63297244243921
 21
-10.0
 31
0.0
  0
LINE
  5
462C
  8
250
 10
136.63297244243921
 20
-10.0
 30
0.0
 11
136.63297244243921
 21
-7.770000000000004
 31
0.0
  0
LINE
  5
462D
  8
250
 10
136.2613057757726
 20
7.7699999999999942
 30
0.0
 11
136.63297244243921
 21
9.9999999999999947
 31
0.0
  0
LINE
  5
462E
  8
250
 10
137.00463910910591
 20
7.7699999999999942
 30
0.0
 11
136.63297244243921
 21
9.9999999999999947
 31
0.0
  0
LINE
  5
462F
  8
250
 10
136.63297244243921
 20
9.9999999999999947
 30
0.0
 11
136.63297244243921
 21
7.7699999999999942
 31
0.0
  0
TEXT
  5
4630
  8
250
 10
83.48571428571428
 20
-48.0
 30
0.0
 40
3.0
  1
48ü`65
  0
LINE
  5
4631
  8
250
 10
117.77
 20
-48.62833333333333
 30
0.0
 11
120.0
 21
-49.0
 31
0.0
  0
LINE
  5
4632
  8
250
 10
117.77
 20
-49.37166666666667
 30
0.0
 11
120.0
 21
-49.0
 31
0.0
  0
LINE
  5
4633
  8
250
 10
120.0
 20
-49.0
 30
0.0
 11
117.77
 21
-49.0
 31
0.0
  0
LINE
  5
4634
  8
250
 10
64.230000000000004
 20
-49.37166666666667
 30
0.0
 11
62.0
 21
-49.0
 31
0.0
  0
LINE
  5
4635
  8
250
 10
64.230000000000004
 20
-48.62833333333333
 30
0.0
 11
62.0
 21
-49.0
 31
0.0
  0
LINE
  5
4636
  8
250
 10
62.0
 20
-49.0
 30
0.0
 11
64.230000000000004
 21
-49.0
 31
0.0
  0
TEXT
  5
464B
  8
241
 10
-77.0
 20
70.000000000000369
 30
0.0
 40
5.0
  1
BBT40-NBS20-120NRA
  7
YOKO
 11
-77.0
 21
70.000000000000369
 31
0.0
 73
     1
  0
VIEWPORT
  5
22
 67
     1
  8
0
 10
261.51769911504419
 20
148.5
 30
0.0
 40
523.0353982300885
 41
297.0
 68
     1
 69
     1
1001
ACAD
1000
MVIEW
1002
{
1070
    16
1010
0.0
1020
0.0
1030
0.0
1010
0.0
1020
0.0
1030
1.0
1040
0.0
1040
297.0
1040
261.51769911504419
1040
148.5
1040
50.0
1040
0.0
1040
0.0
1070
     0
1070
   100
1070
     1
1070
     1
1070
     0
1070
     0
1070
     0
1070
     0
1040
0.0
1040
0.0
1040
0.0
1040
1.0
1040
1.0
1040
10.0
1040
10.0
1070
     0
1002
{
1002
}
1002
}
1001
GENIUS_GENODEF_13
1002
{
1000
HIER
1070
     0
1002
}
1002
{
1000
MANEDIT
1070
     0
1002
}
1002
{
1000
NOSEL
1070
     0
1002
}
1002
{
1000
BEHIND
1070
     0
1002
}
1002
{
1000
OTHER
1070
     0
1002
}
1002
{
1000
REACTOR
1002
}
1001
GENIUS_GENOBJ-N-SDF_13
1002
{
1000
OWNER
1000
GEN
1002
}
1001
GENIUS_GENSCREG_15
1000
PF
1040
1.0
1000
DF
1040
1.0
1000
MIN
1011
0.0
1021
0.0
1031
0.0
1021
0.0
1031
0.0
1000
MAX
1011
523.0353982300885
1021
0.0
1031
0.0
1021
297.0
1031
0.0
1000
FLAGS
1070
     4
  0
ENDSEC
  0
EOF
