  0
SECTION
  2
HEADER
  9
$ACADVER
  1
AC1009
  9
$INSBASE
 10
0.0
 20
0.0
 30
0.0
  9
$EXTMIN
 10
-67.450703158701145
 20
-43.218911086754467
 30
0.0
  9
$EXTMAX
 10
112.0
 20
68.0
 30
0.0
  9
$LIMMIN
 10
0.0
 20
0.0
  9
$LIMMAX
 10
297.0
 20
210.0
  9
$ORTHOMODE
 70
     0
  9
$REGENMODE
 70
     1
  9
$FILLMODE
 70
     1
  9
$QTEXTMODE
 70
     0
  9
$MIRRTEXT
 70
     1
  9
$DRAGMODE
 70
     2
  9
$LTSCALE
 40
10.0
  9
$OSMODE
 70
    63
  9
$ATTMODE
 70
     1
  9
$TEXTSIZE
 40
3.0
  9
$TRACEWID
 40
1.0
  9
$TEXTSTYLE
  7
YOKO
  9
$CLAYER
  8
240
  9
$CELTYPE
  6
BYLAYER
  9
$CECOLOR
 62
   256
  9
$DIMSCALE
 40
1.0
  9
$DIMASZ
 40
2.2299999999999991
  9
$DIMEXO
 40
0.5
  9
$DIMDLI
 40
7.0
  9
$DIMRND
 40
0.0
  9
$DIMDLE
 40
0.0
  9
$DIMEXE
 40
1.0
  9
$DIMTP
 40
0.0
  9
$DIMTM
 40
0.01
  9
$DIMTXT
 40
2.7999999999999989
  9
$DIMCEN
 40
0.0
  9
$DIMTSZ
 40
0.0
  9
$DIMTOL
 70
     0
  9
$DIMLIM
 70
     0
  9
$DIMTIH
 70
     0
  9
$DIMTOH
 70
     0
  9
$DIMSE1
 70
     0
  9
$DIMSE2
 70
     0
  9
$DIMTAD
 70
     3
  9
$DIMZIN
 70
     9
  9
$DIMBLK
  1
OPEN
  9
$DIMASO
 70
     1
  9
$DIMSHO
 70
     1
  9
$DIMPOST
  1

  9
$DIMAPOST
  1

  9
$DIMALT
 70
     0
  9
$DIMALTD
 70
     2
  9
$DIMALTF
 40
25.399999999999999
  9
$DIMLFAC
 40
1.0
  9
$DIMTOFL
 70
     1
  9
$DIMTVP
 40
0.0
  9
$DIMTIX
 70
     1
  9
$DIMSOXD
 70
     0
  9
$DIMSAH
 70
     0
  9
$DIMBLK1
  1

  9
$DIMBLK2
  1

  9
$DIMSTYLE
  2
BIGT
  9
$DIMCLRD
 70
   256
  9
$DIMCLRE
 70
   256
  9
$DIMCLRT
 70
    40
  9
$DIMTFAC
 40
1.0
  9
$DIMGAP
 40
1.0
  9
$LUNITS
 70
     2
  9
$LUPREC
 70
     6
  9
$SKETCHINC
 40
1.0
  9
$FILLETRAD
 40
0.0
  9
$AUNITS
 70
     0
  9
$AUPREC
 70
     6
  9
$MENU
  1
.
  9
$ELEVATION
 40
0.0
  9
$PELEVATION
 40
0.0
  9
$THICKNESS
 40
0.0
  9
$LIMCHECK
 70
     0
  9
$BLIPMODE
 70
     0
  9
$CHAMFERA
 40
0.2
  9
$CHAMFERB
 40
0.2
  9
$SKPOLY
 70
     0
  9
$TDCREATE
 40
2457241.6961032292
  9
$TDUPDATE
 40
2457242.381044074
  9
$TDINDWG
 40
0.0061700463
  9
$TDUSRTIMER
 40
0.0061700116
  9
$USRTIMER
 70
     1
  9
$ANGBASE
 50
0.0
  9
$ANGDIR
 70
     0
  9
$PDMODE
 70
     1
  9
$PDSIZE
 40
0.0
  9
$PLINEWID
 40
0.0
  9
$COORDS
 70
     1
  9
$SPLFRAME
 70
     0
  9
$SPLINETYPE
 70
     6
  9
$SPLINESEGS
 70
     4
  9
$ATTDIA
 70
     1
  9
$ATTREQ
 70
     1
  9
$HANDLING
 70
     1
  9
$HANDSEED
  5
4959
  9
$SURFTAB1
 70
     6
  9
$SURFTAB2
 70
     6
  9
$SURFTYPE
 70
     6
  9
$SURFU
 70
     6
  9
$SURFV
 70
     6
  9
$UCSNAME
  2

  9
$UCSORG
 10
0.0
 20
0.0
 30
0.0
  9
$UCSXDIR
 10
1.0
 20
0.0
 30
0.0
  9
$UCSYDIR
 10
0.0
 20
1.0
 30
0.0
  9
$PUCSNAME
  2

  9
$PUCSORG
 10
0.0
 20
0.0
 30
0.0
  9
$PUCSXDIR
 10
1.0
 20
0.0
 30
0.0
  9
$PUCSYDIR
 10
0.0
 20
1.0
 30
0.0
  9
$USERI1
 70
     1
  9
$USERI2
 70
     0
  9
$USERI3
 70
     0
  9
$USERI4
 70
     0
  9
$USERI5
 70
     0
  9
$USERR1
 40
0.0
  9
$USERR2
 40
0.0
  9
$USERR3
 40
0.0
  9
$USERR4
 40
0.0
  9
$USERR5
 40
0.0
  9
$WORLDVIEW
 70
     1
  9
$SHADEDGE
 70
     3
  9
$SHADEDIF
 70
    70
  9
$TILEMODE
 70
     1
  9
$MAXACTVP
 70
    16
  9
$PLIMCHECK
 70
     0
  9
$PEXTMIN
 10
1.0000000000000000E+020
 20
1.0000000000000000E+020
 30
1.0000000000000000E+020
  9
$PEXTMAX
 10
-1.0000000000000000E+020
 20
-1.0000000000000000E+020
 30
-1.0000000000000000E+020
  9
$PLIMMIN
 10
0.0
 20
0.0
  9
$PLIMMAX
 10
420.0
 20
297.0
  9
$UNITMODE
 70
     0
  9
$VISRETAIN
 70
     1
  9
$PLINEGEN
 70
     0
  9
$PSLTSCALE
 70
     1
  0
ENDSEC
  0
SECTION
  2
TABLES
  0
TABLE
  2
VPORT
 70
     1
  0
VPORT
  2
*ACTIVE
 70
     0
 10
0.0
 20
0.0
 11
1.0
 21
1.0
 12
22.276360102668821
 22
24.480122498681311
 13
0.0
 23
0.0
 14
7.0
 24
7.0
 15
7.0
 25
7.0
 16
0.0
 26
0.0
 36
1.0
 17
0.0
 27
0.0
 37
0.0
 40
131.9726816035118
 41
1.4355016538037479
 42
50.0
 43
0.0
 44
0.0
 50
0.0
 51
0.0
 71
     0
 72
  2000
 73
     1
 74
     0
 75
     0
 76
     1
 77
     0
 78
     0
  0
ENDTAB
  0
TABLE
  2
LTYPE
 70
    13
  0
LTYPE
  2
CONTINUOUS
 70
     0
  3
Solid line
 72
    65
 73
     0
 40
0.0
  0
LTYPE
  2
CENTER2
 70
     0
  3
___ _ ___ _ ___ _ ___ _ ___ _ ___ _ ___ _ ___ _
 72
    65
 73
     4
 40
1.125
 49
0.75
 49
-0.125
 49
0.125
 49
-0.125
  0
LTYPE
  2
HIDDEN2
 70
     0
  3
_ _ _ _ _ _ _ _ _ _ _ _ _ _ _ _ _ _ _ _ _ _ _ _
 72
    65
 73
     2
 40
0.1875
 49
0.125
 49
-0.0625
  0
LTYPE
  2
PHANTOM2
 70
     0
  3
___ _ _ ___ _ _ ___ _ _ ___ _ _ ___ _ _ ___ _ _
 72
    65
 73
     6
 40
1.25
 49
0.625
 49
-0.125
 49
0.125
 49
-0.125
 49
0.125
 49
-0.125
  0
LTYPE
  2
AM_ISO02W050
 70
     0
  3
__ __ __ __ __ __ __ __ __ __ __ __ __ __ __
 72
    65
 73
     2
 40
7.5
 49
6.0
 49
-1.5
  0
LTYPE
  2
AMCONSTR
 70
     0
  3
_______________________
 72
    65
 73
     2
 40
9999.0
 49
9999.0
 49
0.0
  0
LTYPE
  2
ACISOWELD
 70
     0
  3
_ _ _ _ _
 72
    65
 73
     2
 40
2.0
 49
2.0
 49
-1.0
  0
LTYPE
  2
ACISOTGB
 70
     0
  3
__ . . __ . .
 72
    65
 73
     6
 40
9.0
 49
4.0
 49
-1.0
 49
1.0
 49
-1.0
 49
1.0
 49
-1.0
  0
LTYPE
  2
ACISOTGL
 70
     0
  3
_ _ _ _ _
 72
    65
 73
     2
 40
3.0
 49
2.0
 49
-1.0
  0
LTYPE
  2
ACJISTGB
 70
     0
  3
__ . . __ . .
 72
    65
 73
     6
 40
9.0
 49
4.0
 49
-1.0
 49
1.0
 49
-1.0
 49
1.0
 49
-1.0
  0
LTYPE
  2
ACJISTGL
 70
     0
  3
_ _ _ _ _
 72
    65
 73
     2
 40
3.0
 49
2.0
 49
-1.0
  0
ENDTAB
  0
TABLE
  2
LAYER
 70
    10
  0
LAYER
  2
0
 70
     0
 62
     7
  6
CONTINUOUS
  0
LAYER
  2
DEFPOINTS
 70
     0
 62
     7
  6
CONTINUOUS
  0
LAYER
  2
245
 70
     0
 62
     2
  6
CENTER2
  0
LAYER
  2
240
 70
     0
 62
     4
  6
CONTINUOUS
  0
LAYER
  2
241
 70
     0
 62
   211
  6
CONTINUOUS
  0
LAYER
  2
242
 70
     0
 62
     3
  6
CONTINUOUS
  0
LAYER
  2
243
 70
     0
 62
   211
  6
HIDDEN2
  0
LAYER
  2
244
 70
     0
 62
     3
  6
HIDDEN2
  0
LAYER
  2
246
 70
     0
 62
     3
  6
PHANTOM2
  0
LAYER
  2
250
 70
     0
 62
     3
  6
CONTINUOUS
  0
ENDTAB
  0
TABLE
  2
STYLE
 70
     6
  0
STYLE
  2
STANDARD
 70
     0
 40
0.0
 41
1.0
 50
0.0
 71
     0
 42
3.0
  3
romans.shx
  4
extfont.shx
  0
STYLE
  2
ACISOTS
 70
     0
 40
1.0
 41
1.0
 50
0.0
 71
     0
 42
3.0
  3
amgdt.shx
  4
extfont.shx
  0
STYLE
  2
ACISOGDT
 70
     0
 40
0.0
 41
1.0
 50
0.0
 71
     0
 42
3.0
  3
amgdt.shx
  4
extfont.shx
  0
STYLE
  2
ACJISTS
 70
     0
 40
1.0
 41
1.0
 50
0.0
 71
     0
 42
3.0
  3
amgdt.shx
  4
extfont.shx
  0
STYLE
  2
ACJISGDT
 70
     0
 40
0.0
 41
1.0
 50
0.0
 71
     0
 42
3.0
  3
amgdt.shx
  4
extfont.shx
  0
STYLE
  2
YOKO
 70
     0
 40
0.0
 41
1.0
 50
0.0
 71
     0
 42
3.0
  3
romans.shx
  4
extfont.shx
  0
ENDTAB
  0
TABLE
  2
VIEW
 70
     0
  0
ENDTAB
  0
TABLE
  2
UCS
 70
     0
  0
ENDTAB
  0
TABLE
  2
APPID
 70
    41
  0
APPID
  2
ACAD
 70
     0
  0
APPID
  2
GLOBAL
 70
     0
  0
APPID
  2
DETAIL
 70
     0
  0
APPID
  2
GRPNAME
 70
     0
  0
APPID
  2
GPARA
 70
     0
  0
APPID
  2
MCAD_NO_VIS
 70
     0
  0
APPID
  2
ACAD_TEMP_GRAPHIC
 70
     0
  0
APPID
  2
ACATTRIBSERVICES
 70
     0
  0
APPID
  2
GENIUS_GENSCREG_15
 70
     0
  0
APPID
  2
GENIUS_GENODEF_13
 70
     0
  0
APPID
  2
GENIUS_GENOBJ-N-SDF_13
 70
     0
  0
APPID
  2
GENIUS_GENREC_14
 70
     0
  0
APPID
  2
GENIUS_GENOBJ-N-REC_13
 70
     0
  0
APPID
  2
GENIUS_GENDIMSH_14
 70
     0
  0
APPID
  2
GENIUS_GENOBJ-N-DIM_13
 70
     0
  0
APPID
  2
GENIUS_GENDIM_13
 70
     0
  0
APPID
  2
GENIUS_GENDTOL_13
 70
     0
  0
APPID
  2
GENIUS_GENOLIS_13
 70
     0
  0
APPID
  2
GENIUS_GENOENT_13
 70
     0
  0
APPID
  2
GENIUS_GENOBJ-F-FEM_13
 70
     0
  0
APPID
  2
GENIUS_GENOREF_13
 70
     0
  0
APPID
  2
GENIUS_GEFFEM_13
 70
     0
  0
APPID
  2
GENIUS_GEFFEMP_13
 70
     0
  0
APPID
  2
AD_DRAW
 70
     0
  0
APPID
  2
DESIGNERASSEMBLIES
 70
     0
  0
APPID
  2
ACADM_DIM_EDIT
 70
     0
  0
APPID
  2
AMDT_DM_ADJ
 70
     0
  0
APPID
  2
ITEMNAME
 70
     0
  0
APPID
  2
GENIUS_GENOBJ-N-FIL_13
 70
     0
  0
APPID
  2
GENIUS_GENFIL_13
 70
     0
  0
APPID
  2
GENIUS_GENOBJ-N-CHA_13
 70
     0
  0
APPID
  2
ACAD_NAV_VCDISPLAY
 70
     0
  0
APPID
  2
ACAD_DSTYLE_DIMINSPECT
 70
     0
  0
APPID
  2
ACAD_EXEMPT_FROM_CAD_STANDARDS
 70
     0
  0
APPID
  2
ACAD_DSTYLE_DIMJAG
 70
     0
  0
APPID
  2
ACAD_DSTYLE_DIMBREAK
 70
     0
  0
APPID
  2
ACAD_MLEADERVER
 70
     0
  0
APPID
  2
ACAD_DSTYLE_DIMARC_LENGTH_
 70
     0
  0
APPID
  2
ACAD_DSTYLE_DIM_LINETYPE
 70
     0
  0
APPID
  2
ACAD_DSTYLE_DIM_EXT1_LINETYPE
 70
     0
  0
APPID
  2
ACAD_DSTYLE_DIM_EXT2_LINETYPE
 70
     0
  0
ENDTAB
  0
TABLE
  2
DIMSTYLE
 70
    23
  0
DIMSTYLE
  2
BIGT
 70
     0
  3

  4

  5
OPEN
  6

  7

 40
1.0
 41
2.2299999999999991
 42
0.5
 43
7.0
 44
1.0
 45
0.0
 46
0.0
 47
0.0
 48
0.01
140
2.7999999999999989
141
0.0
142
0.0
143
25.399999999999999
144
1.0
145
0.0
146
1.0
147
1.0
 71
     0
 72
     0
 73
     0
 74
     0
 75
     0
 76
     0
 77
     3
 78
     9
170
     0
171
     2
172
     1
173
     0
174
     1
175
     0
176
   256
177
   256
178
    40
  0
DIMSTYLE
  2
AM_ISO
 70
     0
  3

  4
"
  5

  6

  7

 40
1.0
 41
2.5
 42
1.0
 43
10.0
 44
1.0
 45
0.0
 46
0.0
 47
0.1
 48
0.1
140
3.5
141
0.0
142
0.0
143
0.0393701
144
1.0
145
0.0
146
0.71
147
1.5
 71
     0
 72
     0
 73
     0
 74
     0
 75
     0
 76
     0
 77
     1
 78
     8
170
     0
171
     2
172
     1
173
     0
174
     0
175
     0
176
   256
177
   256
178
     2
  0
DIMSTYLE
  2
AM_ISO$3
 70
     0
  3

  4
"
  5

  6

  7

 40
1.0
 41
2.5
 42
1.0
 43
10.0
 44
1.0
 45
0.0
 46
0.0
 47
0.1
 48
0.1
140
3.5
141
0.0
142
0.0
143
0.0393701
144
1.0
145
0.0
146
0.71
147
1.5
 71
     0
 72
     0
 73
     0
 74
     1
 75
     0
 76
     0
 77
     1
 78
     8
170
     0
171
     2
172
     0
173
     0
174
     0
175
     0
176
   256
177
   256
178
     2
  0
DIMSTYLE
  2
AM_ISO$4
 70
     0
  3

  4
"
  5

  6

  7

 40
1.0
 41
2.5
 42
1.0
 43
10.0
 44
1.0
 45
0.0
 46
0.0
 47
0.1
 48
0.1
140
3.5
141
0.0
142
0.0
143
0.0393701
144
1.0
145
0.0
146
0.71
147
1.5
 71
     0
 72
     0
 73
     0
 74
     1
 75
     0
 76
     0
 77
     1
 78
     8
170
     0
171
     2
172
     0
173
     0
174
     0
175
     0
176
   256
177
   256
178
     2
  0
DIMSTYLE
  2
AM_ISO$6
 70
     0
  3

  4
"
  5

  6

  7

 40
1.0
 41
2.5
 42
1.0
 43
10.0
 44
1.0
 45
0.0
 46
0.0
 47
0.1
 48
0.1
140
3.5
141
0.0
142
0.0
143
0.0393701
144
1.0
145
0.0
146
0.71
147
1.5
 71
     0
 72
     0
 73
     0
 74
     0
 75
     0
 76
     0
 77
     0
 78
     8
170
     0
171
     2
172
     1
173
     0
174
     0
175
     0
176
   256
177
   256
178
     2
  0
DIMSTYLE
  2
AM_ISO$7
 70
     0
  3

  4
"
  5

  6

  7

 40
1.0
 41
2.5
 42
1.0
 43
10.0
 44
1.0
 45
0.0
 46
0.0
 47
0.1
 48
0.1
140
5.0
141
0.0
142
0.0
143
0.0393701
144
1.0
145
0.0
146
0.71
147
1.5
 71
     0
 72
     0
 73
     0
 74
     0
 75
     0
 76
     0
 77
     1
 78
     8
170
     0
171
     2
172
     1
173
     0
174
     0
175
     0
176
   256
177
   256
178
     2
  0
DIMSTYLE
  2
AM_ISO$SF
 70
     0
  3

  4
"
  5

  6

  7

 40
1.0
 41
2.5
 42
1.0
 43
10.0
 44
1.0
 45
0.0
 46
0.0
 47
0.1
 48
0.1
140
3.5
141
0.0
142
0.0
143
0.0393701
144
1.0
145
0.0
146
0.71
147
1.5
 71
     0
 72
     0
 73
     0
 74
     0
 75
     1
 76
     1
 77
     1
 78
     8
170
     0
171
     2
172
     1
173
     0
174
     0
175
     0
176
   256
177
   256
178
     2
  0
DIMSTYLE
  2
AM_ISO$SH
 70
     0
  3

  4
"
  5

  6
GENAXEH
  7

 40
1.0
 41
2.5
 42
1.0
 43
10.0
 44
1.0
 45
0.0
 46
0.0
 47
0.1
 48
0.1
140
3.5
141
0.0
142
0.0
143
0.0393701
144
2.0
145
0.0
146
0.71
147
1.5
 71
     0
 72
     0
 73
     0
 74
     0
 75
     1
 76
     1
 77
     1
 78
     8
170
     0
171
     2
172
     1
173
     1
174
     0
175
     0
176
   256
177
   256
178
     2
  0
DIMSTYLE
  2
BIGT$2
 70
     0
  3

  4

  5
OPEN
  6

  7

 40
1.0
 41
2.2299999999999991
 42
0.5
 43
7.0
 44
1.0
 45
0.0
 46
0.0
 47
0.0
 48
0.01
140
2.7999999999999989
141
0.0
142
0.0
143
25.399999999999999
144
1.0
145
0.0
146
1.0
147
1.0
 71
     0
 72
     0
 73
     0
 74
     0
 75
     0
 76
     0
 77
     3
 78
     9
170
     0
171
     2
172
     1
173
     0
174
     0
175
     0
176
   256
177
   256
178
    40
  0
DIMSTYLE
  2
BIGT$3
 70
     0
  3

  4

  5
OPEN
  6

  7

 40
1.0
 41
2.2299999999999991
 42
0.5
 43
2.5
 44
1.0
 45
0.0
 46
0.0
 47
0.0
 48
0.01
140
2.7999999999999989
141
0.0
142
0.0
143
25.399999999999999
144
1.0
145
0.0
146
1.0
147
1.0
 71
     0
 72
     0
 73
     0
 74
     0
 75
     0
 76
     0
 77
     3
 78
     9
170
     0
171
     2
172
     1
173
     0
174
     0
175
     0
176
   256
177
   256
178
    40
  0
DIMSTYLE
  2
BIGT$7
 70
     0
  3

  4

  5
OPEN
  6

  7

 40
0.0
 41
2.2299999999999991
 42
0.5
 43
7.0
 44
1.0
 45
0.0
 46
0.0
 47
0.0
 48
0.01
140
2.7999999999999989
141
0.0
142
0.0
143
25.399999999999999
144
1.0
145
0.0
146
1.0
147
1.0
 71
     0
 72
     0
 73
     0
 74
     0
 75
     0
 76
     0
 77
     3
 78
     9
170
     0
171
     2
172
     0
173
     0
174
     0
175
     0
176
   256
177
   256
178
    40
  0
DIMSTYLE
  2
BIGT$6
 70
     0
  3

  4

  5
OPEN
  6

  7

 40
1.0
 41
2.2299999999999991
 42
0.5
 43
2.5
 44
1.0
 45
0.0
 46
0.0
 47
0.0
 48
0.01
140
2.7999999999999989
141
0.0
142
0.0
143
25.399999999999999
144
1.0
145
0.0
146
1.0
147
1.0
 71
     0
 72
     0
 73
     0
 74
     0
 75
     0
 76
     0
 77
     3
 78
     9
170
     0
171
     2
172
     1
173
     0
174
     0
175
     0
176
   256
177
   256
178
    40
  0
DIMSTYLE
  2
BIGT$0
 70
     0
  3

  4

  5
OPEN
  6

  7

 40
1.0
 41
2.2299999999999991
 42
0.5
 43
7.0
 44
1.0
 45
0.0
 46
0.0
 47
0.0
 48
0.01
140
2.7999999999999989
141
0.0
142
0.0
143
25.399999999999999
144
1.0
145
0.0
146
1.0
147
1.0
 71
     0
 72
     0
 73
     0
 74
     0
 75
     0
 76
     0
 77
     3
 78
     9
170
     0
171
     2
172
     1
173
     0
174
     1
175
     0
176
   256
177
   256
178
    40
  0
DIMSTYLE
  2
BIGT$4
 70
     0
  3

  4

  5
OPEN
  6

  7

 40
1.0
 41
2.2299999999999991
 42
0.5
 43
2.5
 44
1.0
 45
0.0
 46
0.0
 47
0.0
 48
0.01
140
2.7999999999999989
141
0.0
142
0.0
143
25.399999999999999
144
1.0
145
0.0
146
1.0
147
1.0
 71
     0
 72
     0
 73
     0
 74
     0
 75
     0
 76
     0
 77
     3
 78
     9
170
     0
171
     2
172
     1
173
     0
174
     0
175
     0
176
   256
177
   256
178
    40
  0
DIMSTYLE
  2
BIGT$SH
 70
     0
  3

  4

  5
OPEN
  6

  7

 40
1.0
 41
2.2299999999999991
 42
0.5
 43
7.0
 44
1.0
 45
0.0
 46
0.0
 47
0.0
 48
0.0
140
2.7999999999999989
141
0.0
142
0.0
143
25.399999999999999
144
1.0
145
0.0
146
1.0
147
1.0
 71
     0
 72
     0
 73
     0
 74
     0
 75
     0
 76
     0
 77
     3
 78
     9
170
     0
171
     2
172
     1
173
     0
174
     0
175
     0
176
   256
177
   256
178
    40
  0
DIMSTYLE
  2
BIGT$SF
 70
     0
  3

  4

  5
OPEN
  6

  7

 40
1.0
 41
2.2299999999999991
 42
0.5
 43
7.0
 44
1.0
 45
0.0
 46
0.0
 47
0.0
 48
0.0
140
2.7999999999999989
141
0.0
142
0.0
143
25.399999999999999
144
1.0
145
0.0
146
1.0
147
1.0
 71
     0
 72
     0
 73
     0
 74
     0
 75
     0
 76
     0
 77
     3
 78
     9
170
     0
171
     2
172
     1
173
     0
174
     0
175
     0
176
   256
177
   256
178
    40
  0
DIMSTYLE
  2
TECHNICAL_OSAKA
 70
     0
  3

  4
"
  5
OPEN30
  6

  7

 40
1.0
 41
2.5
 42
1.0
 43
10.0
 44
1.0
 45
0.0
 46
0.0
 47
0.1
 48
0.1
140
2.7999999999999989
141
0.0
142
0.0
143
0.0393701
144
1.0
145
0.0
146
0.71
147
1.5
 71
     0
 72
     0
 73
     0
 74
     0
 75
     0
 76
     0
 77
     3
 78
     8
170
     0
171
     2
172
     1
173
     0
174
     0
175
     0
176
   256
177
   256
178
    40
  0
DIMSTYLE
  2
TECHNICAL_OSAKA$3
 70
     0
  3

  4
"
  5
OPEN30
  6

  7

 40
1.0
 41
2.5
 42
1.0
 43
10.0
 44
1.0
 45
0.0
 46
0.0
 47
0.1
 48
0.1
140
2.7999999999999989
141
0.0
142
0.0
143
0.0393701
144
1.0
145
0.0
146
0.71
147
1.5
 71
     0
 72
     0
 73
     0
 74
     1
 75
     0
 76
     0
 77
     3
 78
     8
170
     0
171
     2
172
     0
173
     0
174
     0
175
     0
176
   256
177
   256
178
    40
  0
DIMSTYLE
  2
TECHNICAL_OSAKA$4
 70
     0
  3

  4
"
  5
OPEN30
  6

  7

 40
1.0
 41
2.5
 42
1.0
 43
10.0
 44
1.0
 45
0.0
 46
0.0
 47
0.1
 48
0.1
140
2.7999999999999989
141
0.0
142
0.0
143
0.0393701
144
1.0
145
0.0
146
0.71
147
1.5
 71
     0
 72
     0
 73
     0
 74
     1
 75
     0
 76
     0
 77
     3
 78
     8
170
     0
171
     2
172
     0
173
     0
174
     0
175
     0
176
   256
177
   256
178
    40
  0
DIMSTYLE
  2
TECHNICAL_OSAKA$6
 70
     0
  3

  4
"
  5
OPEN30
  6

  7

 40
1.0
 41
2.5
 42
1.0
 43
10.0
 44
1.0
 45
0.0
 46
0.0
 47
0.1
 48
0.1
140
2.7999999999999989
141
0.0
142
0.0
143
0.0393701
144
1.0
145
0.0
146
0.71
147
1.5
 71
     0
 72
     0
 73
     0
 74
     0
 75
     0
 76
     0
 77
     0
 78
     8
170
     0
171
     2
172
     1
173
     0
174
     0
175
     0
176
   256
177
   256
178
    40
  0
DIMSTYLE
  2
TECHNICAL_OSAKA$7
 70
     0
  3

  4
"
  5
OPEN30
  6

  7

 40
1.0
 41
2.5
 42
1.0
 43
10.0
 44
1.0
 45
0.0
 46
0.0
 47
0.1
 48
0.1
140
2.7999999999999989
141
0.0
142
0.0
143
0.0393701
144
1.0
145
0.0
146
0.71
147
1.5
 71
     0
 72
     0
 73
     0
 74
     0
 75
     0
 76
     0
 77
     3
 78
     8
170
     0
171
     2
172
     1
173
     0
174
     0
175
     0
176
   256
177
   256
178
    40
  0
DIMSTYLE
  2
TECHNICAL_OSAKA$SF
 70
     0
  3

  4
"
  5
OPEN30
  6
OPEN30
  7
OPEN30
 40
1.0
 41
2.5
 42
1.0
 43
10.0
 44
1.0
 45
0.0
 46
0.0
 47
0.1
 48
0.1
140
3.5
141
0.0
142
0.0
143
0.0393701
144
1.0
145
0.0
146
0.71
147
1.5
 71
     0
 72
     0
 73
     0
 74
     0
 75
     1
 76
     1
 77
     3
 78
     8
170
     0
171
     2
172
     1
173
     0
174
     0
175
     0
176
   256
177
   256
178
    40
  0
DIMSTYLE
  2
TECHNICAL_OSAKA$SH
 70
     0
  3

  4
"
  5
OPEN30
  6
GENAXEH
  7
OPEN30
 40
1.0
 41
2.5
 42
1.0
 43
10.0
 44
1.0
 45
0.0
 46
0.0
 47
0.1
 48
0.1
140
3.5
141
0.0
142
0.0
143
0.0393701
144
2.0
145
0.0
146
0.71
147
1.5
 71
     0
 72
     0
 73
     0
 74
     0
 75
     1
 76
     1
 77
     3
 78
     8
170
     0
171
     2
172
     1
173
     1
174
     0
175
     0
176
   256
177
   256
178
    40
  0
ENDTAB
  0
ENDSEC
  0
SECTION
  2
BLOCKS
  0
BLOCK
  8
0
  2
$MODEL_SPACE
 70
     0
 10
0.0
 20
0.0
 30
0.0
  3
$MODEL_SPACE
  1

  0
ENDBLK
  5
1C
  8
0
  0
BLOCK
 67
     1
  8
0
  2
$PAPER_SPACE
 70
     0
 10
0.0
 20
0.0
 30
0.0
  3
$PAPER_SPACE
  1

  0
ENDBLK
  5
19
 67
     1
  8
0
  0
BLOCK
  8
0
  2
_OPEN
 70
     0
 10
0.0
 20
0.0
 30
0.0
  3
_OPEN
  1

  0
LINE
  5
4860
  8
0
  6
BYBLOCK
 62
     0
 10
-1.0
 20
0.1666666666666666
 30
0.0
 11
0.0
 21
0.0
 31
0.0
  0
LINE
  5
4861
  8
0
  6
BYBLOCK
 62
     0
 10
-1.0
 20
-0.1666666666666666
 30
0.0
 11
0.0
 21
0.0
 31
0.0
  0
LINE
  5
4862
  8
0
  6
BYBLOCK
 62
     0
 10
0.0
 20
0.0
 30
0.0
 11
-1.0
 21
0.0
 31
0.0
  0
ENDBLK
  5
4863
  8
0
  0
BLOCK
  8
0
  2
GENAXEH
 70
     0
 10
0.0
 20
0.0
 30
0.0
  3
GENAXEH
  1

  0
LINE
  5
489B
  8
0
 10
-1.0
 20
0.0
 30
0.0
 11
1.0
 21
0.0
 31
0.0
  0
ENDBLK
  5
489C
  8
0
  0
BLOCK
  8
0
  2
_OPEN30
 70
     0
 10
0.0
 20
0.0
 30
0.0
  3
_OPEN30
  1

  0
LINE
  5
48D7
  8
0
  6
BYBLOCK
 62
     0
 10
-1.0
 20
0.26794919
 30
0.0
 11
0.0
 21
0.0
 31
0.0
  0
LINE
  5
48D8
  8
0
  6
BYBLOCK
 62
     0
 10
0.0
 20
0.0
 30
0.0
 11
-1.0
 21
-0.26794919
 31
0.0
  0
LINE
  5
48D9
  8
0
  6
BYBLOCK
 62
     0
 10
0.0
 20
0.0
 30
0.0
 11
-1.0
 21
0.0
 31
0.0
  0
ENDBLK
  5
48DA
  8
0
  0
ENDSEC
  0
SECTION
  2
ENTITIES
  0
LINE
  5
433F
  8
245
 10
-67.450703158701145
 20
-0.0000000000000664
 30
0.0
 11
98.591595874146364
 21
0.0000000000001137
 31
0.0
  0
LINE
  5
4340
  8
250
 10
90.000000000000028
 20
-6.4999999999998996
 30
0.0
 11
104.76570473362661
 21
-6.4999999999998996
 31
0.0
  0
LINE
  5
4341
  8
250
 10
90.000000000000028
 20
6.5000000000000986
 30
0.0
 11
104.7338032855907
 21
6.5000000000000986
 31
0.0
  0
LINE
  5
4342
  8
241
 10
27.5
 20
28.499999999999861
 30
0.0
 11
27.5
 21
20.500000000000171
 31
0.0
  0
LINE
  5
4343
  8
241
 10
27.5
 20
-28.499999999999861
 30
0.0
 11
27.49999999999989
 21
0.0
 31
0.0
  0
LINE
  5
4344
  8
240
 10
27.0
 20
28.99999999999989
 30
0.0
 11
27.5
 21
28.49999999999989
 31
0.0
1001
GENIUS_GENFIL_13
1070
     0
1040
0.5
1040
0.5
1040
0.2500000000000284
1040
45.00000000000162
1002
{
1002
}
1001
GENIUS_GENOBJ-N-CHA_13
1002
{
1000
OWNER
1000
GEN
1002
}
1001
GENIUS_GENODEF_13
1002
{
1000
HIER
1070
     0
1002
}
1002
{
1000
MANEDIT
1070
     0
1002
}
1002
{
1000
NOSEL
1070
     0
1002
}
1002
{
1000
BEHIND
1070
     0
1002
}
1002
{
1000
OTHER
1070
     0
1002
}
1002
{
1000
REACTOR
1002
}
  0
LINE
  5
4345
  8
240
 10
27.0
 20
-28.99999999999989
 30
0.0
 11
27.5
 21
-28.49999999999989
 31
0.0
1001
GENIUS_GENFIL_13
1070
     0
1040
0.5
1040
0.5
1040
0.2500000000000284
1040
45.00000000000162
1002
{
1002
}
1001
GENIUS_GENOBJ-N-CHA_13
1002
{
1000
OWNER
1000
GEN
1002
}
1001
GENIUS_GENODEF_13
1002
{
1000
HIER
1070
     0
1002
}
1002
{
1000
MANEDIT
1070
     0
1002
}
1002
{
1000
NOSEL
1070
     0
1002
}
1002
{
1000
BEHIND
1070
     0
1002
}
1002
{
1000
OTHER
1070
     0
1002
}
1002
{
1000
REACTOR
1002
}
  0
LINE
  5
4346
  8
240
 10
26.99999999999994
 20
-30.499999999999972
 30
0.0
 11
26.99999999999994
 21
-28.99999999999995
 31
0.0
  0
LINE
  5
4347
  8
240
 10
-65.399999999999977
 20
10.9580111940609
 30
0.0
 11
-65.399999999999977
 21
-10.958011194060839
 31
0.0
  0
ARC
  5
4348
  8
240
 10
25.99999999999994
 20
-30.499999999999972
 30
0.0
 40
1.0
 50
270.0
 51
0.0
  0
LINE
  5
4349
  8
240
 10
26.99999999999994
 20
30.500000000000028
 30
0.0
 11
26.999999999999918
 21
28.999999999999861
 31
0.0
  0
LINE
  5
434A
  8
241
 10
26.999999999999918
 20
28.999999999999972
 30
0.0
 11
26.999999999999972
 21
-28.999999999999911
 31
0.0
  0
ARC
  5
434B
  8
240
 10
25.99999999999994
 20
30.500000000000028
 30
0.0
 40
1.0
 50
0.0
 51
90.0
  0
LINE
  5
434C
  8
240
 10
-0.0000000000000568
 20
22.225000000000051
 30
0.0
 11
-63.688613786143442
 21
12.937077156187449
 31
0.0
  0
LINE
  5
434E
  8
240
 10
-0.0000000000000568
 20
-22.225000000000001
 30
0.0
 11
-63.688613786143442
 21
-12.93707715618743
 31
0.0
  0
LINE
  5
4353
  8
240
 10
0.9999999999999431
 20
31.000000000000082
 30
0.0
 11
0.9999999999999431
 21
22.225000000000001
 31
0.0
  0
LINE
  5
4354
  8
240
 10
0.9999999999999431
 20
-31.0
 30
0.0
 11
0.9999999999999431
 21
-22.225000000000019
 31
0.0
  0
ARC
  5
4356
  8
240
 10
1.4999999999999429
 20
31.000000000000082
 30
0.0
 40
0.5
 50
90.0
 51
180.0
  0
ARC
  5
4357
  8
240
 10
1.4999999999999429
 20
-31.0
 30
0.0
 40
0.5
 50
180.0
 51
270.0
  0
LINE
  5
4358
  8
241
 10
0.0000000000000568
 20
-22.225000000000019
 30
0.0
 11
-0.0000000000000568
 21
22.225000000000051
 31
0.0
  0
LINE
  5
4359
  8
241
 10
0.9999999999999431
 20
22.225000000000001
 30
0.0
 11
0.9999999999999431
 21
-22.225000000000019
 31
0.0
  0
LINE
  5
4372
  8
243
 10
22.99999999999994
 20
-22.499999999999972
 30
0.0
 11
0.9999999999999431
 21
-22.49999999999994
 31
0.0
  0
LINE
  5
4373
  8
243
 10
22.99999999999994
 20
-22.499999999999972
 30
0.0
 11
22.99999999999994
 21
-31.499999999999972
 31
0.0
  0
LINE
  5
4374
  8
243
 10
22.99999999999994
 20
22.500000000000028
 30
0.0
 11
22.99999999999994
 21
31.500000000000028
 31
0.0
  0
LINE
  5
4375
  8
243
 10
22.99999999999994
 20
22.500000000000028
 30
0.0
 11
0.9999999999999431
 21
22.49999999999989
 31
0.0
  0
ARC
  5
437B
  8
240
 10
-63.399999999999977
 20
10.9580111940609
 30
0.0
 40
2.0
 50
98.297144969836936
 51
180.0
  0
ARC
  5
437C
  8
240
 10
-63.399999999999977
 20
-10.95801119406087
 30
0.0
 40
2.0
 50
180.0
 51
261.70285503016311
  0
LINE
  5
4381
  8
240
 10
1.4999999999998861
 20
31.500000000000089
 30
0.0
 11
11.265505652666491
 21
31.499999999999631
 31
0.0
  0
LINE
  5
4382
  8
240
 10
21.93449434733208
 20
31.500000000000089
 30
0.0
 11
25.99999999999989
 21
31.500000000000028
 31
0.0
  0
LINE
  5
4383
  8
240
 10
11.26550565266586
 20
31.499999999999972
 30
0.0
 11
11.715505652665851
 21
31.240192378864631
 31
0.0
  0
LINE
  5
4384
  8
240
 10
11.715505652665851
 20
31.240192378864631
 30
0.0
 11
14.365654458235319
 21
26.650000000000581
 31
0.0
  0
ARC
  5
4385
  8
240
 10
18.574537920627961
 20
26.79999999999913
 30
0.0
 40
0.3
 50
269.99999999998039
 51
330.00000000000028
  0
ARC
  5
4386
  8
240
 10
14.62546207937066
 20
26.800000000000551
 30
0.0
 40
0.3
 50
209.99999999999611
 51
269.99999999998039
  0
LINE
  5
4387
  8
240
 10
18.57453792062784
 20
26.499999999999119
 30
0.0
 11
14.62546207937055
 21
26.50000000000054
 31
0.0
  0
LINE
  5
4388
  8
240
 10
21.48449434733249
 20
31.240192378864979
 30
0.0
 11
18.834345541763302
 21
26.64999999999916
 31
0.0
  0
LINE
  5
4389
  8
240
 10
21.48449434733249
 20
31.240192378864979
 30
0.0
 11
21.934494347332471
 21
31.500000000000309
 31
0.0
  0
LINE
  5
438A
  8
240
 10
1.4999999999998861
 20
-31.50000000000006
 30
0.0
 11
11.265505652667059
 21
-31.50000000000006
 31
0.0
  0
LINE
  5
438B
  8
240
 10
21.934494347331171
 20
-31.5
 30
0.0
 11
25.99999999999989
 21
-31.5
 31
0.0
  0
LINE
  5
438C
  8
240
 10
21.48449434733271
 20
-31.240192378865519
 30
0.0
 11
21.934494347332699
 21
-31.50000000000086
 31
0.0
  0
ARC
  5
438D
  8
240
 10
18.574537920628192
 20
-26.799999999999731
 30
0.0
 40
0.3
 50
29.99999999999973
 51
90.000000000019526
  0
ARC
  5
438E
  8
240
 10
14.625462079370889
 20
-26.800000000001148
 30
0.0
 40
0.3
 50
90.000000000019526
 51
150.00000000000389
  0
LINE
  5
438F
  8
240
 10
18.574537920628071
 20
-26.499999999999719
 30
0.0
 11
14.625462079370781
 21
-26.50000000000114
 31
0.0
  0
LINE
  5
4390
  8
240
 10
11.265505652666089
 20
-31.500000000000568
 30
0.0
 11
11.71550565266608
 21
-31.240192378865231
 31
0.0
  0
LINE
  5
4391
  8
240
 10
11.71550565266608
 20
-31.240192378865231
 30
0.0
 11
14.36565445823555
 21
-26.650000000001171
 31
0.0
  0
LINE
  5
4392
  8
240
 10
21.48449434733271
 20
-31.240192378865519
 30
0.0
 11
18.834345541763518
 21
-26.649999999999689
 31
0.0
  0
LINE
  5
4393
  8
241
 10
21.634494347332069
 20
31.326794919244321
 30
0.0
 11
21.63449434733355
 21
-31.326794919244609
 31
0.0
  0
LINE
  5
4394
  8
241
 10
18.747743001383579
 20
26.555051025720822
 30
0.0
 11
18.74774300138483
 21
-26.555051025721241
 31
0.0
  0
LINE
  5
4395
  8
241
 10
11.56550565266474
 20
31.326794919240939
 30
0.0
 11
11.56550565266622
 21
-31.32679491924171
 31
0.0
  0
LINE
  5
4396
  8
241
 10
14.45225699861248
 20
26.55505102572241
 30
0.0
 11
14.452256998613731
 21
-26.55505102572306
 31
0.0
  0
LINE
  5
439B
  8
240
 10
74.0
 20
-14.49999999999986
 30
0.0
 11
74.5
 21
-14.999999999999851
 31
0.0
  0
LINE
  5
439C
  8
240
 10
74.0
 20
14.50000000000011
 30
0.0
 11
74.5
 21
15.00000000000011
 31
0.0
  0
ARC
  5
439D
  8
240
 10
70.5
 20
-13.99999999999989
 30
0.0
 40
1.0
 50
90.0
 51
180.0
  0
LINE
  5
439E
  8
240
 10
70.5
 20
-12.999999999999879
 30
0.0
 11
74.0
 21
-12.999999999999879
 31
0.0
  0
ARC
  5
439F
  8
240
 10
70.5
 20
14.00000000000014
 30
0.0
 40
1.0
 50
180.0
 51
270.0
  0
LINE
  5
43A0
  8
240
 10
70.5
 20
13.00000000000014
 30
0.0
 11
74.0
 21
13.00000000000014
 31
0.0
  0
LINE
  5
43A1
  8
240
 10
74.499999999999886
 20
16.700000000000131
 30
0.0
 11
74.499999999999886
 21
15.00000000000008
 31
0.0
  0
ARC
  5
43A2
  8
240
 10
75.299999999999955
 20
16.700000000000131
 30
0.0
 40
0.799999999999983
 50
90.0
 51
180.0
  0
LINE
  5
43A3
  8
240
 10
74.499999999999886
 20
-16.69999999999985
 30
0.0
 11
74.499999999999886
 21
-14.999999999999829
 31
0.0
  0
ARC
  5
43A4
  8
240
 10
75.299999999999955
 20
-16.69999999999985
 30
0.0
 40
0.8000000000000113
 50
180.0
 51
270.0
  0
LINE
  5
43A5
  8
240
 10
75.299999999999955
 20
17.50000000000011
 30
0.0
 11
88.418629150101424
 21
17.50000000000011
 31
0.0
  0
ARC
  5
43A6
  8
240
 10
88.418629150101424
 20
16.700000000000131
 30
0.0
 40
0.7999999999999984
 50
45.0
 51
90.0
  0
LINE
  5
43A7
  8
240
 10
75.299999999999955
 20
-17.499999999999851
 30
0.0
 11
88.418629150101424
 21
-17.499999999999911
 31
0.0
  0
ARC
  5
43A8
  8
240
 10
88.418629150101424
 20
-16.6999999999999
 30
0.0
 40
0.7999999999999972
 50
270.0
 51
314.99999999999881
  0
LINE
  5
43A9
  8
240
 10
89.794974746830576
 20
16.455025253169541
 30
0.0
 11
88.984314575050675
 21
17.265685424949371
 31
0.0
  0
ARC
  5
43AA
  8
240
 10
89.299999999999955
 20
15.96005050633894
 30
0.0
 40
0.7000000000000171
 50
0.0
 51
45.000000000001151
  0
LINE
  5
43AB
  8
240
 10
90.0
 20
15.96005050633894
 30
0.0
 11
90.0
 21
-15.960050506338719
 31
0.0
  0
LINE
  5
43AC
  8
240
 10
88.984314575050675
 20
-17.26568542494914
 30
0.0
 11
89.794974746830576
 21
-16.45502525316931
 31
0.0
  0
ARC
  5
43AD
  8
240
 10
89.299999999999955
 20
-15.960050506338719
 30
0.0
 40
0.7000000000000137
 50
315.0
 51
0.0
  0
LINE
  5
43AE
  8
240
 10
74.0
 20
-14.49999999999986
 30
0.0
 11
74.0
 21
-12.999999999999879
 31
0.0
  0
LINE
  5
43AF
  8
240
 10
74.0
 20
14.50000000000011
 30
0.0
 11
74.0
 21
13.00000000000014
 31
0.0
  0
LINE
  5
43B0
  8
241
 10
74.499999999999886
 20
-14.999999999999829
 30
0.0
 11
74.499999999999886
 21
15.00000000000008
 31
0.0
  0
LINE
  5
43B1
  8
241
 10
71.5
 20
-12.499999999999879
 30
0.0
 11
71.5
 21
12.50000000000014
 31
0.0
  0
LINE
  5
43B2
  8
241
 10
75.299999999999955
 20
17.50000000000011
 30
0.0
 11
75.299999999999955
 21
16.056144924913688
 31
0.0
  0
LINE
  5
43B3
  8
241
 10
75.299999999999955
 20
14.05614492491372
 30
0.0
 11
75.299999999999955
 21
2.0000000000001128
 31
0.0
  0
LINE
  5
43B4
  8
241
 10
75.299999999999955
 20
-1.999999999999857
 30
0.0
 11
75.299999999999955
 21
-14.05614492491344
 31
0.0
  0
LINE
  5
43B5
  8
241
 10
75.299999999999955
 20
-16.05614492491344
 30
0.0
 11
75.299999999999955
 21
-17.499999999999851
 31
0.0
  0
LINE
  5
43B6
  8
241
 10
88.418629150101424
 20
17.00094607379387
 30
0.0
 11
88.418629150101424
 21
-17.15231788079458
 31
0.0
  0
LINE
  5
43B7
  8
241
 10
69.5
 20
-13.99999999999989
 30
0.0
 11
69.5
 21
14.00000000000014
 31
0.0
  0
LINE
  5
43B8
  8
241
 10
74.0
 20
-12.999999999999879
 30
0.0
 11
74.0
 21
13.00000000000014
 31
0.0
  0
LINE
  5
43B9
  8
241
 10
83.499999999999986
 20
2.0000000000001128
 30
0.0
 11
74.499999999999886
 21
2.0000000000001128
 31
0.0
  0
LINE
  5
43BA
  8
241
 10
83.499999999999986
 20
-1.999999999999857
 30
0.0
 11
74.499999999999886
 21
-1.999999999999857
 31
0.0
  0
LINE
  5
43BB
  8
241
 10
83.499999999999986
 20
-1.999999999999857
 30
0.0
 11
83.499999999999986
 21
2.0000000000001128
 31
0.0
  0
LINE
  5
43BC
  8
241
 10
83.499999999999986
 20
-14.05614492491344
 30
0.0
 11
74.499999999999886
 21
-14.05614492491344
 31
0.0
  0
LINE
  5
43BD
  8
241
 10
83.499999999999986
 20
-16.05614492491344
 30
0.0
 11
74.499999999999886
 21
-16.05614492491344
 31
0.0
  0
LINE
  5
43BE
  8
241
 10
83.499999999999986
 20
-16.05614492491344
 30
0.0
 11
83.499999999999986
 21
-14.05614492491344
 31
0.0
  0
LINE
  5
43BF
  8
241
 10
83.499999999999986
 20
16.056144924913688
 30
0.0
 11
74.499999999999886
 21
16.056144924913688
 31
0.0
  0
LINE
  5
43C0
  8
241
 10
83.499999999999986
 20
14.05614492491372
 30
0.0
 11
74.499999999999886
 21
14.05614492491372
 31
0.0
  0
LINE
  5
43C1
  8
241
 10
83.499999999999986
 20
16.056144924913688
 30
0.0
 11
83.499999999999986
 21
14.05614492491372
 31
0.0
  0
LINE
  5
43C2
  8
242
 10
71.5
 20
12.50000000000014
 30
0.0
 11
71.0
 21
13.00000000000014
 31
0.0
  0
LINE
  5
43C3
  8
242
 10
71.5
 20
-12.499999999999879
 30
0.0
 11
71.0
 21
-12.999999999999879
 31
0.0
  0
LINE
  5
43C4
  8
242
 10
74.0
 20
12.50000000000014
 30
0.0
 11
71.5
 21
12.50000000000014
 31
0.0
  0
LINE
  5
43C5
  8
242
 10
74.0
 20
-12.49999999999986
 30
0.0
 11
71.5
 21
-12.49999999999986
 31
0.0
  0
LINE
  5
43C6
  8
246
 10
86.799999999999955
 20
10.25000000000014
 30
0.0
 11
87.0
 21
10.25000000000014
 31
0.0
  0
LINE
  5
43C7
  8
246
 10
87.0
 20
10.25000000000014
 30
0.0
 11
90.0
 21
8.5179491924312742
 31
0.0
  0
LINE
  5
43C8
  8
246
 10
84.399999999999963
 20
8.7500000000001421
 30
0.0
 11
86.799999999999955
 21
8.7500000000001421
 31
0.0
  0
LINE
  5
43C9
  8
246
 10
86.799999999999955
 20
8.7500000000001421
 30
0.0
 11
86.799999999999955
 21
10.25000000000014
 31
0.0
  0
LINE
  5
43CA
  8
246
 10
84.399999999999963
 20
10.25000000000014
 30
0.0
 11
84.399999999999963
 21
8.7500000000001421
 31
0.0
  0
LINE
  5
43CB
  8
246
 10
84.399999999999963
 20
10.25000000000014
 30
0.0
 11
58.99999999999995
 21
7.5803524242519691
 31
0.0
  0
LINE
  5
43CC
  8
246
 10
58.99999999999995
 20
6.5000000000001421
 30
0.0
 11
90.0
 21
6.5000000000001421
 31
0.0
  0
LINE
  5
43CD
  8
246
 10
86.799999999999955
 20
-10.249999999999879
 30
0.0
 11
87.0
 21
-10.249999999999879
 31
0.0
  0
LINE
  5
43CE
  8
246
 10
84.399999999999963
 20
-10.249999999999879
 30
0.0
 11
58.99999999999995
 21
-7.5803524242516849
 31
0.0
  0
LINE
  5
43CF
  8
246
 10
84.399999999999963
 20
-10.249999999999879
 30
0.0
 11
84.399999999999963
 21
-8.7499999999998863
 31
0.0
  0
LINE
  5
43D0
  8
246
 10
84.399999999999963
 20
-8.7499999999998863
 30
0.0
 11
86.799999999999955
 21
-8.7499999999998863
 31
0.0
  0
LINE
  5
43D1
  8
246
 10
86.799999999999955
 20
-8.7499999999998863
 30
0.0
 11
86.799999999999955
 21
-10.249999999999879
 31
0.0
  0
LINE
  5
43D2
  8
246
 10
87.0
 20
-10.249999999999879
 30
0.0
 11
90.0
 21
-8.51794919243099
 31
0.0
  0
LINE
  5
43D3
  8
246
 10
58.99999999999995
 20
-6.4999999999998863
 30
0.0
 11
90.0
 21
-6.4999999999998863
 31
0.0
  0
LINE
  5
43D4
  8
243
 10
74.0
 20
-12.999999999999879
 30
0.0
 11
81.5
 21
-12.99999999999986
 31
0.0
  0
LINE
  5
43D5
  8
243
 10
82.0
 20
-12.49999999999986
 30
0.0
 11
81.5
 21
-12.99999999999986
 31
0.0
  0
LINE
  5
43D6
  8
243
 10
74.0
 20
13.00000000000014
 30
0.0
 11
81.5
 21
13.00000000000014
 31
0.0
  0
LINE
  5
43D7
  8
243
 10
82.0
 20
12.50000000000014
 30
0.0
 11
81.5
 21
13.00000000000014
 31
0.0
  0
LINE
  5
43DC
  8
246
 10
37.606366361392702
 20
6.0000000000001421
 30
0.0
 11
33.915767438151192
 21
2.309401076758661
 31
0.0
  0
LINE
  5
43DD
  8
246
 10
37.606366361392702
 20
-5.9999999999998863
 30
0.0
 11
33.915767438151192
 21
-2.3094010767584048
 31
0.0
  0
LINE
  5
43DE
  8
246
 10
30.00508383562817
 20
-2.3094010767584048
 30
0.0
 11
33.915767438151192
 21
-2.3094010767584048
 31
0.0
  0
LINE
  5
43DF
  8
246
 10
30.00508383562817
 20
-1.1547005383791591
 30
0.0
 11
33.915767438151192
 21
-1.1547005383791591
 31
0.0
  0
LINE
  5
43E0
  8
246
 10
30.00508383562817
 20
1.1547005383794151
 30
0.0
 11
33.915767438151192
 21
1.1547005383794151
 31
0.0
  0
LINE
  5
43E1
  8
246
 10
29.606366361392698
 20
3.0000000000001421
 30
0.0
 11
29.606366361392698
 21
1.7725150303660371
 31
0.0
  0
LINE
  5
43E2
  8
246
 10
30.00508383562817
 20
2.309401076758661
 30
0.0
 11
29.606366361392649
 21
3.0000000000001421
 31
0.0
  0
LINE
  5
43E3
  8
246
 10
30.00508383562817
 20
-2.3094010767584048
 30
0.0
 11
29.606366361392649
 21
-2.9999999999998859
 31
0.0
  0
LINE
  5
43E4
  8
246
 10
29.606366361392698
 20
-2.9999999999998859
 30
0.0
 11
29.606366361392698
 21
-1.7725150303657811
 31
0.0
  0
LINE
  5
43E5
  8
246
 10
18.606366361392698
 20
-6.2499999999998863
 30
0.0
 11
22.606366361392698
 21
-6.2499999999998863
 31
0.0
  0
LINE
  5
43E6
  8
246
 10
22.606366361392698
 20
-6.2499999999998863
 30
0.0
 11
23.356366361392698
 21
-6.9999999999998863
 31
0.0
  0
ARC
  5
43E7
  8
246
 10
18.606366361392698
 20
5.2500000000001421
 30
0.0
 40
1.0
 50
90.0
 51
180.0
  0
LINE
  5
43E8
  8
246
 10
18.606366361392698
 20
6.2500000000001421
 30
0.0
 11
22.606366361392698
 21
6.2500000000001421
 31
0.0
  0
LINE
  5
43E9
  8
246
 10
22.606366361392698
 20
6.2500000000001421
 30
0.0
 11
23.356366361392698
 21
7.0000000000001421
 31
0.0
  0
LINE
  5
43ED
  8
246
 10
30.00508383562817
 20
-2.3094010767584048
 30
0.0
 11
30.00508383562817
 21
2.309401076758661
 31
0.0
  0
LINE
  5
43EE
  8
246
 10
30.00508383562817
 20
2.309401076758661
 30
0.0
 11
33.915767438151192
 21
2.309401076758661
 31
0.0
  0
LINE
  5
43EF
  8
246
 10
33.915767438151192
 20
-2.3094010767584048
 30
0.0
 11
33.915767438151192
 21
2.309401076758661
 31
0.0
  0
LINE
  5
43F1
  8
246
 10
58.99999999999995
 20
7.5803524242519691
 30
0.0
 11
58.99999999999995
 21
-7.5803524242516849
 31
0.0
  0
LINE
  5
43F4
  8
246
 10
36.906366361392656
 20
-6.9999999999998863
 30
0.0
 11
37.606366361392652
 21
-6.2999999999998693
 31
0.0
  0
LINE
  5
43F5
  8
246
 10
37.606366361392652
 20
6.3000000000001526
 30
0.0
 11
37.606366361392652
 21
-6.2999999999998693
 31
0.0
  0
LINE
  5
43F6
  8
246
 10
37.606366361392652
 20
6.3000000000001526
 30
0.0
 11
36.906366361392656
 21
7.0000000000001421
 31
0.0
  0
LINE
  5
43F7
  8
246
 10
17.606366361392698
 20
-5.2499999999998863
 30
0.0
 11
17.606366361392698
 21
5.2500000000001421
 31
0.0
  0
ARC
  5
43F8
  8
246
 10
18.606366361392698
 20
-5.2499999999998863
 30
0.0
 40
1.0
 50
180.0
 51
270.0
  0
LINE
  5
43F9
  8
246
 10
29.606366361392698
 20
3.0000000000001421
 30
0.0
 11
17.606366361392698
 21
3.0000000000001421
 31
0.0
  0
LINE
  5
43FA
  8
246
 10
29.606366361392698
 20
-2.9999999999998859
 30
0.0
 11
17.606366361392698
 21
-2.9999999999998859
 31
0.0
  0
LINE
  5
43FB
  8
246
 10
23.356366361392698
 20
7.0000000000001421
 30
0.0
 11
36.906366361392656
 21
7.0000000000001421
 31
0.0
  0
LINE
  5
43FD
  8
246
 10
23.356366361392698
 20
-6.9999999999998863
 30
0.0
 11
36.906366361392656
 21
-6.9999999999998863
 31
0.0
  0
LINE
  5
43FF
  8
243
 10
82.0
 20
-12.49999999999986
 30
0.0
 11
82.0
 21
-9.9977498353622707
 31
0.0
  0
LINE
  5
4400
  8
243
 10
82.0
 20
12.50000000000014
 30
0.0
 11
82.0
 21
9.9977498353625265
 31
0.0
  0
LINE
  5
4401
  8
244
 10
74.0
 20
12.50000000000014
 30
0.0
 11
82.0
 21
12.50000000000014
 31
0.0
  0
LINE
  5
4402
  8
244
 10
74.0
 20
-12.49999999999986
 30
0.0
 11
82.0
 21
-12.49999999999986
 31
0.0
  0
LINE
  5
4407
  8
246
 10
23.006366361392679
 20
6.6500000000001469
 30
0.0
 11
37.256366361392679
 21
6.6500000000001469
 31
0.0
  0
LINE
  5
4409
  8
246
 10
23.006366361392679
 20
-6.6499999999998911
 30
0.0
 11
37.256366361392679
 21
-6.6499999999998911
 31
0.0
  0
LINE
  5
440B
  8
240
 10
69.500000000000057
 20
14.250000000000391
 30
0.0
 11
69.500000000000057
 21
14.0000000000004
 31
0.0
  0
ARC
  5
440C
  8
240
 10
68.500000000000057
 20
14.250000000000391
 30
0.0
 40
1.0
 50
0.0
 51
90.0
1001
GENIUS_GENODEF_13
1002
{
1000
HIER
1070
     0
1002
}
1002
{
1000
MANEDIT
1070
     0
1002
}
1002
{
1000
NOSEL
1070
     0
1002
}
1002
{
1000
BEHIND
1070
     0
1002
}
1002
{
1000
OTHER
1070
     0
1002
}
1002
{
1000
REACTOR
1002
}
1001
GENIUS_GENOBJ-N-FIL_13
1002
{
1000
OWNER
1000
GEN
1002
}
  0
LINE
  5
440D
  8
240
 10
69.500000000000057
 20
-14.2499999999996
 30
0.0
 11
69.500000000000057
 21
-13.999999999999631
 31
0.0
  0
ARC
  5
440E
  8
240
 10
68.500000000000057
 20
-14.2499999999996
 30
0.0
 40
1.0
 50
270.0
 51
0.0
1001
GENIUS_GENODEF_13
1002
{
1000
HIER
1070
     0
1002
}
1002
{
1000
MANEDIT
1070
     0
1002
}
1002
{
1000
NOSEL
1070
     0
1002
}
1002
{
1000
BEHIND
1070
     0
1002
}
1002
{
1000
OTHER
1070
     0
1002
}
1002
{
1000
REACTOR
1002
}
1001
GENIUS_GENOBJ-N-FIL_13
1002
{
1000
OWNER
1000
GEN
1002
}
  0
LINE
  5
440F
  8
241
 10
68.500000000000057
 20
15.2500000000004
 30
0.0
 11
68.500000000000057
 21
11.79823369687619
 31
0.0
  0
LINE
  5
4410
  8
241
 10
68.500000000000057
 20
-12.0234124862728
 30
0.0
 11
68.500000000000057
 21
-15.2499999999996
 31
0.0
  0
LINE
  5
448E
  8
241
 10
27.50000000000011
 20
-28.249999999999691
 30
0.0
 11
27.5
 21
0.0000000000002842
 31
0.0
  0
LINE
  5
448F
  8
241
 10
55.99999999999806
 20
-15.249999999999661
 30
0.0
 11
55.99999999999806
 21
15.25000000000025
 31
0.0
  0
LINE
  5
4490
  8
240
  6
CONTINUOUS
 10
55.499999999999659
 20
-15.49999999999971
 30
0.0
 11
55.749999999997947
 21
-15.49999999999968
 31
0.0
  0
LINE
  5
4491
  8
240
 10
55.99999999999806
 20
-15.249999999999661
 30
0.0
 11
55.749999999998067
 21
-15.499999999999661
 31
0.0
  0
LINE
  5
4492
  8
241
  6
CONTINUOUS
 10
38.499999999999723
 20
0.0000000000001705
 30
0.0
 11
38.499999999999432
 21
-28.499999999999801
 31
0.0
  0
ARC
  5
4493
  8
240
 10
37.999999999999432
 20
-28.499999999999801
 30
0.0
 40
0.5
 50
270.0
 51
0.0
1001
GENIUS_GENODEF_13
1002
{
1000
HIER
1070
     0
1002
}
1002
{
1000
MANEDIT
1070
     0
1002
}
1002
{
1000
NOSEL
1070
     0
1002
}
1002
{
1000
BEHIND
1070
     0
1002
}
1002
{
1000
OTHER
1070
     0
1002
}
1002
{
1000
REACTOR
1002
}
1001
GENIUS_GENOBJ-N-FIL_13
1002
{
1000
OWNER
1000
GEN
1002
}
  0
LINE
  5
4494
  8
240
 10
38.000000000000057
 20
29.000000000000171
 30
0.0
 11
38.500000000000057
 21
28.500000000000171
 31
0.0
1001
GENIUS_GENFIL_13
1070
     0
1040
0.5
1040
0.5
1040
0.2500000000000284
1040
45.00000000000162
1002
{
1002
}
1001
GENIUS_GENODEF_13
1002
{
1000
HIER
1070
     0
1002
}
1002
{
1000
MANEDIT
1070
     0
1002
}
1002
{
1000
NOSEL
1070
     0
1002
}
1002
{
1000
BEHIND
1070
     0
1002
}
1002
{
1000
OTHER
1070
     0
1002
}
1002
{
1000
REACTOR
1002
}
1001
GENIUS_GENOBJ-N-CHA_13
1002
{
1000
OWNER
1000
GEN
1002
}
  0
LINE
  5
4495
  8
240
 10
28.00000000000006
 20
29.000000000000171
 30
0.0
 11
37.500000000000057
 21
29.000000000000171
 31
0.0
  0
LINE
  5
4496
  8
240
 10
28.00000000000006
 20
29.000000000000171
 30
0.0
 11
38.000000000000057
 21
29.000000000000171
 31
0.0
  0
LINE
  5
4497
  8
240
 10
27.49999999999995
 20
28.50000000000006
 30
0.0
 11
28.00000000000006
 21
29.000000000000171
 31
0.0
1001
GENIUS_GENFIL_13
1070
     0
1040
0.5
1040
0.5
1040
0.2500000000000284
1040
45.00000000000162
1002
{
1002
}
1001
GENIUS_GENOBJ-N-CHA_13
1002
{
1000
OWNER
1000
GEN
1002
}
1001
GENIUS_GENODEF_13
1002
{
1000
HIER
1070
     0
1002
}
1002
{
1000
MANEDIT
1070
     0
1002
}
1002
{
1000
NOSEL
1070
     0
1002
}
1002
{
1000
BEHIND
1070
     0
1002
}
1002
{
1000
OTHER
1070
     0
1002
}
1002
{
1000
REACTOR
1002
}
  0
LINE
  5
4498
  8
241
  6
CONTINUOUS
 10
27.499999999999879
 20
28.5
 30
0.0
 11
27.50000000000011
 21
-28.499999999999829
 31
0.0
  0
LINE
  5
4499
  8
240
 10
28.00000000000006
 20
-28.999999999999801
 30
0.0
 11
37.500000000000057
 21
-28.999999999999801
 31
0.0
  0
LINE
  5
449A
  8
240
 10
28.00000000000006
 20
-28.999999999999801
 30
0.0
 11
37.999999999999432
 21
-28.999999999999801
 31
0.0
  0
LINE
  5
449B
  8
240
 10
27.49999999999995
 20
-28.499999999999691
 30
0.0
 11
28.00000000000006
 21
-28.999999999999801
 31
0.0
1001
GENIUS_GENFIL_13
1070
     0
1040
0.4999999999999858
1040
0.5000000000000285
1040
0.4999999999999858
1040
45.00000000000081
1002
{
1002
}
1001
GENIUS_GENOREF_13
1005
0
  0
LINE
  5
449C
  8
241
 10
38.499999999999659
 20
-4.4716781469929279
 30
0.0
 11
27.5
 21
-4.4716781469929279
 31
0.0
  0
LINE
  5
449D
  8
241
 10
27.50000000000006
 20
-10.453997634198849
 30
0.0
 11
38.499999999999602
 21
-10.453997634198849
 31
0.0
  0
LINE
  5
449E
  8
241
 10
38.499999999999552
 20
-18.19917137988665
 30
0.0
 11
27.50000000000006
 21
-18.19917137988665
 31
0.0
  0
LINE
  5
449F
  8
241
 10
27.50000000000006
 20
-22.578533191629312
 30
0.0
 11
38.499999999999432
 21
-22.578533191629312
 31
0.0
  0
LINE
  5
44A0
  8
241
 10
38.499999999999432
 20
-27.050211338623029
 30
0.0
 11
27.50000000000011
 21
-27.050211338623029
 31
0.0
  0
LINE
  5
44A1
  8
241
 10
30.899999999999981
 20
24.366025403784359
 30
0.0
 11
30.89999999999992
 21
22.633974596215499
 31
0.0
  0
LINE
  5
44A2
  8
241
 10
30.89999999999992
 20
22.633974596215499
 30
0.0
 11
32.399999999999977
 21
21.76794919243105
 31
0.0
  0
LINE
  5
44A3
  8
241
 10
32.399999999999977
 20
21.76794919243105
 30
0.0
 11
33.89999999999992
 21
22.633974596215499
 31
0.0
  0
LINE
  5
44A4
  8
241
 10
33.89999999999992
 20
22.633974596215499
 30
0.0
 11
33.899999999999977
 21
24.366025403784359
 31
0.0
  0
LINE
  5
44A5
  8
241
 10
33.899999999999977
 20
24.366025403784359
 30
0.0
 11
32.39999999999992
 21
25.232050807568839
 31
0.0
  0
LINE
  5
44A6
  8
241
 10
32.39999999999992
 20
25.232050807568839
 30
0.0
 11
30.899999999999981
 21
24.366025403784359
 31
0.0
  0
LINE
  5
44A7
  8
241
 10
38.999999999999659
 20
-2.4839386683082121
 30
0.0
 11
40.999999999999652
 21
-2.4839386683082121
 31
0.0
  0
LINE
  5
44A8
  8
241
 10
38.999999999999659
 20
-4.9489730635074798
 30
0.0
 11
41.999999999999659
 21
-4.9489730635074798
 31
0.0
  0
LINE
  5
44A9
  8
241
 10
38.999999999999659
 20
-7.376342785421854
 30
0.0
 11
40.999999999999652
 21
-7.376342785421854
 31
0.0
  0
LINE
  5
44AA
  8
241
 10
38.999999999999659
 20
-9.7475740847815473
 30
0.0
 11
41.999999999999659
 21
-9.7475740847815473
 31
0.0
  0
LINE
  5
44AB
  8
241
 10
38.999999999999659
 20
-11.99878704239071
 30
0.0
 11
40.999999999999652
 21
-11.99878704239071
 31
0.0
  0
LINE
  5
44AC
  8
241
 10
38.999999999999659
 20
-14.24999999999997
 30
0.0
 11
41.999999999999659
 21
-14.24999999999997
 31
0.0
  0
LINE
  5
44AD
  8
241
 10
38.999999999999659
 20
-16.284723438033119
 30
0.0
 11
40.999999999999652
 21
-16.284723438033119
 31
0.0
  0
LINE
  5
44AE
  8
241
 10
38.999999999999659
 20
-18.180290095255909
 30
0.0
 11
41.999999999999602
 21
-18.180290095255909
 31
0.0
  0
LINE
  5
44AF
  8
241
 10
38.999999999999602
 20
-19.923358065341031
 30
0.0
 11
40.999999999999602
 21
-19.923358065341031
 31
0.0
  0
LINE
  5
44B0
  8
241
 10
38.999999999999602
 20
-21.832266628890778
 30
0.0
 11
41.999999999999602
 21
-21.832266628890778
 31
0.0
  0
LINE
  5
44B1
  8
241
 10
38.999999999999552
 20
-23.345833262236201
 30
0.0
 11
40.999999999999602
 21
-23.345833262236201
 31
0.0
  0
LINE
  5
44B2
  8
241
 10
38.999999999999552
 20
-24.681724007856449
 30
0.0
 11
41.999999999999538
 21
-24.681724007856449
 31
0.0
  0
LINE
  5
44B3
  8
241
 10
38.999999999999552
 20
-25.829771930544471
 30
0.0
 11
40.999999999999538
 21
-25.829771930544471
 31
0.0
  0
LINE
  5
44B4
  8
241
 10
38.999999999999552
 20
-26.679328989891449
 30
0.0
 11
41.999999999999538
 21
-26.679328989891449
 31
0.0
  0
LINE
  5
44B5
  8
241
 10
38.999999999999552
 20
-27.319773231158958
 30
0.0
 11
40.999999999999538
 21
-27.319773231158958
 31
0.0
  0
LINE
  5
44B6
  8
241
 10
38.999999999999552
 20
-28.067020960847891
 30
0.0
 11
41.999999999999538
 21
-28.067020960847891
 31
0.0
  0
LINE
  5
44B7
  8
241
 10
38.999999999999659
 20
0.0000000000000568
 30
0.0
 11
41.999999999999659
 21
0.0000000000001705
 31
0.0
  0
LINE
  5
44B8
  8
241
  6
CONTINUOUS
 10
38.499999999999723
 20
28.500000000000458
 30
0.0
 11
38.499999999999552
 21
-28.249999999999378
 31
0.0
  0
LINE
  5
44B9
  8
240
 10
38.749999999999773
 20
28.50000000000006
 30
0.0
 11
38.499999999999773
 21
28.25000000000006
 31
0.0
1001
GENIUS_GENFIL_13
1070
     0
1040
0.25
1040
0.25
1040
0.2500000000000284
1040
45.00000000000162
1002
{
1002
}
1001
GENIUS_GENODEF_13
1002
{
1000
HIER
1070
     0
1002
}
1002
{
1000
MANEDIT
1070
     0
1002
}
1002
{
1000
NOSEL
1070
     0
1002
}
1002
{
1000
BEHIND
1070
     0
1002
}
1002
{
1000
OTHER
1070
     0
1002
}
1002
{
1000
REACTOR
1002
}
1001
GENIUS_GENOBJ-N-CHA_13
1002
{
1000
OWNER
1000
GEN
1002
}
  0
LINE
  5
44BA
  8
240
 10
55.499999999999659
 20
22.671572875254071
 30
0.0
 11
55.499999999999659
 21
15.50000000000008
 31
0.0
  0
LINE
  5
44BB
  8
241
 10
55.49999999999968
 20
15.50000000000008
 30
0.0
 11
55.499999999999659
 21
-15.499999999999741
 31
0.0
  0
ARC
  5
44BC
  8
240
 10
53.499999999999652
 20
22.671572875254071
 30
0.0
 40
2.0
 50
0.0
 51
45.000000000000057
1001
GENIUS_GENOBJ-N-FIL_13
1002
{
1000
OWNER
1000
GEN
1002
}
1001
GENIUS_GENODEF_13
1002
{
1000
HIER
1070
     0
1002
}
1002
{
1000
MANEDIT
1070
     0
1002
}
1002
{
1000
NOSEL
1070
     0
1002
}
1002
{
1000
BEHIND
1070
     0
1002
}
1002
{
1000
OTHER
1070
     0
1002
}
1002
{
1000
REACTOR
1002
}
  0
LINE
  5
44BD
  8
240
 10
51.085786437626552
 20
27.914213562373391
 30
0.0
 11
54.914213562372758
 21
24.085786437627181
 31
0.0
1001
GENIUS_GENFIL_13
1070
     0
1040
5.0
1040
5.0
1040
0.2500000000000284
1040
45.00000000000162
1002
{
1002
}
1001
GENIUS_GENOBJ-N-CHA_13
1002
{
1000
OWNER
1000
GEN
1002
}
1001
GENIUS_GENODEF_13
1002
{
1000
HIER
1070
     0
1002
}
1002
{
1000
MANEDIT
1070
     0
1002
}
1002
{
1000
NOSEL
1070
     0
1002
}
1002
{
1000
BEHIND
1070
     0
1002
}
1002
{
1000
OTHER
1070
     0
1002
}
1002
{
1000
REACTOR
1002
}
  0
ARC
  5
44BE
  8
240
 10
49.671572875253453
 20
26.500000000000291
 30
0.0
 40
2.0
 50
45.000000000000057
 51
90.000000000001606
1001
GENIUS_GENFIL_13
1070
     0
1040
5.0
1040
5.0
1040
0.2500000000000284
1040
45.00000000000162
1002
{
1002
}
1001
GENIUS_GENOBJ-N-CHA_13
1002
{
1000
OWNER
1000
GEN
1002
}
1001
GENIUS_GENODEF_13
1002
{
1000
HIER
1070
     0
1002
}
1002
{
1000
MANEDIT
1070
     0
1002
}
1002
{
1000
NOSEL
1070
     0
1002
}
1002
{
1000
BEHIND
1070
     0
1002
}
1002
{
1000
OTHER
1070
     0
1002
}
1002
{
1000
REACTOR
1002
}
1001
GENIUS_GENOBJ-N-FIL_13
1002
{
1000
OWNER
1000
GEN
1002
}
  0
LINE
  5
44BF
  8
240
 10
38.749999999999773
 20
28.50000000000006
 30
0.0
 11
49.671572875253453
 21
28.500000000000281
 31
0.0
  0
LINE
  5
44C0
  8
240
 10
38.749999999999773
 20
-28.499999999999631
 30
0.0
 11
38.499999999999773
 21
-28.249999999999631
 31
0.0
1001
GENIUS_GENFIL_13
1070
     0
1040
0.25
1040
0.25
1040
0.2500000000000284
1040
45.00000000000162
1002
{
1002
}
1001
GENIUS_GENODEF_13
1002
{
1000
HIER
1070
     0
1002
}
1002
{
1000
MANEDIT
1070
     0
1002
}
1002
{
1000
NOSEL
1070
     0
1002
}
1002
{
1000
BEHIND
1070
     0
1002
}
1002
{
1000
OTHER
1070
     0
1002
}
1002
{
1000
REACTOR
1002
}
1001
GENIUS_GENOBJ-N-CHA_13
1002
{
1000
OWNER
1000
GEN
1002
}
  0
LINE
  5
44C1
  8
240
 10
55.499999999999659
 20
-22.67157287525373
 30
0.0
 11
55.499999999999723
 21
-15.49999999999971
 31
0.0
  0
ARC
  5
44C2
  8
240
 10
53.499999999999652
 20
-22.67157287525373
 30
0.0
 40
2.0
 50
314.99999999999989
 51
0.0
1001
GENIUS_GENODEF_13
1002
{
1000
HIER
1070
     0
1002
}
1002
{
1000
MANEDIT
1070
     0
1002
}
1002
{
1000
NOSEL
1070
     0
1002
}
1002
{
1000
BEHIND
1070
     0
1002
}
1002
{
1000
OTHER
1070
     0
1002
}
1002
{
1000
REACTOR
1002
}
1001
GENIUS_GENOBJ-N-FIL_13
1002
{
1000
OWNER
1000
GEN
1002
}
  0
LINE
  5
44C3
  8
240
 10
51.085786437626552
 20
-27.914213562372911
 30
0.0
 11
54.914213562372758
 21
-24.08578643762684
 31
0.0
1001
GENIUS_GENFIL_13
1070
     0
1040
5.0
1040
5.0
1040
0.2500000000000284
1040
45.00000000000162
1002
{
1002
}
1001
GENIUS_GENOBJ-N-CHA_13
1002
{
1000
OWNER
1000
GEN
1002
}
1001
GENIUS_GENODEF_13
1002
{
1000
HIER
1070
     0
1002
}
1002
{
1000
MANEDIT
1070
     0
1002
}
1002
{
1000
NOSEL
1070
     0
1002
}
1002
{
1000
BEHIND
1070
     0
1002
}
1002
{
1000
OTHER
1070
     0
1002
}
1002
{
1000
REACTOR
1002
}
  0
ARC
  5
44C4
  8
240
 10
49.671572875253503
 20
-26.499999999999801
 30
0.0
 40
2.0
 50
269.99999999999841
 51
314.99999999999989
1001
GENIUS_GENFIL_13
1070
     0
1040
5.0
1040
5.0
1040
0.2500000000000284
1040
45.00000000000162
1002
{
1002
}
1001
GENIUS_GENOBJ-N-CHA_13
1002
{
1000
OWNER
1000
GEN
1002
}
1001
GENIUS_GENOBJ-N-FIL_13
1002
{
1000
OWNER
1000
GEN
1002
}
1001
GENIUS_GENODEF_13
1002
{
1000
HIER
1070
     0
1002
}
1002
{
1000
MANEDIT
1070
     0
1002
}
1002
{
1000
NOSEL
1070
     0
1002
}
1002
{
1000
BEHIND
1070
     0
1002
}
1002
{
1000
OTHER
1070
     0
1002
}
1002
{
1000
REACTOR
1002
}
  0
LINE
  5
44C5
  8
240
 10
38.749999999999773
 20
-28.499999999999631
 30
0.0
 11
49.671572875253453
 21
-28.499999999999801
 31
0.0
  0
LINE
  5
44C6
  8
241
 10
50.499999999999659
 20
-28.320359442248701
 30
0.0
 11
50.499999999999631
 21
28.320359442249181
 31
0.0
  0
LINE
  5
44C7
  8
240
 10
68.500000000000057
 20
15.250000000000281
 30
0.0
 11
55.99999999999801
 21
15.250000000000229
 31
0.0
  0
LINE
  5
44C8
  8
240
 10
68.500000000000057
 20
-15.24999999999971
 30
0.0
 11
55.99999999999806
 21
-15.24999999999971
 31
0.0
  0
CIRCLE
  5
44C9
  8
241
 10
32.39999999999992
 20
23.49999999999994
 30
0.0
 40
3.5
  0
ARC
  5
44CB
  8
241
 10
32.39999999999992
 20
23.499999999999879
 30
0.0
 40
3.75
 50
180.0
 51
0.0
  0
LINE
  5
44CC
  8
241
 10
28.64999999999992
 20
27.24999999999989
 30
0.0
 11
28.64999999999992
 21
23.499999999999879
 31
0.0
  0
LINE
  5
44CD
  8
241
 10
36.14999999999992
 20
27.24999999999989
 30
0.0
 11
36.14999999999992
 21
23.499999999999879
 31
0.0
  0
LINE
  5
44CE
  8
241
 10
28.64999999999992
 20
27.24999999999989
 30
0.0
 11
36.14999999999992
 21
27.24999999999989
 31
0.0
  0
LINE
  5
44CF
  8
240
  6
CONTINUOUS
 10
55.499999999999659
 20
15.50000000000008
 30
0.0
 11
55.749999999997947
 21
15.50000000000006
 31
0.0
  0
LINE
  5
44D0
  8
240
 10
55.99999999999806
 20
15.25000000000003
 30
0.0
 11
55.749999999998067
 21
15.50000000000003
 31
0.0
  0
LINE
  5
44D1
  8
241
 10
38.499999999999659
 20
4.4716781469932689
 30
0.0
 11
27.5
 21
4.4716781469932689
 31
0.0
  0
LINE
  5
44D2
  8
241
 10
38.999999999999659
 20
2.4839386683085531
 30
0.0
 11
40.999999999999652
 21
2.4839386683085531
 31
0.0
  0
LINE
  5
44D3
  8
241
 10
38.999999999999659
 20
4.9489730635078208
 30
0.0
 11
41.999999999999659
 21
4.9489730635078208
 31
0.0
  0
LINE
  5
44D4
  8
241
 10
38.999999999999659
 20
7.376342785422195
 30
0.0
 11
40.999999999999652
 21
7.376342785422195
 31
0.0
  0
LINE
  5
44D5
  8
241
 10
38.999999999999659
 20
9.7475740847818884
 30
0.0
 11
41.999999999999659
 21
9.7475740847818884
 31
0.0
  0
LINE
  5
44D6
  8
241
 10
38.999999999999659
 20
11.99878704239106
 30
0.0
 11
40.999999999999652
 21
11.99878704239106
 31
0.0
  0
LINE
  5
44D7
  8
241
 10
38.999999999999659
 20
14.250000000000311
 30
0.0
 11
41.999999999999659
 21
14.250000000000311
 31
0.0
  0
LINE
  5
44D8
  8
241
 10
38.999999999999659
 20
16.28472343803347
 30
0.0
 11
40.999999999999652
 21
16.28472343803347
 31
0.0
  0
LINE
  5
44D9
  8
241
 10
38.999999999999659
 20
18.18029009525625
 30
0.0
 11
41.999999999999602
 21
18.18029009525625
 31
0.0
  0
LINE
  5
44DA
  8
241
 10
38.999999999999602
 20
19.923358065341372
 30
0.0
 11
40.999999999999602
 21
19.923358065341372
 31
0.0
  0
LINE
  5
44DB
  8
241
 10
38.999999999999602
 20
21.832266628891119
 30
0.0
 11
41.999999999999602
 21
21.832266628891119
 31
0.0
  0
LINE
  5
44DC
  8
241
 10
38.999999999999552
 20
23.345833262236539
 30
0.0
 11
40.999999999999602
 21
23.345833262236539
 31
0.0
  0
LINE
  5
44DD
  8
241
 10
38.999999999999552
 20
24.68172400785679
 30
0.0
 11
41.999999999999538
 21
24.68172400785679
 31
0.0
  0
LINE
  5
44DE
  8
241
 10
38.999999999999552
 20
25.829771930544808
 30
0.0
 11
40.999999999999538
 21
25.829771930544808
 31
0.0
  0
LINE
  5
44DF
  8
241
 10
38.999999999999552
 20
26.67932898989179
 30
0.0
 11
41.999999999999538
 21
26.67932898989179
 31
0.0
  0
LINE
  5
44E0
  8
241
 10
38.999999999999552
 20
27.31977323115931
 30
0.0
 11
40.999999999999538
 21
27.31977323115931
 31
0.0
  0
LINE
  5
44E1
  8
241
 10
38.999999999999552
 20
28.067020960848229
 30
0.0
 11
41.999999999999538
 21
28.067020960848229
 31
0.0
  0
LINE
  5
45A3
  8
240
 10
-0.000000000000038
 20
22.225000000000001
 30
0.0
 11
0.9999999999999431
 21
22.225000000000001
 31
0.0
  0
LINE
  5
45A4
  8
240
 10
0.0000000000000568
 20
-22.225000000000019
 30
0.0
 11
0.9999999999999431
 21
-22.225000000000019
 31
0.0
  0
LINE
  5
45FB
  8
250
 10
-52.392950668240481
 20
-33.021684928450902
 30
0.0
 11
-35.828794979130009
 21
-33.021684928450902
 31
0.0
  0
LINE
  5
45FC
  8
250
 10
-35.828794979130009
 20
-33.021684928450902
 30
0.0
 11
-23.423053257184151
 21
-20.61594320650504
 31
0.0
  0
LINE
  5
45FD
  8
250
 10
-23.423053257184151
 20
-20.61594320650504
 30
0.0
 11
-21.846205135138149
 21
-19.039095084459039
 31
0.0
  0
LINE
  5
45FE
  8
250
 10
-23.215457264527029
 20
-20.823539199162159
 30
0.0
 11
-21.846205135138149
 21
-19.039095084459039
 31
0.0
  0
LINE
  5
45FF
  8
250
 10
-21.846205135138149
 20
-19.039095084459039
 30
0.0
 11
-23.630649249841269
 21
-20.408347213847922
 31
0.0
  0
TEXT
  5
4600
  8
250
 10
-53.251689126751941
 20
-31.62168492845089
 30
0.0
 40
2.799999999999998
  1
 BBT40
  7
ACJISTS
  0
TEXT
  5
4601
  8
241
 10
-63.0
 20
63.0
 30
0.0
 40
5.0
  1
BBT40-NBS13-90NRA
  7
YOKO
 11
-63.0
 21
63.0
 31
0.0
 73
     1
  0
LINE
  5
4603
  8
250
 10
-0.000000000000038
 20
22.724999999999991
 30
0.0
 11
-0.0000000000000368
 21
42.749999999999758
 31
0.0
  0
LINE
  5
4604
  8
250
 10
55.49999999999968
 20
23.17157287525368
 30
0.0
 11
55.49999999999968
 21
42.749999999999758
 31
0.0
  0
LINE
  5
4605
  8
250
 10
2.2299999999999631
 20
41.749999999999758
 30
0.0
 11
53.269999999999683
 21
41.749999999999758
 31
0.0
  0
LINE
  5
4609
  8
250
 10
55.49999999999968
 20
23.17157287525368
 30
0.0
 11
55.49999999999968
 21
42.749999999999758
 31
0.0
  0
LINE
  5
460A
  8
250
 10
90.000000000000014
 20
16.460050506338639
 30
0.0
 11
90.000000000000014
 21
42.749999999999758
 31
0.0
  0
LINE
  5
460B
  8
250
 10
57.72999999999967
 20
41.749999999999758
 30
0.0
 11
87.77000000000001
 21
41.749999999999758
 31
0.0
  0
LINE
  5
460F
  8
250
 10
-0.000000000000038
 20
22.724999999999991
 30
0.0
 11
-0.0000000000000363
 21
50.0
 31
0.0
  0
LINE
  5
4610
  8
250
 10
90.000000000000014
 20
16.460050506338639
 30
0.0
 11
90.000000000000014
 21
50.0
 31
0.0
  0
LINE
  5
4611
  8
250
 10
2.2299999999999631
 20
49.0
 30
0.0
 11
87.77000000000001
 21
49.0
 31
0.0
  0
LINE
  5
4615
  8
250
 10
104.0
 20
-4.2699999999998912
 30
0.0
 11
104.0
 21
4.2700000000001381
 31
0.0
  0
LINE
  5
4619
  8
250
 10
88.918629150101424
 20
-17.499999999999879
 30
0.0
 11
112.0
 21
-17.49999999999989
 31
0.0
  0
LINE
  5
461A
  8
250
 10
88.918629150101424
 20
17.50000000000011
 30
0.0
 11
112.0
 21
17.50000000000011
 31
0.0
  0
LINE
  5
461B
  8
250
 10
111.0
 20
-15.269999999999889
 30
0.0
 11
111.0
 21
15.27000000000011
 31
0.0
  0
LINE
  5
461F
  8
250
 10
37.606366361392702
 20
-6.5000000000001741
 30
0.0
 11
37.606366361392702
 21
-43.21891108675446
 31
0.0
  0
LINE
  5
4620
  8
250
 10
89.999999999999986
 20
-16.460050506339019
 30
0.0
 11
89.999999999999986
 21
-43.218911086754467
 31
0.0
  0
LINE
  5
4621
  8
250
 10
39.836366361392692
 20
-42.21891108675446
 30
0.0
 11
87.769999999999996
 21
-42.21891108675446
 31
0.0
  0
TEXT
  5
4625
  8
250
 10
103.0
 20
-9.4285714285712832
 30
0.0
 40
3.0
  1
MAX.\U+220513
 50
90.0
  0
LINE
  5
4626
  8
250
 10
103.6283333333333
 20
4.2700000000001381
 30
0.0
 11
104.0
 21
6.5000000000001368
 31
0.0
  0
LINE
  5
4627
  8
250
 10
104.3716666666666
 20
4.2700000000001381
 30
0.0
 11
104.0
 21
6.5000000000001368
 31
0.0
  0
LINE
  5
4628
  8
250
 10
104.0
 20
6.5000000000001368
 30
0.0
 11
104.0
 21
4.2700000000001381
 31
0.0
  0
LINE
  5
4629
  8
250
 10
104.3716666666666
 20
-4.2699999999998912
 30
0.0
 11
104.0
 21
-6.4999999999998899
 31
0.0
  0
LINE
  5
462A
  8
250
 10
103.6283333333333
 20
-4.2699999999998912
 30
0.0
 11
104.0
 21
-6.4999999999998899
 31
0.0
  0
LINE
  5
462B
  8
250
 10
104.0
 20
-6.4999999999998899
 30
0.0
 11
104.0
 21
-4.2699999999998912
 31
0.0
  0
TEXT
  5
462C
  8
250
 10
110.0
 20
-4.2142857142855856
 30
0.0
 40
3.0
  1
\U+220535
 50
90.0
  0
LINE
  5
462D
  8
250
 10
110.6283333333333
 20
15.27000000000011
 30
0.0
 11
111.0
 21
17.50000000000011
 31
0.0
  0
LINE
  5
462E
  8
250
 10
111.3716666666666
 20
15.27000000000011
 30
0.0
 11
111.0
 21
17.50000000000011
 31
0.0
  0
LINE
  5
462F
  8
250
 10
111.0
 20
17.50000000000011
 30
0.0
 11
111.0
 21
15.27000000000011
 31
0.0
  0
LINE
  5
4630
  8
250
 10
111.3716666666666
 20
-15.269999999999889
 30
0.0
 11
111.0
 21
-17.49999999999989
 31
0.0
  0
LINE
  5
4631
  8
250
 10
110.6283333333333
 20
-15.269999999999889
 30
0.0
 11
111.0
 21
-17.49999999999989
 31
0.0
  0
LINE
  5
4632
  8
250
 10
111.0
 20
-17.49999999999989
 30
0.0
 11
111.0
 21
-15.269999999999889
 31
0.0
  0
TEXT
  5
4633
  8
250
 10
23.083333333333162
 20
42.749999999999758
 30
0.0
 40
2.7999999999999989
  1
55.5
  0
LINE
  5
4634
  8
250
 10
53.269999999999683
 20
42.121666666666428
 30
0.0
 11
55.49999999999968
 21
41.749999999999758
 31
0.0
  0
LINE
  5
4635
  8
250
 10
53.269999999999683
 20
41.378333333333089
 30
0.0
 11
55.49999999999968
 21
41.749999999999758
 31
0.0
  0
LINE
  5
4636
  8
250
 10
55.49999999999968
 20
41.749999999999758
 30
0.0
 11
53.269999999999683
 21
41.749999999999758
 31
0.0
  0
LINE
  5
4637
  8
250
 10
2.2299999999999631
 20
41.378333333333089
 30
0.0
 11
-0.0000000000000368
 21
41.749999999999758
 31
0.0
  0
LINE
  5
4638
  8
250
 10
2.2299999999999631
 20
42.121666666666428
 30
0.0
 11
-0.0000000000000368
 21
41.749999999999758
 31
0.0
  0
LINE
  5
4639
  8
250
 10
-0.0000000000000368
 20
41.749999999999758
 30
0.0
 11
2.2299999999999631
 21
41.749999999999758
 31
0.0
  0
TEXT
  5
463A
  8
250
 10
68.083333333333172
 20
42.749999999999758
 30
0.0
 40
2.7999999999999989
  1
34.5
  0
LINE
  5
463B
  8
250
 10
87.77000000000001
 20
42.121666666666428
 30
0.0
 11
90.000000000000014
 21
41.749999999999758
 31
0.0
  0
LINE
  5
463C
  8
250
 10
87.77000000000001
 20
41.378333333333089
 30
0.0
 11
90.000000000000014
 21
41.749999999999758
 31
0.0
  0
LINE
  5
463D
  8
250
 10
90.000000000000014
 20
41.749999999999758
 30
0.0
 11
87.77000000000001
 21
41.749999999999758
 31
0.0
  0
LINE
  5
463E
  8
250
 10
57.72999999999967
 20
41.378333333333089
 30
0.0
 11
55.49999999999968
 21
41.749999999999758
 31
0.0
  0
LINE
  5
463F
  8
250
 10
57.72999999999967
 20
42.121666666666428
 30
0.0
 11
55.49999999999968
 21
41.749999999999758
 31
0.0
  0
LINE
  5
4640
  8
250
 10
55.49999999999968
 20
41.749999999999758
 30
0.0
 11
57.72999999999967
 21
41.749999999999758
 31
0.0
  0
TEXT
  5
4641
  8
250
 10
42.333333333333321
 20
50.0
 30
0.0
 40
2.7999999999999989
  1
90
  0
LINE
  5
4642
  8
250
 10
87.77000000000001
 20
49.37166666666667
 30
0.0
 11
90.000000000000014
 21
49.0
 31
0.0
  0
LINE
  5
4643
  8
250
 10
87.77000000000001
 20
48.62833333333333
 30
0.0
 11
90.000000000000014
 21
49.0
 31
0.0
  0
LINE
  5
4644
  8
250
 10
90.000000000000014
 20
49.0
 30
0.0
 11
87.77000000000001
 21
49.0
 31
0.0
  0
LINE
  5
4645
  8
250
 10
2.2299999999999631
 20
48.62833333333333
 30
0.0
 11
-0.0000000000000364
 21
49.0
 31
0.0
  0
LINE
  5
4646
  8
250
 10
2.2299999999999631
 20
49.37166666666667
 30
0.0
 11
-0.0000000000000364
 21
49.0
 31
0.0
  0
LINE
  5
4647
  8
250
 10
-0.0000000000000364
 20
49.0
 30
0.0
 11
2.2299999999999631
 21
49.0
 31
0.0
  0
LINE
  5
4648
  8
250
 10
87.769999999999996
 20
-41.84724442008779
 30
0.0
 11
89.999999999999986
 21
-42.21891108675446
 31
0.0
  0
LINE
  5
4649
  8
250
 10
87.769999999999996
 20
-42.59057775342113
 30
0.0
 11
89.999999999999986
 21
-42.21891108675446
 31
0.0
  0
LINE
  5
464A
  8
250
 10
89.999999999999986
 20
-42.21891108675446
 30
0.0
 11
87.769999999999996
 21
-42.21891108675446
 31
0.0
  0
LINE
  5
464B
  8
250
 10
39.836366361392692
 20
-42.59057775342113
 30
0.0
 11
37.606366361392702
 21
-42.21891108675446
 31
0.0
  0
LINE
  5
464C
  8
250
 10
39.836366361392692
 20
-41.84724442008779
 30
0.0
 11
37.606366361392702
 21
-42.21891108675446
 31
0.0
  0
LINE
  5
464D
  8
250
 10
37.606366361392702
 20
-42.21891108675446
 30
0.0
 11
39.836366361392692
 21
-42.21891108675446
 31
0.0
  0
TEXT
  5
464E
  8
250
 10
56.288897466410617
 20
-41.218911086754467
 30
0.0
 40
3.0
  1
41ü`60
  0
VIEWPORT
  5
22
 67
     1
  8
0
 10
261.51769911504419
 20
148.5
 30
0.0
 40
523.0353982300885
 41
297.0
 68
     1
 69
     1
1001
ACAD
1000
MVIEW
1002
{
1070
    16
1010
0.0
1020
0.0
1030
0.0
1010
0.0
1020
0.0
1030
1.0
1040
0.0
1040
297.0
1040
261.51769911504419
1040
148.5
1040
50.0
1040
0.0
1040
0.0
1070
     0
1070
   100
1070
     1
1070
     1
1070
     0
1070
     0
1070
     0
1070
     0
1040
0.0
1040
0.0
1040
0.0
1040
1.0
1040
1.0
1040
10.0
1040
10.0
1070
     0
1002
{
1002
}
1002
}
1001
GENIUS_GENODEF_13
1002
{
1000
HIER
1070
     0
1002
}
1002
{
1000
MANEDIT
1070
     0
1002
}
1002
{
1000
NOSEL
1070
     0
1002
}
1002
{
1000
BEHIND
1070
     0
1002
}
1002
{
1000
OTHER
1070
     0
1002
}
1002
{
1000
REACTOR
1002
}
1001
GENIUS_GENOBJ-N-SDF_13
1002
{
1000
OWNER
1000
GEN
1002
}
1001
GENIUS_GENSCREG_15
1000
PF
1040
1.0
1000
DF
1040
1.0
1000
MIN
1011
0.0
1021
0.0
1031
0.0
1021
0.0
1031
0.0
1000
MAX
1011
523.0353982300885
1021
0.0
1031
0.0
1021
297.0
1031
0.0
1000
FLAGS
1070
     4
  0
ENDSEC
  0
EOF
