  0
SECTION
  2
HEADER
  9
$ACADVER
  1
AC1009
  9
$INSBASE
 10
0.0
 20
0.0
 30
0.0
  9
$EXTMIN
 10
-67.450703158701145
 20
-42.999999999958249
 30
0.0
  9
$EXTMAX
 10
157.0
 20
68.000000000000114
 30
0.0
  9
$LIMMIN
 10
0.0
 20
0.0
  9
$LIMMAX
 10
297.0
 20
210.0
  9
$ORTHOMODE
 70
     1
  9
$REGENMODE
 70
     1
  9
$FILLMODE
 70
     1
  9
$QTEXTMODE
 70
     0
  9
$MIRRTEXT
 70
     1
  9
$DRAGMODE
 70
     2
  9
$LTSCALE
 40
10.0
  9
$OSMODE
 70
    63
  9
$ATTMODE
 70
     1
  9
$TEXTSIZE
 40
3.0
  9
$TRACEWID
 40
1.0
  9
$TEXTSTYLE
  7
YOKO
  9
$CLAYER
  8
240
  9
$CELTYPE
  6
BYLAYER
  9
$CECOLOR
 62
   256
  9
$DIMSCALE
 40
1.0
  9
$DIMASZ
 40
2.2299999999999991
  9
$DIMEXO
 40
0.5
  9
$DIMDLI
 40
7.0
  9
$DIMRND
 40
0.0
  9
$DIMDLE
 40
0.0
  9
$DIMEXE
 40
1.0
  9
$DIMTP
 40
0.0
  9
$DIMTM
 40
0.01
  9
$DIMTXT
 40
2.7999999999999989
  9
$DIMCEN
 40
0.0
  9
$DIMTSZ
 40
0.0
  9
$DIMTOL
 70
     0
  9
$DIMLIM
 70
     0
  9
$DIMTIH
 70
     0
  9
$DIMTOH
 70
     0
  9
$DIMSE1
 70
     0
  9
$DIMSE2
 70
     0
  9
$DIMTAD
 70
     3
  9
$DIMZIN
 70
     9
  9
$DIMBLK
  1
OPEN
  9
$DIMASO
 70
     1
  9
$DIMSHO
 70
     1
  9
$DIMPOST
  1

  9
$DIMAPOST
  1

  9
$DIMALT
 70
     0
  9
$DIMALTD
 70
     2
  9
$DIMALTF
 40
25.399999999999999
  9
$DIMLFAC
 40
1.0
  9
$DIMTOFL
 70
     1
  9
$DIMTVP
 40
0.0
  9
$DIMTIX
 70
     1
  9
$DIMSOXD
 70
     0
  9
$DIMSAH
 70
     0
  9
$DIMBLK1
  1

  9
$DIMBLK2
  1

  9
$DIMSTYLE
  2
BIGT
  9
$DIMCLRD
 70
   256
  9
$DIMCLRE
 70
   256
  9
$DIMCLRT
 70
    40
  9
$DIMTFAC
 40
1.0
  9
$DIMGAP
 40
1.0
  9
$LUNITS
 70
     2
  9
$LUPREC
 70
     6
  9
$SKETCHINC
 40
1.0
  9
$FILLETRAD
 40
0.0
  9
$AUNITS
 70
     0
  9
$AUPREC
 70
     6
  9
$MENU
  1
.
  9
$ELEVATION
 40
0.0
  9
$PELEVATION
 40
0.0
  9
$THICKNESS
 40
0.0
  9
$LIMCHECK
 70
     0
  9
$BLIPMODE
 70
     0
  9
$CHAMFERA
 40
0.2
  9
$CHAMFERB
 40
0.2
  9
$SKPOLY
 70
     0
  9
$TDCREATE
 40
2457241.7604476269
  9
$TDUPDATE
 40
2457242.3808054859
  9
$TDINDWG
 40
0.0064268287
  9
$TDUSRTIMER
 40
0.006426794
  9
$USRTIMER
 70
     1
  9
$ANGBASE
 50
0.0
  9
$ANGDIR
 70
     0
  9
$PDMODE
 70
     1
  9
$PDSIZE
 40
0.0
  9
$PLINEWID
 40
0.0
  9
$COORDS
 70
     1
  9
$SPLFRAME
 70
     0
  9
$SPLINETYPE
 70
     6
  9
$SPLINESEGS
 70
     4
  9
$ATTDIA
 70
     1
  9
$ATTREQ
 70
     1
  9
$HANDLING
 70
     1
  9
$HANDSEED
  5
4952
  9
$SURFTAB1
 70
     6
  9
$SURFTAB2
 70
     6
  9
$SURFTYPE
 70
     6
  9
$SURFU
 70
     6
  9
$SURFV
 70
     6
  9
$UCSNAME
  2

  9
$UCSORG
 10
0.0
 20
0.0
 30
0.0
  9
$UCSXDIR
 10
1.0
 20
0.0
 30
0.0
  9
$UCSYDIR
 10
0.0
 20
1.0
 30
0.0
  9
$PUCSNAME
  2

  9
$PUCSORG
 10
0.0
 20
0.0
 30
0.0
  9
$PUCSXDIR
 10
1.0
 20
0.0
 30
0.0
  9
$PUCSYDIR
 10
0.0
 20
1.0
 30
0.0
  9
$USERI1
 70
     1
  9
$USERI2
 70
     0
  9
$USERI3
 70
     0
  9
$USERI4
 70
     0
  9
$USERI5
 70
     0
  9
$USERR1
 40
0.0
  9
$USERR2
 40
0.0
  9
$USERR3
 40
0.0
  9
$USERR4
 40
0.0
  9
$USERR5
 40
0.0
  9
$WORLDVIEW
 70
     1
  9
$SHADEDGE
 70
     3
  9
$SHADEDIF
 70
    70
  9
$TILEMODE
 70
     1
  9
$MAXACTVP
 70
    16
  9
$PLIMCHECK
 70
     0
  9
$PEXTMIN
 10
1.0000000000000000E+020
 20
1.0000000000000000E+020
 30
1.0000000000000000E+020
  9
$PEXTMAX
 10
-1.0000000000000000E+020
 20
-1.0000000000000000E+020
 30
-1.0000000000000000E+020
  9
$PLIMMIN
 10
0.0
 20
0.0
  9
$PLIMMAX
 10
420.0
 20
297.0
  9
$UNITMODE
 70
     0
  9
$VISRETAIN
 70
     1
  9
$PLINEGEN
 70
     0
  9
$PSLTSCALE
 70
     1
  0
ENDSEC
  0
SECTION
  2
TABLES
  0
TABLE
  2
VPORT
 70
     1
  0
VPORT
  2
*ACTIVE
 70
     0
 10
0.0
 20
0.0
 11
1.0
 21
1.0
 12
44.777046774370881
 22
26.887502319618399
 13
0.0
 23
0.0
 14
7.0
 24
7.0
 15
7.0
 25
7.0
 16
0.0
 26
0.0
 36
1.0
 17
0.0
 27
0.0
 37
0.0
 40
157.0258555396606
 41
1.4355016538037479
 42
50.0
 43
0.0
 44
0.0
 50
0.0
 51
0.0
 71
     0
 72
  2000
 73
     1
 74
     0
 75
     1
 76
     1
 77
     0
 78
     0
  0
ENDTAB
  0
TABLE
  2
LTYPE
 70
    13
  0
LTYPE
  2
CONTINUOUS
 70
     0
  3
Solid line
 72
    65
 73
     0
 40
0.0
  0
LTYPE
  2
CENTER2
 70
     0
  3
___ _ ___ _ ___ _ ___ _ ___ _ ___ _ ___ _ ___ _
 72
    65
 73
     4
 40
1.125
 49
0.75
 49
-0.125
 49
0.125
 49
-0.125
  0
LTYPE
  2
HIDDEN2
 70
     0
  3
_ _ _ _ _ _ _ _ _ _ _ _ _ _ _ _ _ _ _ _ _ _ _ _
 72
    65
 73
     2
 40
0.1875
 49
0.125
 49
-0.0625
  0
LTYPE
  2
PHANTOM2
 70
     0
  3
___ _ _ ___ _ _ ___ _ _ ___ _ _ ___ _ _ ___ _ _
 72
    65
 73
     6
 40
1.25
 49
0.625
 49
-0.125
 49
0.125
 49
-0.125
 49
0.125
 49
-0.125
  0
LTYPE
  2
AM_ISO02W050
 70
     0
  3
__ __ __ __ __ __ __ __ __ __ __ __ __ __ __
 72
    65
 73
     2
 40
7.5
 49
6.0
 49
-1.5
  0
LTYPE
  2
AMCONSTR
 70
     0
  3
_______________________
 72
    65
 73
     2
 40
9999.0
 49
9999.0
 49
0.0
  0
LTYPE
  2
ACISOWELD
 70
     0
  3
_ _ _ _ _
 72
    65
 73
     2
 40
2.0
 49
2.0
 49
-1.0
  0
LTYPE
  2
ACISOTGB
 70
     0
  3
__ . . __ . .
 72
    65
 73
     6
 40
9.0
 49
4.0
 49
-1.0
 49
1.0
 49
-1.0
 49
1.0
 49
-1.0
  0
LTYPE
  2
ACISOTGL
 70
     0
  3
_ _ _ _ _
 72
    65
 73
     2
 40
3.0
 49
2.0
 49
-1.0
  0
LTYPE
  2
ACJISTGB
 70
     0
  3
__ . . __ . .
 72
    65
 73
     6
 40
9.0
 49
4.0
 49
-1.0
 49
1.0
 49
-1.0
 49
1.0
 49
-1.0
  0
LTYPE
  2
ACJISTGL
 70
     0
  3
_ _ _ _ _
 72
    65
 73
     2
 40
3.0
 49
2.0
 49
-1.0
  0
ENDTAB
  0
TABLE
  2
LAYER
 70
    10
  0
LAYER
  2
0
 70
     0
 62
     7
  6
CONTINUOUS
  0
LAYER
  2
DEFPOINTS
 70
     0
 62
     7
  6
CONTINUOUS
  0
LAYER
  2
245
 70
     0
 62
     2
  6
CENTER2
  0
LAYER
  2
240
 70
     0
 62
     4
  6
CONTINUOUS
  0
LAYER
  2
241
 70
     0
 62
   211
  6
CONTINUOUS
  0
LAYER
  2
242
 70
     0
 62
     3
  6
CONTINUOUS
  0
LAYER
  2
243
 70
     0
 62
   211
  6
HIDDEN2
  0
LAYER
  2
244
 70
     0
 62
     3
  6
HIDDEN2
  0
LAYER
  2
246
 70
     0
 62
     3
  6
PHANTOM2
  0
LAYER
  2
250
 70
     0
 62
     3
  6
CONTINUOUS
  0
ENDTAB
  0
TABLE
  2
STYLE
 70
     6
  0
STYLE
  2
STANDARD
 70
     0
 40
0.0
 41
1.0
 50
0.0
 71
     0
 42
3.0
  3
romans.shx
  4
extfont.shx
  0
STYLE
  2
ACISOTS
 70
     0
 40
1.0
 41
1.0
 50
0.0
 71
     0
 42
3.0
  3
amgdt.shx
  4
extfont.shx
  0
STYLE
  2
ACISOGDT
 70
     0
 40
0.0
 41
1.0
 50
0.0
 71
     0
 42
3.0
  3
amgdt.shx
  4
extfont.shx
  0
STYLE
  2
ACJISTS
 70
     0
 40
1.0
 41
1.0
 50
0.0
 71
     0
 42
3.0
  3
amgdt.shx
  4
extfont.shx
  0
STYLE
  2
ACJISGDT
 70
     0
 40
0.0
 41
1.0
 50
0.0
 71
     0
 42
3.0
  3
amgdt.shx
  4
extfont.shx
  0
STYLE
  2
YOKO
 70
     0
 40
0.0
 41
1.0
 50
0.0
 71
     0
 42
3.0
  3
romans.shx
  4
extfont.shx
  0
ENDTAB
  0
TABLE
  2
VIEW
 70
     0
  0
ENDTAB
  0
TABLE
  2
UCS
 70
     0
  0
ENDTAB
  0
TABLE
  2
APPID
 70
    41
  0
APPID
  2
ACAD
 70
     0
  0
APPID
  2
GLOBAL
 70
     0
  0
APPID
  2
DETAIL
 70
     0
  0
APPID
  2
GRPNAME
 70
     0
  0
APPID
  2
GPARA
 70
     0
  0
APPID
  2
MCAD_NO_VIS
 70
     0
  0
APPID
  2
ACAD_TEMP_GRAPHIC
 70
     0
  0
APPID
  2
ACATTRIBSERVICES
 70
     0
  0
APPID
  2
GENIUS_GENSCREG_15
 70
     0
  0
APPID
  2
GENIUS_GENODEF_13
 70
     0
  0
APPID
  2
GENIUS_GENOBJ-N-SDF_13
 70
     0
  0
APPID
  2
GENIUS_GENREC_14
 70
     0
  0
APPID
  2
GENIUS_GENOBJ-N-REC_13
 70
     0
  0
APPID
  2
GENIUS_GENDIMSH_14
 70
     0
  0
APPID
  2
GENIUS_GENOBJ-N-DIM_13
 70
     0
  0
APPID
  2
GENIUS_GENDIM_13
 70
     0
  0
APPID
  2
GENIUS_GENDTOL_13
 70
     0
  0
APPID
  2
GENIUS_GENOLIS_13
 70
     0
  0
APPID
  2
GENIUS_GENOENT_13
 70
     0
  0
APPID
  2
GENIUS_GENOBJ-F-FEM_13
 70
     0
  0
APPID
  2
GENIUS_GENOREF_13
 70
     0
  0
APPID
  2
GENIUS_GEFFEM_13
 70
     0
  0
APPID
  2
GENIUS_GEFFEMP_13
 70
     0
  0
APPID
  2
AD_DRAW
 70
     0
  0
APPID
  2
DESIGNERASSEMBLIES
 70
     0
  0
APPID
  2
ACADM_DIM_EDIT
 70
     0
  0
APPID
  2
AMDT_DM_ADJ
 70
     0
  0
APPID
  2
ITEMNAME
 70
     0
  0
APPID
  2
GENIUS_GENOBJ-N-FIL_13
 70
     0
  0
APPID
  2
GENIUS_GENFIL_13
 70
     0
  0
APPID
  2
GENIUS_GENOBJ-N-CHA_13
 70
     0
  0
APPID
  2
ACAD_NAV_VCDISPLAY
 70
     0
  0
APPID
  2
ACAD_DSTYLE_DIMINSPECT
 70
     0
  0
APPID
  2
ACAD_DSTYLE_DIMJAG
 70
     0
  0
APPID
  2
ACAD_DSTYLE_DIMBREAK
 70
     0
  0
APPID
  2
ACAD_EXEMPT_FROM_CAD_STANDARDS
 70
     0
  0
APPID
  2
ACAD_MLEADERVER
 70
     0
  0
APPID
  2
ACAD_DSTYLE_DIMARC_LENGTH_
 70
     0
  0
APPID
  2
ACAD_DSTYLE_DIM_LINETYPE
 70
     0
  0
APPID
  2
ACAD_DSTYLE_DIM_EXT1_LINETYPE
 70
     0
  0
APPID
  2
ACAD_DSTYLE_DIM_EXT2_LINETYPE
 70
     0
  0
ENDTAB
  0
TABLE
  2
DIMSTYLE
 70
    23
  0
DIMSTYLE
  2
BIGT
 70
     0
  3

  4

  5
OPEN
  6

  7

 40
1.0
 41
2.2299999999999991
 42
0.5
 43
7.0
 44
1.0
 45
0.0
 46
0.0
 47
0.0
 48
0.01
140
2.7999999999999989
141
0.0
142
0.0
143
25.399999999999999
144
1.0
145
0.0
146
1.0
147
1.0
 71
     0
 72
     0
 73
     0
 74
     0
 75
     0
 76
     0
 77
     3
 78
     9
170
     0
171
     2
172
     1
173
     0
174
     1
175
     0
176
   256
177
   256
178
    40
  0
DIMSTYLE
  2
AM_ISO
 70
     0
  3

  4
"
  5

  6

  7

 40
1.0
 41
2.5
 42
1.0
 43
10.0
 44
1.0
 45
0.0
 46
0.0
 47
0.1
 48
0.1
140
3.5
141
0.0
142
0.0
143
0.0393701
144
1.0
145
0.0
146
0.71
147
1.5
 71
     0
 72
     0
 73
     0
 74
     0
 75
     0
 76
     0
 77
     1
 78
     8
170
     0
171
     2
172
     1
173
     0
174
     0
175
     0
176
   256
177
   256
178
     2
  0
DIMSTYLE
  2
AM_ISO$3
 70
     0
  3

  4
"
  5

  6

  7

 40
1.0
 41
2.5
 42
1.0
 43
10.0
 44
1.0
 45
0.0
 46
0.0
 47
0.1
 48
0.1
140
3.5
141
0.0
142
0.0
143
0.0393701
144
1.0
145
0.0
146
0.71
147
1.5
 71
     0
 72
     0
 73
     0
 74
     1
 75
     0
 76
     0
 77
     1
 78
     8
170
     0
171
     2
172
     0
173
     0
174
     0
175
     0
176
   256
177
   256
178
     2
  0
DIMSTYLE
  2
AM_ISO$4
 70
     0
  3

  4
"
  5

  6

  7

 40
1.0
 41
2.5
 42
1.0
 43
10.0
 44
1.0
 45
0.0
 46
0.0
 47
0.1
 48
0.1
140
3.5
141
0.0
142
0.0
143
0.0393701
144
1.0
145
0.0
146
0.71
147
1.5
 71
     0
 72
     0
 73
     0
 74
     1
 75
     0
 76
     0
 77
     1
 78
     8
170
     0
171
     2
172
     0
173
     0
174
     0
175
     0
176
   256
177
   256
178
     2
  0
DIMSTYLE
  2
AM_ISO$6
 70
     0
  3

  4
"
  5

  6

  7

 40
1.0
 41
2.5
 42
1.0
 43
10.0
 44
1.0
 45
0.0
 46
0.0
 47
0.1
 48
0.1
140
3.5
141
0.0
142
0.0
143
0.0393701
144
1.0
145
0.0
146
0.71
147
1.5
 71
     0
 72
     0
 73
     0
 74
     0
 75
     0
 76
     0
 77
     0
 78
     8
170
     0
171
     2
172
     1
173
     0
174
     0
175
     0
176
   256
177
   256
178
     2
  0
DIMSTYLE
  2
AM_ISO$7
 70
     0
  3

  4
"
  5

  6

  7

 40
1.0
 41
2.5
 42
1.0
 43
10.0
 44
1.0
 45
0.0
 46
0.0
 47
0.1
 48
0.1
140
5.0
141
0.0
142
0.0
143
0.0393701
144
1.0
145
0.0
146
0.71
147
1.5
 71
     0
 72
     0
 73
     0
 74
     0
 75
     0
 76
     0
 77
     1
 78
     8
170
     0
171
     2
172
     1
173
     0
174
     0
175
     0
176
   256
177
   256
178
     2
  0
DIMSTYLE
  2
AM_ISO$SF
 70
     0
  3

  4
"
  5

  6

  7

 40
1.0
 41
2.5
 42
1.0
 43
10.0
 44
1.0
 45
0.0
 46
0.0
 47
0.1
 48
0.1
140
3.5
141
0.0
142
0.0
143
0.0393701
144
1.0
145
0.0
146
0.71
147
1.5
 71
     0
 72
     0
 73
     0
 74
     0
 75
     1
 76
     1
 77
     1
 78
     8
170
     0
171
     2
172
     1
173
     0
174
     0
175
     0
176
   256
177
   256
178
     2
  0
DIMSTYLE
  2
AM_ISO$SH
 70
     0
  3

  4
"
  5

  6
GENAXEH
  7

 40
1.0
 41
2.5
 42
1.0
 43
10.0
 44
1.0
 45
0.0
 46
0.0
 47
0.1
 48
0.1
140
3.5
141
0.0
142
0.0
143
0.0393701
144
2.0
145
0.0
146
0.71
147
1.5
 71
     0
 72
     0
 73
     0
 74
     0
 75
     1
 76
     1
 77
     1
 78
     8
170
     0
171
     2
172
     1
173
     1
174
     0
175
     0
176
   256
177
   256
178
     2
  0
DIMSTYLE
  2
BIGT$2
 70
     0
  3

  4

  5
OPEN
  6

  7

 40
1.0
 41
2.2299999999999991
 42
0.5
 43
7.0
 44
1.0
 45
0.0
 46
0.0
 47
0.0
 48
0.01
140
2.7999999999999989
141
0.0
142
0.0
143
25.399999999999999
144
1.0
145
0.0
146
1.0
147
1.0
 71
     0
 72
     0
 73
     0
 74
     0
 75
     0
 76
     0
 77
     3
 78
     9
170
     0
171
     2
172
     1
173
     0
174
     0
175
     0
176
   256
177
   256
178
    40
  0
DIMSTYLE
  2
BIGT$3
 70
     0
  3

  4

  5
OPEN
  6

  7

 40
1.0
 41
2.2299999999999991
 42
0.5
 43
2.5
 44
1.0
 45
0.0
 46
0.0
 47
0.0
 48
0.01
140
2.7999999999999989
141
0.0
142
0.0
143
25.399999999999999
144
1.0
145
0.0
146
1.0
147
1.0
 71
     0
 72
     0
 73
     0
 74
     0
 75
     0
 76
     0
 77
     3
 78
     9
170
     0
171
     2
172
     1
173
     0
174
     0
175
     0
176
   256
177
   256
178
    40
  0
DIMSTYLE
  2
BIGT$7
 70
     0
  3

  4

  5
OPEN
  6

  7

 40
0.0
 41
2.2299999999999991
 42
0.5
 43
7.0
 44
1.0
 45
0.0
 46
0.0
 47
0.0
 48
0.01
140
2.7999999999999989
141
0.0
142
0.0
143
25.399999999999999
144
1.0
145
0.0
146
1.0
147
1.0
 71
     0
 72
     0
 73
     0
 74
     0
 75
     0
 76
     0
 77
     3
 78
     9
170
     0
171
     2
172
     0
173
     0
174
     0
175
     0
176
   256
177
   256
178
    40
  0
DIMSTYLE
  2
BIGT$6
 70
     0
  3

  4

  5
OPEN
  6

  7

 40
1.0
 41
2.2299999999999991
 42
0.5
 43
2.5
 44
1.0
 45
0.0
 46
0.0
 47
0.0
 48
0.01
140
2.7999999999999989
141
0.0
142
0.0
143
25.399999999999999
144
1.0
145
0.0
146
1.0
147
1.0
 71
     0
 72
     0
 73
     0
 74
     0
 75
     0
 76
     0
 77
     3
 78
     9
170
     0
171
     2
172
     1
173
     0
174
     0
175
     0
176
   256
177
   256
178
    40
  0
DIMSTYLE
  2
BIGT$0
 70
     0
  3

  4

  5
OPEN
  6

  7

 40
1.0
 41
2.2299999999999991
 42
0.5
 43
7.0
 44
1.0
 45
0.0
 46
0.0
 47
0.0
 48
0.01
140
2.7999999999999989
141
0.0
142
0.0
143
25.399999999999999
144
1.0
145
0.0
146
1.0
147
1.0
 71
     0
 72
     0
 73
     0
 74
     0
 75
     0
 76
     0
 77
     3
 78
     9
170
     0
171
     2
172
     1
173
     0
174
     1
175
     0
176
   256
177
   256
178
    40
  0
DIMSTYLE
  2
BIGT$4
 70
     0
  3

  4

  5
OPEN
  6

  7

 40
1.0
 41
2.2299999999999991
 42
0.5
 43
2.5
 44
1.0
 45
0.0
 46
0.0
 47
0.0
 48
0.01
140
2.7999999999999989
141
0.0
142
0.0
143
25.399999999999999
144
1.0
145
0.0
146
1.0
147
1.0
 71
     0
 72
     0
 73
     0
 74
     0
 75
     0
 76
     0
 77
     3
 78
     9
170
     0
171
     2
172
     1
173
     0
174
     0
175
     0
176
   256
177
   256
178
    40
  0
DIMSTYLE
  2
BIGT$SH
 70
     0
  3

  4

  5
OPEN
  6

  7

 40
1.0
 41
2.2299999999999991
 42
0.5
 43
7.0
 44
1.0
 45
0.0
 46
0.0
 47
0.0
 48
0.0
140
2.7999999999999989
141
0.0
142
0.0
143
25.399999999999999
144
1.0
145
0.0
146
1.0
147
1.0
 71
     0
 72
     0
 73
     0
 74
     0
 75
     0
 76
     0
 77
     3
 78
     9
170
     0
171
     2
172
     1
173
     0
174
     0
175
     0
176
   256
177
   256
178
    40
  0
DIMSTYLE
  2
BIGT$SF
 70
     0
  3

  4

  5
OPEN
  6

  7

 40
1.0
 41
2.2299999999999991
 42
0.5
 43
7.0
 44
1.0
 45
0.0
 46
0.0
 47
0.0
 48
0.0
140
2.7999999999999989
141
0.0
142
0.0
143
25.399999999999999
144
1.0
145
0.0
146
1.0
147
1.0
 71
     0
 72
     0
 73
     0
 74
     0
 75
     0
 76
     0
 77
     3
 78
     9
170
     0
171
     2
172
     1
173
     0
174
     0
175
     0
176
   256
177
   256
178
    40
  0
DIMSTYLE
  2
TECHNICAL_OSAKA
 70
     0
  3

  4
"
  5
OPEN30
  6

  7

 40
1.0
 41
2.5
 42
1.0
 43
10.0
 44
1.0
 45
0.0
 46
0.0
 47
0.1
 48
0.1
140
2.7999999999999989
141
0.0
142
0.0
143
0.0393701
144
1.0
145
0.0
146
0.71
147
1.5
 71
     0
 72
     0
 73
     0
 74
     0
 75
     0
 76
     0
 77
     3
 78
     8
170
     0
171
     2
172
     1
173
     0
174
     0
175
     0
176
   256
177
   256
178
    40
  0
DIMSTYLE
  2
TECHNICAL_OSAKA$3
 70
     0
  3

  4
"
  5
OPEN30
  6

  7

 40
1.0
 41
2.5
 42
1.0
 43
10.0
 44
1.0
 45
0.0
 46
0.0
 47
0.1
 48
0.1
140
2.7999999999999989
141
0.0
142
0.0
143
0.0393701
144
1.0
145
0.0
146
0.71
147
1.5
 71
     0
 72
     0
 73
     0
 74
     1
 75
     0
 76
     0
 77
     3
 78
     8
170
     0
171
     2
172
     0
173
     0
174
     0
175
     0
176
   256
177
   256
178
    40
  0
DIMSTYLE
  2
TECHNICAL_OSAKA$4
 70
     0
  3

  4
"
  5
OPEN30
  6

  7

 40
1.0
 41
2.5
 42
1.0
 43
10.0
 44
1.0
 45
0.0
 46
0.0
 47
0.1
 48
0.1
140
2.7999999999999989
141
0.0
142
0.0
143
0.0393701
144
1.0
145
0.0
146
0.71
147
1.5
 71
     0
 72
     0
 73
     0
 74
     1
 75
     0
 76
     0
 77
     3
 78
     8
170
     0
171
     2
172
     0
173
     0
174
     0
175
     0
176
   256
177
   256
178
    40
  0
DIMSTYLE
  2
TECHNICAL_OSAKA$6
 70
     0
  3

  4
"
  5
OPEN30
  6

  7

 40
1.0
 41
2.5
 42
1.0
 43
10.0
 44
1.0
 45
0.0
 46
0.0
 47
0.1
 48
0.1
140
2.7999999999999989
141
0.0
142
0.0
143
0.0393701
144
1.0
145
0.0
146
0.71
147
1.5
 71
     0
 72
     0
 73
     0
 74
     0
 75
     0
 76
     0
 77
     0
 78
     8
170
     0
171
     2
172
     1
173
     0
174
     0
175
     0
176
   256
177
   256
178
    40
  0
DIMSTYLE
  2
TECHNICAL_OSAKA$7
 70
     0
  3

  4
"
  5
OPEN30
  6

  7

 40
1.0
 41
2.5
 42
1.0
 43
10.0
 44
1.0
 45
0.0
 46
0.0
 47
0.1
 48
0.1
140
2.7999999999999989
141
0.0
142
0.0
143
0.0393701
144
1.0
145
0.0
146
0.71
147
1.5
 71
     0
 72
     0
 73
     0
 74
     0
 75
     0
 76
     0
 77
     3
 78
     8
170
     0
171
     2
172
     1
173
     0
174
     0
175
     0
176
   256
177
   256
178
    40
  0
DIMSTYLE
  2
TECHNICAL_OSAKA$SF
 70
     0
  3

  4
"
  5
OPEN30
  6
OPEN30
  7
OPEN30
 40
1.0
 41
2.5
 42
1.0
 43
10.0
 44
1.0
 45
0.0
 46
0.0
 47
0.1
 48
0.1
140
3.5
141
0.0
142
0.0
143
0.0393701
144
1.0
145
0.0
146
0.71
147
1.5
 71
     0
 72
     0
 73
     0
 74
     0
 75
     1
 76
     1
 77
     3
 78
     8
170
     0
171
     2
172
     1
173
     0
174
     0
175
     0
176
   256
177
   256
178
    40
  0
DIMSTYLE
  2
TECHNICAL_OSAKA$SH
 70
     0
  3

  4
"
  5
OPEN30
  6
GENAXEH
  7
OPEN30
 40
1.0
 41
2.5
 42
1.0
 43
10.0
 44
1.0
 45
0.0
 46
0.0
 47
0.1
 48
0.1
140
3.5
141
0.0
142
0.0
143
0.0393701
144
2.0
145
0.0
146
0.71
147
1.5
 71
     0
 72
     0
 73
     0
 74
     0
 75
     1
 76
     1
 77
     3
 78
     8
170
     0
171
     2
172
     1
173
     1
174
     0
175
     0
176
   256
177
   256
178
    40
  0
ENDTAB
  0
ENDSEC
  0
SECTION
  2
BLOCKS
  0
BLOCK
  8
0
  2
$MODEL_SPACE
 70
     0
 10
0.0
 20
0.0
 30
0.0
  3
$MODEL_SPACE
  1

  0
ENDBLK
  5
1C
  8
0
  0
BLOCK
 67
     1
  8
0
  2
$PAPER_SPACE
 70
     0
 10
0.0
 20
0.0
 30
0.0
  3
$PAPER_SPACE
  1

  0
ENDBLK
  5
19
 67
     1
  8
0
  0
BLOCK
  8
0
  2
_OPEN
 70
     0
 10
0.0
 20
0.0
 30
0.0
  3
_OPEN
  1

  0
LINE
  5
4859
  8
0
  6
BYBLOCK
 62
     0
 10
-1.0
 20
0.1666666666666666
 30
0.0
 11
0.0
 21
0.0
 31
0.0
  0
LINE
  5
485A
  8
0
  6
BYBLOCK
 62
     0
 10
-1.0
 20
-0.1666666666666666
 30
0.0
 11
0.0
 21
0.0
 31
0.0
  0
LINE
  5
485B
  8
0
  6
BYBLOCK
 62
     0
 10
0.0
 20
0.0
 30
0.0
 11
-1.0
 21
0.0
 31
0.0
  0
ENDBLK
  5
485C
  8
0
  0
BLOCK
  8
0
  2
GENAXEH
 70
     0
 10
0.0
 20
0.0
 30
0.0
  3
GENAXEH
  1

  0
LINE
  5
4894
  8
0
 10
-1.0
 20
0.0
 30
0.0
 11
1.0
 21
0.0
 31
0.0
  0
ENDBLK
  5
4895
  8
0
  0
BLOCK
  8
0
  2
_OPEN30
 70
     0
 10
0.0
 20
0.0
 30
0.0
  3
_OPEN30
  1

  0
LINE
  5
48D0
  8
0
  6
BYBLOCK
 62
     0
 10
-1.0
 20
0.26794919
 30
0.0
 11
0.0
 21
0.0
 31
0.0
  0
LINE
  5
48D1
  8
0
  6
BYBLOCK
 62
     0
 10
0.0
 20
0.0
 30
0.0
 11
-1.0
 21
-0.26794919
 31
0.0
  0
LINE
  5
48D2
  8
0
  6
BYBLOCK
 62
     0
 10
0.0
 20
0.0
 30
0.0
 11
-1.0
 21
0.0
 31
0.0
  0
ENDBLK
  5
48D3
  8
0
  0
ENDSEC
  0
SECTION
  2
ENTITIES
  0
LINE
  5
435C
  8
245
 10
-67.450703158701145
 20
0.0000000000002786
 30
0.0
 11
143.27637759837839
 21
-0.0000000000002558
 31
0.0
  0
LINE
  5
435E
  8
241
 10
27.499999999999972
 20
28.499999999999769
 30
0.0
 11
27.499999999999972
 21
20.500000000000089
 31
0.0
  0
LINE
  5
435F
  8
241
 10
27.499999999999972
 20
-28.49999999999994
 30
0.0
 11
27.499999999999861
 21
-0.0000000000000853
 31
0.0
  0
LINE
  5
4361
  8
240
 10
26.999999999999972
 20
28.999999999999801
 30
0.0
 11
27.499999999999972
 21
28.499999999999801
 31
0.0
1001
GENIUS_GENFIL_13
1070
     0
1040
0.5
1040
0.5
1040
0.2500000000000284
1040
45.00000000000162
1002
{
1002
}
1001
GENIUS_GENOBJ-N-CHA_13
1002
{
1000
OWNER
1000
GEN
1002
}
1001
GENIUS_GENODEF_13
1002
{
1000
HIER
1070
     0
1002
}
1002
{
1000
MANEDIT
1070
     0
1002
}
1002
{
1000
NOSEL
1070
     0
1002
}
1002
{
1000
BEHIND
1070
     0
1002
}
1002
{
1000
OTHER
1070
     0
1002
}
1002
{
1000
REACTOR
1002
}
  0
LINE
  5
4362
  8
240
 10
26.999999999999972
 20
-28.999999999999972
 30
0.0
 11
27.499999999999972
 21
-28.499999999999972
 31
0.0
1001
GENIUS_GENFIL_13
1070
     0
1040
0.5
1040
0.5
1040
0.2500000000000284
1040
45.00000000000162
1002
{
1002
}
1001
GENIUS_GENOBJ-N-CHA_13
1002
{
1000
OWNER
1000
GEN
1002
}
1001
GENIUS_GENODEF_13
1002
{
1000
HIER
1070
     0
1002
}
1002
{
1000
MANEDIT
1070
     0
1002
}
1002
{
1000
NOSEL
1070
     0
1002
}
1002
{
1000
BEHIND
1070
     0
1002
}
1002
{
1000
OTHER
1070
     0
1002
}
1002
{
1000
REACTOR
1002
}
  0
LINE
  5
4366
  8
240
 10
26.99999999999994
 20
-30.500000000000028
 30
0.0
 11
26.99999999999994
 21
-29.0
 31
0.0
  0
LINE
  5
4367
  8
240
 10
-65.399999999999892
 20
0.0000000000003126
 30
0.0
 11
-65.399999999999949
 21
-10.9580111940609
 31
0.0
  0
ARC
  5
4368
  8
240
 10
25.99999999999994
 20
-30.500000000000028
 30
0.0
 40
1.0
 50
270.0
 51
0.0
  0
LINE
  5
4369
  8
240
 10
26.99999999999994
 20
30.499999999999972
 30
0.0
 11
26.999999999999918
 21
28.999999999999769
 31
0.0
  0
LINE
  5
436A
  8
241
 10
26.999999999999918
 20
28.999999999999861
 30
0.0
 11
27.0
 21
-28.99999999999995
 31
0.0
  0
LINE
  5
436B
  8
240
 10
-65.399999999999892
 20
-0.0000000000003695
 30
0.0
 11
-65.399999999999949
 21
10.958011194060839
 31
0.0
  0
ARC
  5
436C
  8
240
 10
25.99999999999994
 20
30.499999999999972
 30
0.0
 40
1.0
 50
0.0
 51
90.0
  0
LINE
  5
436D
  8
240
 10
-0.0000000000000568
 20
22.225000000000001
 30
0.0
 11
-63.688613786143399
 21
12.937077156187399
 31
0.0
  0
LINE
  5
436F
  8
240
 10
-0.0000000000000568
 20
-22.225000000000051
 30
0.0
 11
-63.688613786143399
 21
-12.937077156187479
 31
0.0
  0
LINE
  5
4374
  8
240
 10
0.9999999999999431
 20
31.000000000000028
 30
0.0
 11
0.9999999999999431
 21
22.225000000000001
 31
0.0
  0
LINE
  5
4375
  8
240
 10
0.9999999999999431
 20
-31.000000000000082
 30
0.0
 11
0.9999999999999431
 21
-22.225000000000069
 31
0.0
  0
ARC
  5
4377
  8
240
 10
1.4999999999999429
 20
31.000000000000028
 30
0.0
 40
0.5
 50
90.0
 51
180.0
  0
ARC
  5
4378
  8
240
 10
1.4999999999999429
 20
-31.000000000000082
 30
0.0
 40
0.5
 50
180.0
 51
270.0
  0
LINE
  5
4379
  8
241
 10
0.0000000000000568
 20
-22.225000000000051
 30
0.0
 11
-0.0000000000000568
 21
22.225000000000001
 31
0.0
  0
LINE
  5
437A
  8
241
 10
0.9999999999999431
 20
22.225000000000001
 30
0.0
 11
0.9999999999999431
 21
-22.225000000000069
 31
0.0
  0
LINE
  5
4394
  8
243
 10
22.99999999999994
 20
-22.500000000000028
 30
0.0
 11
0.9999999999999431
 21
-22.500000000000028
 31
0.0
  0
LINE
  5
4395
  8
243
 10
22.99999999999994
 20
-22.500000000000028
 30
0.0
 11
22.99999999999994
 21
-31.500000000000028
 31
0.0
  0
LINE
  5
4396
  8
243
 10
22.99999999999994
 20
22.499999999999972
 30
0.0
 11
22.99999999999994
 21
31.499999999999972
 31
0.0
  0
LINE
  5
4397
  8
243
 10
22.99999999999994
 20
22.499999999999972
 30
0.0
 11
0.9999999999999431
 21
22.499999999999829
 31
0.0
  0
ARC
  5
439D
  8
240
 10
-63.399999999999949
 20
10.958011194060839
 30
0.0
 40
2.0
 50
98.297144969836836
 51
180.0
  0
ARC
  5
439E
  8
240
 10
-63.399999999999949
 20
-10.9580111940609
 30
0.0
 40
2.0
 50
180.0
 51
261.70285503016322
  0
LINE
  5
43A0
  8
250
 10
-34.398026462734521
 20
-32.383772827718623
 30
0.0
 11
-53.398026462734521
 21
-32.383772827718623
 31
0.0
1001
ITEMNAME
1000
LNSP2
  0
LINE
  5
43A3
  8
241
 10
11.56550565266622
 20
-0.0000000000004263
 30
0.0
 11
11.56550565266474
 21
31.326794919240889
 31
0.0
  0
LINE
  5
43A4
  8
241
 10
14.452256998613731
 20
-0.0000000000003126
 30
0.0
 11
14.45225699861248
 21
26.555051025722349
 31
0.0
  0
LINE
  5
43A5
  8
241
 10
18.74774300138483
 20
-0.0000000000001421
 30
0.0
 11
18.747743001383579
 21
26.555051025720761
 31
0.0
  0
LINE
  5
43A6
  8
241
 10
21.63449434733355
 20
-0.0000000000000284
 30
0.0
 11
21.634494347332069
 21
31.326794919244261
 31
0.0
  0
LINE
  5
43A7
  8
240
 10
1.4999999999998861
 20
31.500000000000028
 30
0.0
 11
11.265505652666491
 21
31.499999999999581
 31
0.0
  0
LINE
  5
43A8
  8
240
 10
21.93449434733208
 20
31.500000000000028
 30
0.0
 11
25.99999999999989
 21
31.499999999999972
 31
0.0
  0
LINE
  5
43A9
  8
240
 10
11.26550565266586
 20
31.499999999999911
 30
0.0
 11
11.715505652665851
 21
31.240192378864581
 31
0.0
  0
LINE
  5
43AA
  8
240
 10
11.715505652665851
 20
31.240192378864581
 30
0.0
 11
14.365654458235319
 21
26.650000000000521
 31
0.0
  0
ARC
  5
43AB
  8
240
 10
18.574537920627961
 20
26.79999999999907
 30
0.0
 40
0.3
 50
269.99999999998039
 51
330.00000000000028
  0
ARC
  5
43AC
  8
240
 10
14.62546207937066
 20
26.800000000000491
 30
0.0
 40
0.3
 50
209.99999999999611
 51
269.99999999998039
  0
LINE
  5
43AD
  8
240
 10
18.57453792062784
 20
26.499999999999059
 30
0.0
 11
14.62546207937055
 21
26.50000000000048
 31
0.0
  0
LINE
  5
43AE
  8
240
 10
21.48449434733249
 20
31.240192378864919
 30
0.0
 11
18.834345541763302
 21
26.6499999999991
 31
0.0
  0
LINE
  5
43AF
  8
240
 10
21.48449434733249
 20
31.240192378864919
 30
0.0
 11
21.934494347332471
 21
31.500000000000259
 31
0.0
  0
LINE
  5
43B0
  8
240
 10
1.4999999999998861
 20
-31.500000000000089
 30
0.0
 11
11.265505652667059
 21
-31.500000000000089
 31
0.0
  0
LINE
  5
43B1
  8
240
 10
21.934494347331171
 20
-31.500000000000028
 30
0.0
 11
25.99999999999989
 21
-31.500000000000028
 31
0.0
  0
LINE
  5
43B2
  8
240
 10
21.48449434733271
 20
-31.240192378865551
 30
0.0
 11
21.934494347332699
 21
-31.500000000000881
 31
0.0
  0
ARC
  5
43B3
  8
240
 10
18.574537920628192
 20
-26.799999999999759
 30
0.0
 40
0.3
 50
29.99999999999973
 51
90.000000000019526
  0
ARC
  5
43B4
  8
240
 10
14.625462079370889
 20
-26.80000000000118
 30
0.0
 40
0.3
 50
90.000000000019526
 51
150.00000000000389
  0
LINE
  5
43B5
  8
240
 10
18.574537920628071
 20
-26.499999999999751
 30
0.0
 11
14.625462079370781
 21
-26.500000000001169
 31
0.0
  0
LINE
  5
43B6
  8
240
 10
11.265505652666089
 20
-31.500000000000661
 30
0.0
 11
11.71550565266608
 21
-31.24019237886532
 31
0.0
  0
LINE
  5
43B7
  8
240
 10
11.71550565266608
 20
-31.24019237886532
 30
0.0
 11
14.36565445823555
 21
-26.650000000001199
 31
0.0
  0
LINE
  5
43B8
  8
240
 10
21.48449434733271
 20
-31.240192378865551
 30
0.0
 11
18.834345541763518
 21
-26.649999999999778
 31
0.0
  0
LINE
  5
43B9
  8
241
 10
21.63449434733355
 20
-0.0000000000003695
 30
0.0
 11
21.63449434733355
 21
-31.326794919244691
 31
0.0
  0
LINE
  5
43BA
  8
241
 10
18.74774300138483
 20
-0.0000000000004263
 30
0.0
 11
18.74774300138483
 21
-26.555051025721269
 31
0.0
  0
LINE
  5
43BB
  8
241
 10
11.56550565266622
 20
-0.0000000000004263
 30
0.0
 11
11.56550565266622
 21
-31.326794919241738
 31
0.0
  0
LINE
  5
43BC
  8
241
 10
14.452256998613731
 20
-0.0000000000004263
 30
0.0
 11
14.452256998613731
 21
-26.555051025723088
 31
0.0
  0
LINE
  5
43BD
  8
241
 10
27.499999999999972
 20
-28.249999999999861
 30
0.0
 11
27.499999999999861
 21
0.0000000000001137
 31
0.0
  0
LINE
  5
43BE
  8
241
 10
55.999999999997918
 20
-15.249999999999829
 30
0.0
 11
55.999999999997918
 21
15.25000000000008
 31
0.0
  0
LINE
  5
43BF
  8
240
  6
CONTINUOUS
 10
55.49999999999951
 20
-15.499999999999879
 30
0.0
 11
55.749999999997812
 21
-15.49999999999986
 31
0.0
  0
LINE
  5
43C0
  8
240
 10
55.999999999997918
 20
-15.249999999999829
 30
0.0
 11
55.749999999997932
 21
-15.499999999999829
 31
0.0
  0
LINE
  5
43C1
  8
241
  6
CONTINUOUS
 10
38.499999999999567
 20
0.0
 30
0.0
 11
38.499999999999289
 21
-28.499999999999972
 31
0.0
  0
LINE
  5
43C2
  8
240
 10
37.999999999999289
 20
-28.999999999999972
 30
0.0
 11
38.499999999999289
 21
-28.499999999999972
 31
0.0
1001
GENIUS_GENFIL_13
1070
     0
1040
0.5
1040
0.5
1040
0.5
1040
44.999999999998373
1000
~T
  0
LINE
  5
43C3
  8
240
 10
37.999999999999922
 20
29.0
 30
0.0
 11
38.499999999999922
 21
28.5
 31
0.0
1001
GENIUS_GENFIL_13
1070
     0
1040
0.5
1040
0.5
1040
0.2500000000000284
1040
45.00000000000162
1002
{
1002
}
1001
GENIUS_GENODEF_13
1002
{
1000
HIER
1070
     0
1002
}
1002
{
1000
MANEDIT
1070
     0
1002
}
1002
{
1000
NOSEL
1070
     0
1002
}
1002
{
1000
BEHIND
1070
     0
1002
}
1002
{
1000
OTHER
1070
     0
1002
}
1002
{
1000
REACTOR
1002
}
1001
GENIUS_GENOBJ-N-CHA_13
1002
{
1000
OWNER
1000
GEN
1002
}
  0
LINE
  5
43C4
  8
240
 10
27.999999999999918
 20
29.0
 30
0.0
 11
37.999999999999922
 21
29.0
 31
0.0
  0
LINE
  5
43C5
  8
240
 10
27.499999999999801
 20
28.49999999999989
 30
0.0
 11
27.999999999999918
 21
29.0
 31
0.0
1001
GENIUS_GENFIL_13
1070
     0
1040
0.5
1040
0.5
1040
0.2500000000000284
1040
45.00000000000162
1002
{
1002
}
1001
GENIUS_GENOBJ-N-CHA_13
1002
{
1000
OWNER
1000
GEN
1002
}
1001
GENIUS_GENODEF_13
1002
{
1000
HIER
1070
     0
1002
}
1002
{
1000
MANEDIT
1070
     0
1002
}
1002
{
1000
NOSEL
1070
     0
1002
}
1002
{
1000
BEHIND
1070
     0
1002
}
1002
{
1000
OTHER
1070
     0
1002
}
1002
{
1000
REACTOR
1002
}
  0
LINE
  5
43C6
  8
241
  6
CONTINUOUS
 10
27.499999999999751
 20
28.499999999999829
 30
0.0
 11
27.499999999999972
 21
-28.5
 31
0.0
  0
LINE
  5
43C7
  8
240
 10
27.999999999999918
 20
-28.999999999999972
 30
0.0
 11
37.999999999999289
 21
-28.999999999999972
 31
0.0
  0
LINE
  5
43C8
  8
240
 10
27.499999999999801
 20
-28.499999999999861
 30
0.0
 11
27.999999999999918
 21
-28.999999999999972
 31
0.0
1001
GENIUS_GENFIL_13
1070
     0
1040
0.4999999999999858
1040
0.5000000000000285
1040
0.4999999999999858
1040
45.00000000000081
1002
{
1002
}
1001
GENIUS_GENOREF_13
1005
0
  0
LINE
  5
43C9
  8
241
 10
38.499999999999517
 20
-4.4716781469930993
 30
0.0
 11
27.499999999999861
 21
-4.4716781469930993
 31
0.0
  0
LINE
  5
43CA
  8
241
 10
27.499999999999918
 20
-10.45399763419903
 30
0.0
 11
38.49999999999946
 21
-10.45399763419903
 31
0.0
  0
LINE
  5
43CB
  8
241
 10
38.49999999999941
 20
-18.19917137988682
 30
0.0
 11
27.499999999999918
 21
-18.19917137988682
 31
0.0
  0
LINE
  5
43CC
  8
241
 10
27.499999999999918
 20
-22.578533191629472
 30
0.0
 11
38.499999999999289
 21
-22.578533191629472
 31
0.0
  0
LINE
  5
43CD
  8
241
 10
38.499999999999289
 20
-27.0502113386232
 30
0.0
 11
27.499999999999972
 21
-27.0502113386232
 31
0.0
  0
LINE
  5
43CE
  8
241
 10
30.899999999999839
 20
24.366025403784189
 30
0.0
 11
30.899999999999778
 21
22.633974596215332
 31
0.0
  0
LINE
  5
43CF
  8
241
 10
30.899999999999778
 20
22.633974596215332
 30
0.0
 11
32.399999999999842
 21
21.767949192430869
 31
0.0
  0
LINE
  5
43D0
  8
241
 10
32.399999999999842
 20
21.767949192430869
 30
0.0
 11
33.899999999999778
 21
22.633974596215332
 31
0.0
  0
LINE
  5
43D1
  8
241
 10
33.899999999999778
 20
22.633974596215332
 30
0.0
 11
33.899999999999842
 21
24.366025403784189
 31
0.0
  0
LINE
  5
43D2
  8
241
 10
33.899999999999842
 20
24.366025403784189
 30
0.0
 11
32.399999999999778
 21
25.232050807568669
 31
0.0
  0
LINE
  5
43D3
  8
241
 10
32.399999999999778
 20
25.232050807568669
 30
0.0
 11
30.899999999999839
 21
24.366025403784189
 31
0.0
  0
LINE
  5
43D4
  8
241
 10
38.999999999999517
 20
-2.4839386683083831
 30
0.0
 11
40.99999999999951
 21
-2.4839386683083831
 31
0.0
  0
LINE
  5
43D5
  8
241
 10
38.999999999999517
 20
-4.9489730635076512
 30
0.0
 11
41.999999999999517
 21
-4.9489730635076512
 31
0.0
  0
LINE
  5
43D6
  8
241
 10
38.999999999999517
 20
-7.3763427854220254
 30
0.0
 11
40.99999999999951
 21
-7.3763427854220254
 31
0.0
  0
LINE
  5
43D7
  8
241
 10
38.999999999999517
 20
-9.7475740847817178
 30
0.0
 11
41.999999999999517
 21
-9.7475740847817178
 31
0.0
  0
LINE
  5
43D8
  8
241
 10
38.999999999999517
 20
-11.998787042390889
 30
0.0
 11
40.99999999999951
 21
-11.998787042390889
 31
0.0
  0
LINE
  5
43D9
  8
241
 10
38.999999999999517
 20
-14.25000000000014
 30
0.0
 11
41.999999999999517
 21
-14.25000000000014
 31
0.0
  0
LINE
  5
43DA
  8
241
 10
38.999999999999517
 20
-16.284723438033289
 30
0.0
 11
40.99999999999951
 21
-16.284723438033289
 31
0.0
  0
LINE
  5
43DB
  8
241
 10
38.999999999999517
 20
-18.18029009525608
 30
0.0
 11
41.999999999999453
 21
-18.18029009525608
 31
0.0
  0
LINE
  5
43DC
  8
241
 10
38.99999999999946
 20
-19.923358065341201
 30
0.0
 11
40.99999999999946
 21
-19.923358065341201
 31
0.0
  0
LINE
  5
43DD
  8
241
 10
38.99999999999946
 20
-21.832266628890949
 30
0.0
 11
41.999999999999453
 21
-21.832266628890949
 31
0.0
  0
LINE
  5
43DE
  8
241
 10
38.999999999999403
 20
-23.345833262236368
 30
0.0
 11
40.99999999999946
 21
-23.345833262236368
 31
0.0
  0
LINE
  5
43DF
  8
241
 10
38.999999999999403
 20
-24.681724007856619
 30
0.0
 11
41.999999999999403
 21
-24.681724007856619
 31
0.0
  0
LINE
  5
43E0
  8
241
 10
38.999999999999403
 20
-25.829771930544641
 30
0.0
 11
40.999999999999403
 21
-25.829771930544641
 31
0.0
  0
LINE
  5
43E1
  8
241
 10
38.999999999999403
 20
-26.679328989891619
 30
0.0
 11
41.999999999999403
 21
-26.679328989891619
 31
0.0
  0
LINE
  5
43E2
  8
241
 10
38.999999999999403
 20
-27.319773231159129
 30
0.0
 11
40.999999999999403
 21
-27.319773231159129
 31
0.0
  0
LINE
  5
43E3
  8
241
 10
38.999999999999403
 20
-28.067020960848051
 30
0.0
 11
41.999999999999403
 21
-28.067020960848051
 31
0.0
  0
LINE
  5
43E4
  8
241
 10
38.999999999999517
 20
-0.0000000000001137
 30
0.0
 11
41.999999999999517
 21
0.0
 31
0.0
  0
LINE
  5
43E5
  8
241
  6
CONTINUOUS
 10
38.499999999999567
 20
28.500000000000281
 30
0.0
 11
38.49999999999941
 21
-28.249999999999549
 31
0.0
  0
LINE
  5
43E6
  8
240
 10
38.749999999999631
 20
28.49999999999989
 30
0.0
 11
38.499999999999631
 21
28.249999999999879
 31
0.0
1001
GENIUS_GENFIL_13
1070
     0
1040
0.25
1040
0.25
1040
0.2500000000000284
1040
45.00000000000162
1002
{
1002
}
1001
GENIUS_GENODEF_13
1002
{
1000
HIER
1070
     0
1002
}
1002
{
1000
MANEDIT
1070
     0
1002
}
1002
{
1000
NOSEL
1070
     0
1002
}
1002
{
1000
BEHIND
1070
     0
1002
}
1002
{
1000
OTHER
1070
     0
1002
}
1002
{
1000
REACTOR
1002
}
1001
GENIUS_GENOBJ-N-CHA_13
1002
{
1000
OWNER
1000
GEN
1002
}
  0
LINE
  5
43E7
  8
240
 10
55.49999999999951
 20
22.671572875253901
 30
0.0
 11
55.49999999999951
 21
15.499999999999909
 31
0.0
  0
LINE
  5
43E8
  8
241
 10
55.499999999999538
 20
15.499999999999909
 30
0.0
 11
55.49999999999951
 21
-15.499999999999909
 31
0.0
  0
ARC
  5
43E9
  8
240
 10
53.49999999999951
 20
22.671572875253901
 30
0.0
 40
2.0
 50
0.0
 51
45.0
1001
GENIUS_GENOBJ-N-FIL_13
1002
{
1000
OWNER
1000
GEN
1002
}
1001
GENIUS_GENODEF_13
1002
{
1000
HIER
1070
     0
1002
}
1002
{
1000
MANEDIT
1070
     0
1002
}
1002
{
1000
NOSEL
1070
     0
1002
}
1002
{
1000
BEHIND
1070
     0
1002
}
1002
{
1000
OTHER
1070
     0
1002
}
1002
{
1000
REACTOR
1002
}
  0
LINE
  5
43EA
  8
240
 10
51.08578643762641
 20
27.91421356237322
 30
0.0
 11
54.914213562372623
 21
24.085786437627011
 31
0.0
1001
GENIUS_GENFIL_13
1070
     0
1040
5.0
1040
5.0
1040
0.2500000000000284
1040
45.00000000000162
1002
{
1002
}
1001
GENIUS_GENOBJ-N-CHA_13
1002
{
1000
OWNER
1000
GEN
1002
}
1001
GENIUS_GENODEF_13
1002
{
1000
HIER
1070
     0
1002
}
1002
{
1000
MANEDIT
1070
     0
1002
}
1002
{
1000
NOSEL
1070
     0
1002
}
1002
{
1000
BEHIND
1070
     0
1002
}
1002
{
1000
OTHER
1070
     0
1002
}
1002
{
1000
REACTOR
1002
}
  0
ARC
  5
43EB
  8
240
 10
49.671572875253297
 20
26.50000000000011
 30
0.0
 40
2.0
 50
45.0
 51
90.000000000001606
1001
GENIUS_GENFIL_13
1070
     0
1040
5.0
1040
5.0
1040
0.2500000000000284
1040
45.00000000000162
1002
{
1002
}
1001
GENIUS_GENOBJ-N-CHA_13
1002
{
1000
OWNER
1000
GEN
1002
}
1001
GENIUS_GENODEF_13
1002
{
1000
HIER
1070
     0
1002
}
1002
{
1000
MANEDIT
1070
     0
1002
}
1002
{
1000
NOSEL
1070
     0
1002
}
1002
{
1000
BEHIND
1070
     0
1002
}
1002
{
1000
OTHER
1070
     0
1002
}
1002
{
1000
REACTOR
1002
}
1001
GENIUS_GENOBJ-N-FIL_13
1002
{
1000
OWNER
1000
GEN
1002
}
  0
LINE
  5
43EC
  8
240
 10
38.749999999999631
 20
28.49999999999989
 30
0.0
 11
49.671572875253297
 21
28.500000000000121
 31
0.0
  0
LINE
  5
43ED
  8
240
 10
38.749999999999631
 20
-28.499999999999801
 30
0.0
 11
38.499999999999631
 21
-28.249999999999801
 31
0.0
1001
GENIUS_GENFIL_13
1070
     0
1040
0.25
1040
0.25
1040
0.2500000000000284
1040
45.00000000000162
1002
{
1002
}
1001
GENIUS_GENODEF_13
1002
{
1000
HIER
1070
     0
1002
}
1002
{
1000
MANEDIT
1070
     0
1002
}
1002
{
1000
NOSEL
1070
     0
1002
}
1002
{
1000
BEHIND
1070
     0
1002
}
1002
{
1000
OTHER
1070
     0
1002
}
1002
{
1000
REACTOR
1002
}
1001
GENIUS_GENOBJ-N-CHA_13
1002
{
1000
OWNER
1000
GEN
1002
}
  0
LINE
  5
43EE
  8
240
 10
55.49999999999951
 20
-22.671572875253901
 30
0.0
 11
55.499999999999581
 21
-15.499999999999879
 31
0.0
  0
ARC
  5
43EF
  8
240
 10
53.49999999999951
 20
-22.671572875253901
 30
0.0
 40
2.0
 50
315.0
 51
0.0
1001
GENIUS_GENODEF_13
1002
{
1000
HIER
1070
     0
1002
}
1002
{
1000
MANEDIT
1070
     0
1002
}
1002
{
1000
NOSEL
1070
     0
1002
}
1002
{
1000
BEHIND
1070
     0
1002
}
1002
{
1000
OTHER
1070
     0
1002
}
1002
{
1000
REACTOR
1002
}
1001
GENIUS_GENOBJ-N-FIL_13
1002
{
1000
OWNER
1000
GEN
1002
}
  0
LINE
  5
43F0
  8
240
 10
51.08578643762641
 20
-27.914213562373082
 30
0.0
 11
54.914213562372623
 21
-24.085786437627011
 31
0.0
1001
GENIUS_GENFIL_13
1070
     0
1040
5.0
1040
5.0
1040
0.2500000000000284
1040
45.00000000000162
1002
{
1002
}
1001
GENIUS_GENOBJ-N-CHA_13
1002
{
1000
OWNER
1000
GEN
1002
}
1001
GENIUS_GENODEF_13
1002
{
1000
HIER
1070
     0
1002
}
1002
{
1000
MANEDIT
1070
     0
1002
}
1002
{
1000
NOSEL
1070
     0
1002
}
1002
{
1000
BEHIND
1070
     0
1002
}
1002
{
1000
OTHER
1070
     0
1002
}
1002
{
1000
REACTOR
1002
}
  0
ARC
  5
43F1
  8
240
 10
49.671572875253361
 20
-26.499999999999972
 30
0.0
 40
2.0
 50
269.99999999999841
 51
315.0
1001
GENIUS_GENFIL_13
1070
     0
1040
5.0
1040
5.0
1040
0.2500000000000284
1040
45.00000000000162
1002
{
1002
}
1001
GENIUS_GENOBJ-N-CHA_13
1002
{
1000
OWNER
1000
GEN
1002
}
1001
GENIUS_GENOBJ-N-FIL_13
1002
{
1000
OWNER
1000
GEN
1002
}
1001
GENIUS_GENODEF_13
1002
{
1000
HIER
1070
     0
1002
}
1002
{
1000
MANEDIT
1070
     0
1002
}
1002
{
1000
NOSEL
1070
     0
1002
}
1002
{
1000
BEHIND
1070
     0
1002
}
1002
{
1000
OTHER
1070
     0
1002
}
1002
{
1000
REACTOR
1002
}
  0
LINE
  5
43F2
  8
240
 10
38.749999999999631
 20
-28.499999999999801
 30
0.0
 11
49.671572875253297
 21
-28.499999999999972
 31
0.0
  0
LINE
  5
43F3
  8
241
 10
50.49999999999951
 20
-28.320359442248868
 30
0.0
 11
50.499999999999488
 21
28.320359442249021
 31
0.0
  0
LINE
  5
43F4
  8
240
 10
113.5
 20
15.250000000000311
 30
0.0
 11
55.999999999997868
 21
15.25000000000005
 31
0.0
  0
LINE
  5
43F5
  8
240
 10
113.5
 20
-15.249999999999879
 30
0.0
 11
55.999999999997918
 21
-15.249999999999879
 31
0.0
  0
CIRCLE
  5
43F6
  8
241
 10
32.399999999999778
 20
23.499999999999769
 30
0.0
 40
3.5
  0
ARC
  5
43F8
  8
241
 10
32.399999999999778
 20
23.499999999999719
 30
0.0
 40
3.75
 50
180.0
 51
0.0
  0
LINE
  5
43F9
  8
241
 10
28.649999999999778
 20
27.249999999999719
 30
0.0
 11
28.649999999999778
 21
23.499999999999719
 31
0.0
  0
LINE
  5
43FA
  8
241
 10
36.149999999999778
 20
27.249999999999719
 30
0.0
 11
36.149999999999778
 21
23.499999999999719
 31
0.0
  0
LINE
  5
43FB
  8
241
 10
28.649999999999778
 20
27.249999999999719
 30
0.0
 11
36.149999999999778
 21
27.249999999999719
 31
0.0
  0
LINE
  5
43FC
  8
240
  6
CONTINUOUS
 10
55.49999999999951
 20
15.499999999999909
 30
0.0
 11
55.749999999997812
 21
15.499999999999879
 31
0.0
  0
LINE
  5
43FD
  8
240
 10
55.999999999997918
 20
15.24999999999986
 30
0.0
 11
55.749999999997932
 21
15.49999999999986
 31
0.0
  0
LINE
  5
43FE
  8
241
 10
38.499999999999517
 20
4.4716781469930993
 30
0.0
 11
27.499999999999861
 21
4.4716781469930993
 31
0.0
  0
LINE
  5
43FF
  8
241
 10
38.999999999999517
 20
2.4839386683083831
 30
0.0
 11
40.99999999999951
 21
2.4839386683083831
 31
0.0
  0
LINE
  5
4400
  8
241
 10
38.999999999999517
 20
4.9489730635076512
 30
0.0
 11
41.999999999999517
 21
4.9489730635076512
 31
0.0
  0
LINE
  5
4401
  8
241
 10
38.999999999999517
 20
7.3763427854220254
 30
0.0
 11
40.99999999999951
 21
7.3763427854220254
 31
0.0
  0
LINE
  5
4402
  8
241
 10
38.999999999999517
 20
9.7475740847817178
 30
0.0
 11
41.999999999999517
 21
9.7475740847817178
 31
0.0
  0
LINE
  5
4403
  8
241
 10
38.999999999999517
 20
11.998787042390889
 30
0.0
 11
40.99999999999951
 21
11.998787042390889
 31
0.0
  0
LINE
  5
4404
  8
241
 10
38.999999999999517
 20
14.25000000000014
 30
0.0
 11
41.999999999999517
 21
14.25000000000014
 31
0.0
  0
LINE
  5
4405
  8
241
 10
38.999999999999517
 20
16.284723438033289
 30
0.0
 11
40.99999999999951
 21
16.284723438033289
 31
0.0
  0
LINE
  5
4406
  8
241
 10
38.999999999999517
 20
18.18029009525608
 30
0.0
 11
41.999999999999453
 21
18.18029009525608
 31
0.0
  0
LINE
  5
4407
  8
241
 10
38.99999999999946
 20
19.923358065341201
 30
0.0
 11
40.99999999999946
 21
19.923358065341201
 31
0.0
  0
LINE
  5
4408
  8
241
 10
38.99999999999946
 20
21.832266628890949
 30
0.0
 11
41.999999999999453
 21
21.832266628890949
 31
0.0
  0
LINE
  5
4409
  8
241
 10
38.999999999999403
 20
23.345833262236368
 30
0.0
 11
40.99999999999946
 21
23.345833262236368
 31
0.0
  0
LINE
  5
440A
  8
241
 10
38.999999999999403
 20
24.681724007856619
 30
0.0
 11
41.999999999999403
 21
24.681724007856619
 31
0.0
  0
LINE
  5
440B
  8
241
 10
38.999999999999403
 20
25.829771930544641
 30
0.0
 11
40.999999999999403
 21
25.829771930544641
 31
0.0
  0
LINE
  5
440C
  8
241
 10
38.999999999999403
 20
26.679328989891619
 30
0.0
 11
41.999999999999403
 21
26.679328989891619
 31
0.0
  0
LINE
  5
440D
  8
241
 10
38.999999999999403
 20
27.319773231159129
 30
0.0
 11
40.999999999999403
 21
27.319773231159129
 31
0.0
  0
LINE
  5
440E
  8
241
 10
38.999999999999403
 20
28.067020960848051
 30
0.0
 11
41.999999999999403
 21
28.067020960848051
 31
0.0
  0
LINE
  5
4413
  8
240
 10
118.9999999999999
 20
-14.50000000000005
 30
0.0
 11
119.5
 21
-15.00000000000006
 31
0.0
  0
LINE
  5
4414
  8
240
 10
118.9999999999999
 20
14.499999999999909
 30
0.0
 11
119.5
 21
14.999999999999909
 31
0.0
  0
ARC
  5
4415
  8
240
 10
115.5
 20
-14.00000000000008
 30
0.0
 40
1.0
 50
90.0
 51
180.0
  0
LINE
  5
4416
  8
240
 10
115.5
 20
-13.00000000000008
 30
0.0
 11
118.9999999999999
 21
-13.00000000000008
 31
0.0
  0
ARC
  5
4417
  8
240
 10
115.5
 20
13.99999999999994
 30
0.0
 40
1.0
 50
180.0
 51
270.0
  0
LINE
  5
4418
  8
240
 10
115.5
 20
12.99999999999994
 30
0.0
 11
118.9999999999999
 21
12.99999999999994
 31
0.0
  0
LINE
  5
4419
  8
240
 10
119.4999999999998
 20
16.699999999999928
 30
0.0
 11
119.4999999999998
 21
14.999999999999879
 31
0.0
  0
ARC
  5
441A
  8
240
 10
120.2999999999999
 20
16.699999999999928
 30
0.0
 40
0.799999999999983
 50
90.0
 51
180.0
  0
LINE
  5
441B
  8
240
 10
119.4999999999998
 20
-16.700000000000038
 30
0.0
 11
119.4999999999998
 21
-15.00000000000003
 31
0.0
  0
ARC
  5
441C
  8
240
 10
120.2999999999999
 20
-16.700000000000038
 30
0.0
 40
0.8000000000000113
 50
180.0
 51
270.0
  0
LINE
  5
441D
  8
240
 10
120.2999999999999
 20
17.499999999999911
 30
0.0
 11
133.4186291501014
 21
17.499999999999911
 31
0.0
  0
ARC
  5
441E
  8
240
 10
133.4186291501014
 20
16.699999999999928
 30
0.0
 40
0.7999999999999984
 50
45.0
 51
90.0
  0
LINE
  5
441F
  8
240
 10
120.2999999999999
 20
-17.50000000000006
 30
0.0
 11
133.4186291501014
 21
-17.50000000000011
 31
0.0
  0
ARC
  5
4420
  8
240
 10
133.4186291501014
 20
-16.700000000000099
 30
0.0
 40
0.7999999999999972
 50
270.0
 51
314.99999999999881
  0
LINE
  5
4421
  8
240
 10
134.79497474683049
 20
16.455025253169339
 30
0.0
 11
133.9843145750506
 21
17.265685424949169
 31
0.0
  0
ARC
  5
4422
  8
240
 10
134.2999999999999
 20
15.960050506338741
 30
0.0
 40
0.7000000000000171
 50
0.0
 51
45.000000000001151
  0
LINE
  5
4423
  8
240
 10
134.99999999999989
 20
15.960050506338741
 30
0.0
 11
134.99999999999989
 21
-15.960050506338909
 31
0.0
  0
LINE
  5
4424
  8
240
 10
133.9843145750506
 20
-17.265685424949339
 30
0.0
 11
134.79497474683049
 21
-16.455025253169509
 31
0.0
  0
ARC
  5
4425
  8
240
 10
134.2999999999999
 20
-15.960050506338909
 30
0.0
 40
0.7000000000000137
 50
315.0
 51
0.0
  0
LINE
  5
4426
  8
240
 10
118.9999999999999
 20
-14.50000000000005
 30
0.0
 11
118.9999999999999
 21
-13.00000000000008
 31
0.0
  0
LINE
  5
4427
  8
240
 10
118.9999999999999
 20
14.499999999999909
 30
0.0
 11
118.9999999999999
 21
12.99999999999994
 31
0.0
  0
LINE
  5
4428
  8
241
 10
119.4999999999998
 20
14.999999999999879
 30
0.0
 11
119.5
 21
-0.0000000000000853
 31
0.0
  0
LINE
  5
4429
  8
241
 10
119.4999999999998
 20
-15.00000000000003
 30
0.0
 11
119.5
 21
-0.0000000000000568
 31
0.0
  0
LINE
  5
442A
  8
241
 10
116.5
 20
12.49999999999994
 30
0.0
 11
116.5
 21
-0.0000000000000568
 31
0.0
  0
LINE
  5
442B
  8
241
 10
116.5
 20
-12.50000000000008
 30
0.0
 11
116.5
 21
-0.0000000000000853
 31
0.0
  0
LINE
  5
442C
  8
241
 10
120.2999999999999
 20
17.499999999999911
 30
0.0
 11
120.2999999999999
 21
16.0561449249135
 31
0.0
  0
LINE
  5
442D
  8
241
 10
120.2999999999999
 20
14.05614492491352
 30
0.0
 11
120.2999999999999
 21
1.9999999999999141
 31
0.0
  0
LINE
  5
442E
  8
241
 10
120.2999999999999
 20
-2.000000000000056
 30
0.0
 11
120.2999999999999
 21
-14.056144924913641
 31
0.0
  0
LINE
  5
442F
  8
241
 10
120.2999999999999
 20
-16.056144924913639
 30
0.0
 11
120.2999999999999
 21
-17.50000000000006
 31
0.0
  0
LINE
  5
4430
  8
241
 10
133.4186291501014
 20
17.000946073793671
 30
0.0
 11
133.4186291501014
 21
-17.152317880794779
 31
0.0
  0
LINE
  5
4431
  8
241
 10
114.5
 20
13.99999999999994
 30
0.0
 11
114.5
 21
-0.0000000000000568
 31
0.0
  0
LINE
  5
4432
  8
241
 10
114.5
 20
-14.00000000000008
 30
0.0
 11
114.5
 21
-0.0000000000000853
 31
0.0
  0
LINE
  5
4433
  8
241
 10
118.9999999999999
 20
-13.00000000000008
 30
0.0
 11
118.9999999999999
 21
-0.0000000000000568
 31
0.0
  0
LINE
  5
4434
  8
241
 10
118.9999999999999
 20
12.99999999999994
 30
0.0
 11
118.9999999999999
 21
-0.0000000000000853
 31
0.0
  0
LINE
  5
4435
  8
241
 10
128.49999999999989
 20
1.9999999999999141
 30
0.0
 11
119.4999999999998
 21
1.9999999999999141
 31
0.0
  0
LINE
  5
4436
  8
241
 10
128.49999999999989
 20
-2.000000000000056
 30
0.0
 11
119.4999999999998
 21
-2.000000000000056
 31
0.0
  0
LINE
  5
4437
  8
241
 10
128.49999999999989
 20
1.9999999999999141
 30
0.0
 11
128.49999999999989
 21
-0.0000000000000853
 31
0.0
  0
LINE
  5
4438
  8
241
 10
128.49999999999989
 20
-2.000000000000056
 30
0.0
 11
128.49999999999989
 21
-0.0000000000000568
 31
0.0
  0
LINE
  5
4439
  8
241
 10
128.49999999999989
 20
-14.056144924913641
 30
0.0
 11
119.4999999999998
 21
-14.056144924913641
 31
0.0
  0
LINE
  5
443A
  8
241
 10
128.49999999999989
 20
-16.056144924913639
 30
0.0
 11
119.4999999999998
 21
-16.056144924913639
 31
0.0
  0
LINE
  5
443B
  8
241
 10
128.49999999999989
 20
-16.056144924913639
 30
0.0
 11
128.49999999999989
 21
-14.056144924913641
 31
0.0
  0
LINE
  5
443C
  8
241
 10
128.49999999999989
 20
16.0561449249135
 30
0.0
 11
119.4999999999998
 21
16.0561449249135
 31
0.0
  0
LINE
  5
443D
  8
241
 10
128.49999999999989
 20
14.05614492491352
 30
0.0
 11
119.4999999999998
 21
14.05614492491352
 31
0.0
  0
LINE
  5
443E
  8
241
 10
128.49999999999989
 20
16.0561449249135
 30
0.0
 11
128.49999999999989
 21
14.05614492491352
 31
0.0
  0
LINE
  5
443F
  8
242
 10
116.5
 20
12.49999999999994
 30
0.0
 11
115.9999999999999
 21
12.99999999999994
 31
0.0
  0
LINE
  5
4440
  8
242
 10
116.5
 20
-12.50000000000008
 30
0.0
 11
115.9999999999999
 21
-13.00000000000008
 31
0.0
  0
LINE
  5
4441
  8
242
 10
118.9999999999999
 20
12.49999999999994
 30
0.0
 11
116.5
 21
12.49999999999994
 31
0.0
  0
LINE
  5
4442
  8
242
 10
118.9999999999999
 20
-12.50000000000005
 30
0.0
 11
116.5
 21
-12.50000000000005
 31
0.0
  0
LINE
  5
4443
  8
246
 10
131.7999999999999
 20
10.24999999999994
 30
0.0
 11
132.0
 21
10.24999999999994
 31
0.0
  0
LINE
  5
4444
  8
246
 10
132.0
 20
10.24999999999994
 30
0.0
 11
134.99999999999989
 21
8.5179491924310753
 31
0.0
  0
LINE
  5
4445
  8
246
 10
129.39999999999989
 20
8.7499999999999432
 30
0.0
 11
131.7999999999999
 21
8.7499999999999432
 31
0.0
  0
LINE
  5
4446
  8
246
 10
131.7999999999999
 20
8.7499999999999432
 30
0.0
 11
131.7999999999999
 21
10.24999999999994
 31
0.0
  0
LINE
  5
4447
  8
246
 10
129.39999999999989
 20
10.24999999999994
 30
0.0
 11
129.39999999999989
 21
8.7499999999999432
 31
0.0
  0
LINE
  5
4448
  8
246
 10
129.39999999999989
 20
10.24999999999994
 30
0.0
 11
103.9999999999999
 21
7.580352424251771
 31
0.0
  0
LINE
  5
4449
  8
246
 10
103.9999999999999
 20
6.4999999999999432
 30
0.0
 11
134.99999999999989
 21
6.4999999999999432
 31
0.0
  0
LINE
  5
444A
  8
246
 10
131.7999999999999
 20
-10.25000000000008
 30
0.0
 11
132.0
 21
-10.25000000000008
 31
0.0
  0
LINE
  5
444B
  8
246
 10
129.39999999999989
 20
-10.25000000000008
 30
0.0
 11
103.9999999999999
 21
-7.5803524242518838
 31
0.0
  0
LINE
  5
444C
  8
246
 10
129.39999999999989
 20
-10.25000000000008
 30
0.0
 11
129.39999999999989
 21
-8.7500000000000853
 31
0.0
  0
LINE
  5
444D
  8
246
 10
129.39999999999989
 20
-8.7500000000000853
 30
0.0
 11
131.7999999999999
 21
-8.7500000000000853
 31
0.0
  0
LINE
  5
444E
  8
246
 10
131.7999999999999
 20
-8.7500000000000853
 30
0.0
 11
131.7999999999999
 21
-10.25000000000008
 31
0.0
  0
LINE
  5
444F
  8
246
 10
132.0
 20
-10.25000000000008
 30
0.0
 11
134.99999999999989
 21
-8.5179491924311872
 31
0.0
  0
LINE
  5
4450
  8
246
 10
103.9999999999999
 20
-6.5000000000000853
 30
0.0
 11
134.99999999999989
 21
-6.5000000000000853
 31
0.0
  0
LINE
  5
4451
  8
243
 10
118.9999999999999
 20
-13.00000000000008
 30
0.0
 11
126.4999999999999
 21
-13.00000000000006
 31
0.0
  0
LINE
  5
4452
  8
243
 10
127.0
 20
-12.50000000000005
 30
0.0
 11
126.4999999999999
 21
-13.00000000000006
 31
0.0
  0
LINE
  5
4453
  8
243
 10
118.9999999999999
 20
12.99999999999994
 30
0.0
 11
126.4999999999999
 21
12.99999999999994
 31
0.0
  0
LINE
  5
4454
  8
243
 10
127.0
 20
12.49999999999994
 30
0.0
 11
126.4999999999999
 21
12.99999999999994
 31
0.0
  0
LINE
  5
4459
  8
246
 10
84.999999999999986
 20
5.9999999999999432
 30
0.0
 11
81.309401076758448
 21
2.3094010767584621
 31
0.0
  0
LINE
  5
445A
  8
246
 10
84.999999999999986
 20
-6.0000000000000853
 30
0.0
 11
81.309401076758448
 21
-2.3094010767586042
 31
0.0
  0
LINE
  5
445B
  8
246
 10
77.39871747423544
 20
-2.3094010767586042
 30
0.0
 11
81.309401076758448
 21
-2.3094010767586042
 31
0.0
  0
LINE
  5
445C
  8
246
 10
77.39871747423544
 20
-1.154700538379358
 30
0.0
 11
81.309401076758448
 21
-1.154700538379358
 31
0.0
  0
LINE
  5
445D
  8
246
 10
77.39871747423544
 20
1.1547005383792159
 30
0.0
 11
81.309401076758448
 21
1.1547005383792159
 31
0.0
  0
LINE
  5
445E
  8
246
 10
76.999999999999972
 20
2.9999999999999432
 30
0.0
 11
76.999999999999972
 21
1.7725150303658379
 31
0.0
  0
LINE
  5
445F
  8
246
 10
77.39871747423544
 20
2.3094010767584621
 30
0.0
 11
76.999999999999915
 21
2.9999999999999432
 31
0.0
  0
LINE
  5
4460
  8
246
 10
77.39871747423544
 20
-2.3094010767586042
 30
0.0
 11
76.999999999999915
 21
-3.0000000000000848
 31
0.0
  0
LINE
  5
4461
  8
246
 10
76.999999999999972
 20
-3.0000000000000848
 30
0.0
 11
76.999999999999972
 21
-1.77251503036598
 31
0.0
  0
LINE
  5
4462
  8
246
 10
65.999999999999972
 20
-6.2500000000000853
 30
0.0
 11
69.999999999999972
 21
-6.2500000000000853
 31
0.0
  0
LINE
  5
4463
  8
246
 10
69.999999999999972
 20
-6.2500000000000853
 30
0.0
 11
70.749999999999972
 21
-7.0000000000000853
 31
0.0
  0
ARC
  5
4464
  8
246
 10
65.999999999999972
 20
5.2499999999999432
 30
0.0
 40
1.0
 50
90.0
 51
180.0
  0
LINE
  5
4465
  8
246
 10
65.999999999999972
 20
6.2499999999999432
 30
0.0
 11
69.999999999999972
 21
6.2499999999999432
 31
0.0
  0
LINE
  5
4466
  8
246
 10
69.999999999999972
 20
6.2499999999999432
 30
0.0
 11
70.749999999999972
 21
6.9999999999999432
 31
0.0
  0
LINE
  5
446A
  8
246
 10
77.39871747423544
 20
-2.3094010767586042
 30
0.0
 11
77.39871747423544
 21
2.3094010767584621
 31
0.0
  0
LINE
  5
446B
  8
246
 10
77.39871747423544
 20
2.3094010767584621
 30
0.0
 11
81.309401076758448
 21
2.3094010767584621
 31
0.0
  0
LINE
  5
446C
  8
246
 10
81.309401076758448
 20
-2.3094010767586042
 30
0.0
 11
81.309401076758448
 21
2.3094010767584621
 31
0.0
  0
LINE
  5
446E
  8
246
 10
103.9999999999999
 20
7.580352424251771
 30
0.0
 11
103.9999999999999
 21
-7.5803524242518838
 31
0.0
  0
LINE
  5
4471
  8
246
 10
84.299999999999926
 20
-7.0000000000000853
 30
0.0
 11
84.999999999999915
 21
-6.3000000000000682
 31
0.0
  0
LINE
  5
4472
  8
246
 10
84.999999999999915
 20
6.2999999999999536
 30
0.0
 11
84.999999999999915
 21
-6.3000000000000682
 31
0.0
  0
LINE
  5
4473
  8
246
 10
84.999999999999915
 20
6.2999999999999536
 30
0.0
 11
84.299999999999926
 21
6.9999999999999432
 31
0.0
  0
LINE
  5
4474
  8
246
 10
64.999999999999972
 20
-5.2500000000000853
 30
0.0
 11
64.999999999999972
 21
5.2499999999999432
 31
0.0
  0
ARC
  5
4475
  8
246
 10
65.999999999999972
 20
-5.2500000000000853
 30
0.0
 40
1.0
 50
180.0
 51
270.0
  0
LINE
  5
4476
  8
246
 10
76.999999999999972
 20
2.9999999999999432
 30
0.0
 11
64.999999999999972
 21
2.9999999999999432
 31
0.0
  0
LINE
  5
4477
  8
246
 10
76.999999999999972
 20
-3.0000000000000848
 30
0.0
 11
64.999999999999972
 21
-3.0000000000000848
 31
0.0
  0
LINE
  5
4478
  8
246
 10
70.749999999999972
 20
6.9999999999999432
 30
0.0
 11
84.299999999999926
 21
6.9999999999999432
 31
0.0
  0
LINE
  5
447A
  8
246
 10
70.749999999999972
 20
-7.0000000000000853
 30
0.0
 11
84.299999999999926
 21
-7.0000000000000853
 31
0.0
  0
LINE
  5
447C
  8
243
 10
127.0
 20
-12.50000000000005
 30
0.0
 11
127.0
 21
-9.9977498353624696
 31
0.0
  0
LINE
  5
447D
  8
243
 10
127.0
 20
12.49999999999994
 30
0.0
 11
127.0
 21
9.9977498353623275
 31
0.0
  0
LINE
  5
447E
  8
244
 10
118.9999999999999
 20
12.49999999999994
 30
0.0
 11
127.0
 21
12.49999999999994
 31
0.0
  0
LINE
  5
447F
  8
244
 10
118.9999999999999
 20
-12.50000000000005
 30
0.0
 11
127.0
 21
-12.50000000000005
 31
0.0
  0
LINE
  5
4484
  8
246
 10
70.399999999999949
 20
6.649999999999948
 30
0.0
 11
84.649999999999935
 21
6.649999999999948
 31
0.0
  0
LINE
  5
4486
  8
246
 10
70.399999999999949
 20
-6.6500000000000901
 30
0.0
 11
84.649999999999935
 21
-6.6500000000000901
 31
0.0
  0
LINE
  5
4488
  8
240
 10
114.5
 20
14.250000000000201
 30
0.0
 11
114.5
 21
14.000000000000201
 31
0.0
  0
ARC
  5
4489
  8
240
 10
113.5
 20
14.250000000000201
 30
0.0
 40
1.0
 50
0.0
 51
90.0
1001
GENIUS_GENODEF_13
1002
{
1000
HIER
1070
     0
1002
}
1002
{
1000
MANEDIT
1070
     0
1002
}
1002
{
1000
NOSEL
1070
     0
1002
}
1002
{
1000
BEHIND
1070
     0
1002
}
1002
{
1000
OTHER
1070
     0
1002
}
1002
{
1000
REACTOR
1002
}
1001
GENIUS_GENOBJ-N-FIL_13
1002
{
1000
OWNER
1000
GEN
1002
}
  0
LINE
  5
448A
  8
240
 10
114.5
 20
-14.249999999999799
 30
0.0
 11
114.5
 21
-13.999999999999829
 31
0.0
  0
ARC
  5
448B
  8
240
 10
113.5
 20
-14.249999999999799
 30
0.0
 40
1.0
 50
270.0
 51
0.0
1001
GENIUS_GENODEF_13
1002
{
1000
HIER
1070
     0
1002
}
1002
{
1000
MANEDIT
1070
     0
1002
}
1002
{
1000
NOSEL
1070
     0
1002
}
1002
{
1000
BEHIND
1070
     0
1002
}
1002
{
1000
OTHER
1070
     0
1002
}
1002
{
1000
REACTOR
1002
}
1001
GENIUS_GENOBJ-N-FIL_13
1002
{
1000
OWNER
1000
GEN
1002
}
  0
LINE
  5
448C
  8
241
 10
113.5
 20
15.250000000000201
 30
0.0
 11
113.5
 21
11.79823369687599
 31
0.0
  0
LINE
  5
448D
  8
241
 10
113.5
 20
-12.023412486272999
 30
0.0
 11
113.5
 21
-15.249999999999799
 31
0.0
  0
LINE
  5
4493
  8
250
 10
134.99999999999989
 20
-6.5000000000002842
 30
0.0
 11
150.18250214837201
 21
-6.5000000000002842
 31
0.0
  0
LINE
  5
4494
  8
250
 10
134.99999999999989
 20
6.4999999999997442
 30
0.0
 11
150.3316089574131
 21
6.4999999999997442
 31
0.0
  0
LINE
  5
459B
  8
250
 10
-0.0000000000075991
 20
22.724999999995241
 30
0.0
 11
-0.0000000000075974
 21
43.0
 31
0.0
  0
LINE
  5
459C
  8
250
 10
55.49999999999951
 20
23.171572875253901
 30
0.0
 11
55.49999999999951
 21
43.0
 31
0.0
  0
LINE
  5
459D
  8
250
 10
2.2299999999924021
 20
42.0
 30
0.0
 11
53.269999999999513
 21
42.0
 31
0.0
  0
LINE
  5
45A2
  8
250
 10
55.499999999991708
 20
23.171572875268179
 30
0.0
 11
55.499999999991708
 21
43.000000000027377
 31
0.0
  0
LINE
  5
45A3
  8
250
 10
134.99999999999449
 20
16.460050506380579
 30
0.0
 11
134.99999999999449
 21
43.000000000027377
 31
0.0
  0
LINE
  5
45A4
  8
250
 10
57.729999999991712
 20
42.000000000027377
 30
0.0
 11
132.7699999999945
 21
42.000000000027377
 31
0.0
  0
LINE
  5
45A8
  8
250
 10
-0.0000000000075991
 20
22.724999999995241
 30
0.0
 11
-0.000000000007597
 21
50.0
 31
0.0
  0
LINE
  5
45A9
  8
250
 10
134.99999999999449
 20
16.460050506380579
 30
0.0
 11
134.99999999999449
 21
50.0
 31
0.0
  0
LINE
  5
45AA
  8
250
 10
2.2299999999924021
 20
49.0
 30
0.0
 11
132.7699999999945
 21
49.0
 31
0.0
  0
LINE
  5
45AE
  8
250
 10
149.0
 20
-4.2700000000000893
 30
0.0
 11
149.0
 21
4.2699999999999401
 31
0.0
  0
LINE
  5
45B2
  8
250
 10
133.9186291501014
 20
-17.500000000000082
 30
0.0
 11
157.0
 21
-17.500000000000089
 31
0.0
  0
LINE
  5
45B3
  8
250
 10
133.9186291501014
 20
17.499999999999911
 30
0.0
 11
157.0
 21
17.499999999999911
 31
0.0
  0
LINE
  5
45B4
  8
250
 10
156.0
 20
-15.27000000000009
 30
0.0
 11
156.0
 21
15.269999999999911
 31
0.0
  0
LINE
  5
45B8
  8
250
 10
85.000000000002046
 20
-6.4999999999754987
 30
0.0
 11
85.000000000002046
 21
-42.999999999958249
 31
0.0
  0
LINE
  5
45B9
  8
250
 10
135.0000000000054
 20
-16.46005050629708
 30
0.0
 11
135.0000000000054
 21
-42.999999999958249
 31
0.0
  0
LINE
  5
45BA
  8
250
 10
87.230000000002036
 20
-41.999999999958241
 30
0.0
 11
132.77000000000541
 21
-41.999999999958241
 31
0.0
  0
TEXT
  5
45C0
  8
250
 10
-50.969455034163069
 20
-31.383772827718619
 30
0.0
 40
3.0
  1
BBT40
  7
YOKO
1001
ITEMNAME
1000
LNSP3
  0
LINE
  5
45C1
  8
250
 10
-27.432042467855752
 20
-20.318334623877
 30
0.0
 11
-34.398026462734521
 21
-32.383772827718623
 31
0.0
1001
ACAD
1000
DSTYLE
1002
{
1070
    78
1070
     8
1070
   140
1040
3.0
1002
}
  0
LINE
  5
45C2
  8
250
 10
-27.753915242928962
 20
-20.132501290543669
 30
0.0
 11
-26.317042467855739
 21
-18.387097973437701
 31
0.0
  0
LINE
  5
45C3
  8
250
 10
-27.110169692782531
 20
-20.504167957210338
 30
0.0
 11
-26.317042467855739
 21
-18.387097973437701
 31
0.0
  0
LINE
  5
45C4
  8
250
 10
-26.317042467855739
 20
-18.387097973437701
 30
0.0
 11
-27.432042467855752
 21
-20.318334623877
 31
0.0
  0
TEXT
  5
45C5
  8
250
 10
23.0833333333293
 20
43.0
 30
0.0
 40
2.7999999999999989
  1
55.5
  0
LINE
  5
45C6
  8
250
 10
53.269999999999513
 20
42.371666666666663
 30
0.0
 11
55.49999999999951
 21
42.0
 31
0.0
  0
LINE
  5
45C7
  8
250
 10
53.269999999999513
 20
41.62833333333333
 30
0.0
 11
55.49999999999951
 21
42.0
 31
0.0
  0
LINE
  5
45C8
  8
250
 10
55.49999999999951
 20
42.0
 30
0.0
 11
53.269999999999513
 21
42.0
 31
0.0
  0
LINE
  5
45C9
  8
250
 10
2.2299999999924021
 20
41.62833333333333
 30
0.0
 11
-0.0000000000075975
 21
42.0
 31
0.0
  0
LINE
  5
45CA
  8
250
 10
2.2299999999924021
 20
42.371666666666663
 30
0.0
 11
-0.0000000000075975
 21
42.0
 31
0.0
  0
LINE
  5
45CB
  8
250
 10
-0.0000000000075975
 20
42.0
 30
0.0
 11
2.2299999999924021
 21
42.0
 31
0.0
  0
TEXT
  5
45CC
  8
250
 10
90.583333333326422
 20
43.000000000027377
 30
0.0
 40
2.7999999999999989
  1
79.5
  0
LINE
  5
45CD
  8
250
 10
132.7699999999945
 20
42.371666666694047
 30
0.0
 11
134.99999999999449
 21
42.000000000027377
 31
0.0
  0
LINE
  5
45CE
  8
250
 10
132.7699999999945
 20
41.628333333360708
 30
0.0
 11
134.99999999999449
 21
42.000000000027377
 31
0.0
  0
LINE
  5
45CF
  8
250
 10
134.99999999999449
 20
42.000000000027377
 30
0.0
 11
132.7699999999945
 21
42.000000000027377
 31
0.0
  0
LINE
  5
45D0
  8
250
 10
57.729999999991712
 20
41.628333333360708
 30
0.0
 11
55.499999999991708
 21
42.000000000027377
 31
0.0
  0
LINE
  5
45D1
  8
250
 10
57.729999999991712
 20
42.371666666694047
 30
0.0
 11
55.499999999991708
 21
42.000000000027377
 31
0.0
  0
LINE
  5
45D2
  8
250
 10
55.499999999991708
 20
42.000000000027377
 30
0.0
 11
57.729999999991712
 21
42.000000000027377
 31
0.0
  0
TEXT
  5
45D3
  8
250
 10
63.299999999993439
 20
50.0
 30
0.0
 40
2.7999999999999989
  1
135
  0
LINE
  5
45D4
  8
250
 10
132.7699999999945
 20
49.37166666666667
 30
0.0
 11
134.99999999999449
 21
49.0
 31
0.0
  0
LINE
  5
45D5
  8
250
 10
132.7699999999945
 20
48.62833333333333
 30
0.0
 11
134.99999999999449
 21
49.0
 31
0.0
  0
LINE
  5
45D6
  8
250
 10
134.99999999999449
 20
49.0
 30
0.0
 11
132.7699999999945
 21
49.0
 31
0.0
  0
LINE
  5
45D7
  8
250
 10
2.2299999999924021
 20
48.62833333333333
 30
0.0
 11
-0.000000000007597
 21
49.0
 31
0.0
  0
LINE
  5
45D8
  8
250
 10
2.2299999999924021
 20
49.37166666666667
 30
0.0
 11
-0.000000000007597
 21
49.0
 31
0.0
  0
LINE
  5
45D9
  8
250
 10
-0.000000000007597
 20
49.0
 30
0.0
 11
2.2299999999924021
 21
49.0
 31
0.0
  0
TEXT
  5
45DA
  8
250
 10
147.99999999999989
 20
-9.4285714285714732
 30
0.0
 40
3.0
  1
MAX.\U+220513
 50
90.0
  0
LINE
  5
45DB
  8
250
 10
148.6283333333333
 20
4.2699999999999392
 30
0.0
 11
149.0
 21
6.4999999999999387
 31
0.0
  0
LINE
  5
45DC
  8
250
 10
149.37166666666661
 20
4.2699999999999392
 30
0.0
 11
149.0
 21
6.4999999999999387
 31
0.0
  0
LINE
  5
45DD
  8
250
 10
149.0
 20
6.4999999999999387
 30
0.0
 11
149.0
 21
4.2699999999999392
 31
0.0
  0
LINE
  5
45DE
  8
250
 10
149.37166666666661
 20
-4.2700000000000884
 30
0.0
 11
149.0
 21
-6.5000000000000879
 31
0.0
  0
LINE
  5
45DF
  8
250
 10
148.6283333333333
 20
-4.2700000000000884
 30
0.0
 11
149.0
 21
-6.5000000000000879
 31
0.0
  0
LINE
  5
45E0
  8
250
 10
149.0
 20
-6.5000000000000879
 30
0.0
 11
149.0
 21
-4.2700000000000884
 31
0.0
  0
TEXT
  5
45E1
  8
250
 10
155.0
 20
-4.214285714285781
 30
0.0
 40
3.0
  1
\U+220535
 50
90.0
  0
LINE
  5
45E2
  8
250
 10
155.6283333333333
 20
15.269999999999911
 30
0.0
 11
156.0
 21
17.499999999999911
 31
0.0
  0
LINE
  5
45E3
  8
250
 10
156.37166666666661
 20
15.269999999999911
 30
0.0
 11
156.0
 21
17.499999999999911
 31
0.0
  0
LINE
  5
45E4
  8
250
 10
156.0
 20
17.499999999999911
 30
0.0
 11
156.0
 21
15.269999999999911
 31
0.0
  0
LINE
  5
45E5
  8
250
 10
156.37166666666661
 20
-15.27000000000009
 30
0.0
 11
156.0
 21
-17.500000000000089
 31
0.0
  0
LINE
  5
45E6
  8
250
 10
155.6283333333333
 20
-15.27000000000009
 30
0.0
 11
156.0
 21
-17.500000000000089
 31
0.0
  0
LINE
  5
45E7
  8
250
 10
156.0
 20
-17.500000000000089
 30
0.0
 11
156.0
 21
-15.27000000000009
 31
0.0
  0
TEXT
  5
45E8
  8
250
 10
102.485714285718
 20
-40.999999999958249
 30
0.0
 40
3.0
  1
41ü`60
  0
LINE
  5
45E9
  8
250
 10
132.77000000000541
 20
-41.628333333291579
 30
0.0
 11
135.0000000000054
 21
-41.999999999958241
 31
0.0
  0
LINE
  5
45EA
  8
250
 10
132.77000000000541
 20
-42.371666666624911
 30
0.0
 11
135.0000000000054
 21
-41.999999999958241
 31
0.0
  0
LINE
  5
45EB
  8
250
 10
135.0000000000054
 20
-41.999999999958241
 30
0.0
 11
132.77000000000541
 21
-41.999999999958241
 31
0.0
  0
LINE
  5
45EC
  8
250
 10
87.230000000002036
 20
-42.371666666624911
 30
0.0
 11
85.000000000002046
 21
-41.999999999958241
 31
0.0
  0
LINE
  5
45ED
  8
250
 10
87.230000000002036
 20
-41.628333333291579
 30
0.0
 11
85.000000000002046
 21
-41.999999999958241
 31
0.0
  0
LINE
  5
45EE
  8
250
 10
85.000000000002046
 20
-41.999999999958241
 30
0.0
 11
87.230000000002036
 21
-41.999999999958241
 31
0.0
  0
LINE
  5
45EF
  8
240
 10
-0.0000000000000568
 20
22.225000000000001
 30
0.0
 11
0.9999999999999431
 21
22.225000000000001
 31
0.0
  0
LINE
  5
45F0
  8
240
 10
0.0000000000000568
 20
-22.225000000000069
 30
0.0
 11
0.9999999999999431
 21
-22.225000000000069
 31
0.0
  0
TEXT
  5
4641
  8
241
 10
-63.0
 20
63.000000000000107
 30
0.0
 40
5.0
  1
BBT40-NBS13-135NRA
  7
YOKO
 11
-63.0
 21
63.000000000000107
 31
0.0
 73
     1
  0
VIEWPORT
  5
22
 67
     1
  8
0
 10
261.51769911504419
 20
148.5
 30
0.0
 40
523.0353982300885
 41
297.0
 68
     1
 69
     1
1001
ACAD
1000
MVIEW
1002
{
1070
    16
1010
0.0
1020
0.0
1030
0.0
1010
0.0
1020
0.0
1030
1.0
1040
0.0
1040
297.0
1040
261.51769911504419
1040
148.5
1040
50.0
1040
0.0
1040
0.0
1070
     0
1070
   100
1070
     1
1070
     1
1070
     0
1070
     0
1070
     0
1070
     0
1040
0.0
1040
0.0
1040
0.0
1040
1.0
1040
1.0
1040
10.0
1040
10.0
1070
     0
1002
{
1002
}
1002
}
1001
GENIUS_GENODEF_13
1002
{
1000
HIER
1070
     0
1002
}
1002
{
1000
MANEDIT
1070
     0
1002
}
1002
{
1000
NOSEL
1070
     0
1002
}
1002
{
1000
BEHIND
1070
     0
1002
}
1002
{
1000
OTHER
1070
     0
1002
}
1002
{
1000
REACTOR
1002
}
1001
GENIUS_GENOBJ-N-SDF_13
1002
{
1000
OWNER
1000
GEN
1002
}
1001
GENIUS_GENSCREG_15
1000
PF
1040
1.0
1000
DF
1040
1.0
1000
MIN
1011
0.0
1021
0.0
1031
0.0
1021
0.0
1031
0.0
1000
MAX
1011
523.0353982300885
1021
0.0
1031
0.0
1021
297.0
1031
0.0
1000
FLAGS
1070
     4
  0
ENDSEC
  0
EOF
