  0
SECTION
  2
HEADER
  9
$ACADVER
  1
AC1009
  9
$INSBASE
 10
0.0
 20
0.0
 30
0.0
  9
$EXTMIN
 10
-68.142900348033322
 20
-31.717137360678748
 30
-0.0015258207003583
  9
$EXTMAX
 10
78.028853680833436
 20
75.016371174605865
 30
0.0000000349246037
  9
$LIMMIN
 10
0.0
 20
0.0
  9
$LIMMAX
 10
420.0
 20
297.0
  9
$ORTHOMODE
 70
     0
  9
$REGENMODE
 70
     1
  9
$FILLMODE
 70
     1
  9
$QTEXTMODE
 70
     0
  9
$MIRRTEXT
 70
     1
  9
$DRAGMODE
 70
     2
  9
$LTSCALE
 40
10.0
  9
$OSMODE
 70
  2597
  9
$ATTMODE
 70
     1
  9
$TEXTSIZE
 40
3.0
  9
$TRACEWID
 40
1.0
  9
$TEXTSTYLE
  7
YOKO
  9
$CLAYER
  8
240
  9
$CELTYPE
  6
BYLAYER
  9
$CECOLOR
 62
   256
  9
$DIMSCALE
 40
1.0
  9
$DIMASZ
 40
2.2299999999999991
  9
$DIMEXO
 40
0.5
  9
$DIMDLI
 40
2.5
  9
$DIMRND
 40
0.0
  9
$DIMDLE
 40
0.0
  9
$DIMEXE
 40
1.0
  9
$DIMTP
 40
0.0
  9
$DIMTM
 40
0.0
  9
$DIMTXT
 40
3.0
  9
$DIMCEN
 40
0.0
  9
$DIMTSZ
 40
0.0
  9
$DIMTOL
 70
     0
  9
$DIMLIM
 70
     0
  9
$DIMTIH
 70
     0
  9
$DIMTOH
 70
     0
  9
$DIMSE1
 70
     0
  9
$DIMSE2
 70
     0
  9
$DIMTAD
 70
     3
  9
$DIMZIN
 70
     8
  9
$DIMBLK
  1
OPEN
  9
$DIMASO
 70
     1
  9
$DIMSHO
 70
     1
  9
$DIMPOST
  1

  9
$DIMAPOST
  1

  9
$DIMALT
 70
     0
  9
$DIMALTD
 70
     2
  9
$DIMALTF
 40
25.399999999999999
  9
$DIMLFAC
 40
1.0
  9
$DIMTOFL
 70
     1
  9
$DIMTVP
 40
0.0
  9
$DIMTIX
 70
     0
  9
$DIMSOXD
 70
     0
  9
$DIMSAH
 70
     0
  9
$DIMBLK1
  1

  9
$DIMBLK2
  1

  9
$DIMSTYLE
  2
BIGT
  9
$DIMCLRD
 70
   256
  9
$DIMCLRE
 70
   256
  9
$DIMCLRT
 70
    40
  9
$DIMTFAC
 40
1.0
  9
$DIMGAP
 40
1.0
  9
$LUNITS
 70
     2
  9
$LUPREC
 70
     3
  9
$SKETCHINC
 40
1.0
  9
$FILLETRAD
 40
0.0
  9
$AUNITS
 70
     0
  9
$AUPREC
 70
     3
  9
$MENU
  1
.
  9
$ELEVATION
 40
0.0
  9
$PELEVATION
 40
0.0
  9
$THICKNESS
 40
0.0
  9
$LIMCHECK
 70
     0
  9
$BLIPMODE
 70
     0
  9
$CHAMFERA
 40
10.0
  9
$CHAMFERB
 40
10.0
  9
$SKPOLY
 70
     0
  9
$TDCREATE
 40
2453026.4925414119
  9
$TDUPDATE
 40
2453601.777091065
  9
$TDINDWG
 40
0.0172370602
  9
$TDUSRTIMER
 40
0.017236875
  9
$USRTIMER
 70
     1
  9
$ANGBASE
 50
0.0
  9
$ANGDIR
 70
     0
  9
$PDMODE
 70
    35
  9
$PDSIZE
 40
2.0
  9
$PLINEWID
 40
0.0
  9
$COORDS
 70
     0
  9
$SPLFRAME
 70
     0
  9
$SPLINETYPE
 70
     6
  9
$SPLINESEGS
 70
     8
  9
$ATTDIA
 70
     1
  9
$ATTREQ
 70
     1
  9
$HANDLING
 70
     1
  9
$HANDSEED
  5
DEC
  9
$SURFTAB1
 70
     6
  9
$SURFTAB2
 70
     6
  9
$SURFTYPE
 70
     6
  9
$SURFU
 70
     6
  9
$SURFV
 70
     6
  9
$UCSNAME
  2

  9
$UCSORG
 10
0.0
 20
0.0
 30
0.0
  9
$UCSXDIR
 10
1.0
 20
0.0
 30
0.0
  9
$UCSYDIR
 10
0.0
 20
1.0
 30
0.0
  9
$PUCSNAME
  2

  9
$PUCSORG
 10
0.0
 20
0.0
 30
0.0
  9
$PUCSXDIR
 10
1.0
 20
0.0
 30
0.0
  9
$PUCSYDIR
 10
0.0
 20
1.0
 30
0.0
  9
$USERI1
 70
     1
  9
$USERI2
 70
     0
  9
$USERI3
 70
     0
  9
$USERI4
 70
     0
  9
$USERI5
 70
     0
  9
$USERR1
 40
0.0
  9
$USERR2
 40
0.0
  9
$USERR3
 40
0.0
  9
$USERR4
 40
0.0
  9
$USERR5
 40
0.0
  9
$WORLDVIEW
 70
     1
  9
$SHADEDGE
 70
     3
  9
$SHADEDIF
 70
    70
  9
$TILEMODE
 70
     1
  9
$MAXACTVP
 70
    16
  9
$PLIMCHECK
 70
     0
  9
$PEXTMIN
 10
1.0000000000000000E+020
 20
1.0000000000000000E+020
 30
1.0000000000000000E+020
  9
$PEXTMAX
 10
-1.0000000000000000E+020
 20
-1.0000000000000000E+020
 30
-1.0000000000000000E+020
  9
$PLIMMIN
 10
0.0
 20
0.0
  9
$PLIMMAX
 10
420.0
 20
297.0
  9
$UNITMODE
 70
     0
  9
$VISRETAIN
 70
     0
  9
$PLINEGEN
 70
     0
  9
$PSLTSCALE
 70
     1
  0
ENDSEC
  0
SECTION
  2
TABLES
  0
TABLE
  2
VPORT
 70
     7
  0
VPORT
  2
*ACTIVE
 70
     0
 10
0.0
 20
0.0
 11
1.0
 21
1.0
 12
4.9429766664000612
 22
21.649616906963558
 13
0.0
 23
0.0
 14
7.0
 24
7.0
 15
7.0
 25
7.0
 16
0.0
 26
0.0
 36
1.0
 17
0.0
 27
0.0
 37
0.0
 40
107.5088124713762
 41
1.4630303030303029
 42
50.0
 43
0.0
 44
0.0
 50
0.0
 51
0.0
 71
     0
 72
  2000
 73
     1
 74
     0
 75
     0
 76
     0
 77
     0
 78
     0
  0
ENDTAB
  0
TABLE
  2
LTYPE
 70
    21
  0
LTYPE
  2
CONTINUOUS
 70
     0
  3
Solid line
 72
    65
 73
     0
 40
0.0
  0
LTYPE
  2
CENTER2
 70
     0
  3
___ _ ___ _ ___ _ ___ _ ___ _ ___ _ ___ _ ___ _
 72
    65
 73
     4
 40
1.125
 49
0.75
 49
-0.125
 49
0.125
 49
-0.125
  0
LTYPE
  2
HIDDEN2
 70
     0
  3
_ _ _ _ _ _ _ _ _ _ _ _ _ _ _ _ _ _ _ _ _ _ _ _
 72
    65
 73
     2
 40
0.1875
 49
0.125
 49
-0.0625
  0
LTYPE
  2
PHANTOM2
 70
     0
  3
___ _ _ ___ _ _ ___ _ _ ___ _ _ ___ _ _ ___ _ _
 72
    65
 73
     6
 40
1.25
 49
0.625
 49
-0.125
 49
0.125
 49
-0.125
 49
0.125
 49
-0.125
  0
LTYPE
  2
AMCONSTR
 70
     0
  3
_______________________
 72
    65
 73
     2
 40
9999.0
 49
9999.0
 49
0.0
  0
LTYPE
  2
HIDDEN
 70
     0
  3
Hidden __ __ __ __ __ __ __ __ __ __ __ __ __ _
 72
    65
 73
     2
 40
9.5249999999999986
 49
6.3499999999999979
 49
-3.174999999999998
  0
LTYPE
  2
CENTER
 70
     0
  3
____ _ ____ _ ____ _ ____ _ ____ _ ____ _ ____ 
 72
    65
 73
     4
 40
2.0
 49
1.25
 49
-0.25
 49
0.25
 49
-0.25
  0
LTYPE
  2
AMZIGZAG2
 70
     0
  3
/\/-/\/-/\/-/\/-/\/-/\/
 72
    65
 73
     2
 40
0.4401
 49
0.0001
 49
-0.4400000000000001
  0
LTYPE
  2
ACANSTGB
 70
     0
  3
__ . . __ . .
 72
    65
 73
     6
 40
0.35433070866
 49
0.15748031496
 49
-0.03937007874
 49
0.03937007874
 49
-0.03937007874
 49
0.03937007874
 49
-0.03937007874
  0
LTYPE
  2
ACANSTGL
 70
     0
  3
_ _ _ _ _
 72
    65
 73
     2
 40
0.11811023622
 49
0.07874015748
 49
-0.03937007874
  0
ENDTAB
  0
TABLE
  2
LAYER
 70
     9
  0
LAYER
  2
0
 70
     0
 62
     7
  6
CONTINUOUS
  0
LAYER
  2
240
 70
     0
 62
     4
  6
CONTINUOUS
  0
LAYER
  2
241
 70
     0
 62
   211
  6
CONTINUOUS
  0
LAYER
  2
243
 70
     0
 62
   211
  6
HIDDEN2
  0
LAYER
  2
245
 70
     0
 62
     2
  6
CENTER2
  0
LAYER
  2
246
 70
     0
 62
     3
  6
PHANTOM2
  0
LAYER
  2
247
 70
     0
 62
    60
  6
CONTINUOUS
  0
LAYER
  2
250
 70
     0
 62
     3
  6
CONTINUOUS
  0
LAYER
  2
DEFPOINTS
 70
     0
 62
     7
  6
CONTINUOUS
  0
ENDTAB
  0
TABLE
  2
STYLE
 70
     9
  0
STYLE
  2
STANDARD
 70
     0
 40
0.0
 41
1.0
 50
0.0
 71
     0
 42
3.0
  3
romans.shx
  4
BIGFONT.SHX
  0
STYLE
  2
YOKO
 70
     0
 40
0.0
 41
1.0
 50
0.0
 71
     0
 42
3.0
  3
romans.shx
  4
extfont.shx
  0
STYLE
  2

 70
     1
 40
0.0
 41
1.0
 50
0.0
 71
     0
 42
3.0
  3
ltypeshp.shx
  4

  0
STYLE
  2
ACANSTS
 70
     0
 40
1.0
 41
1.0
 50
0.0
 71
     0
 42
3.0
  3
romans.shx
  4
extfont.shx
  0
STYLE
  2
ACANSGDT
 70
     0
 40
0.0
 41
1.0
 50
0.0
 71
     0
 42
3.0
  3
amgdtans.shx
  4

  0
ENDTAB
  0
TABLE
  2
VIEW
 70
     0
  0
ENDTAB
  0
TABLE
  2
UCS
 70
     0
  0
ENDTAB
  0
TABLE
  2
APPID
 70
    31
  0
APPID
  2
ACAD
 70
     0
  0
APPID
  2
GLOBAL
 70
     0
  0
APPID
  2
DETAIL
 70
     0
  0
APPID
  2
GRPNAME
 70
     0
  0
APPID
  2
GPARA
 70
     0
  0
APPID
  2
ITEMNAME
 70
     0
  0
APPID
  2
HATCH_TYPE
 70
     0
  0
APPID
  2
HATCH_DISPLAY
 70
     0
  0
APPID
  2
HATCH_DISTANCE
 70
     0
  0
APPID
  2
MCAD_NO_VIS
 70
     0
  0
APPID
  2
ACAD_TEMP_GRAPHIC
 70
     0
  0
APPID
  2
ACATTRIBSERVICES
 70
     0
  0
APPID
  2
GENIUS_GENSCREG_15
 70
     0
  0
APPID
  2
GENIUS_GENODEF_13
 70
     0
  0
APPID
  2
GENIUS_GENOBJ-N-SDF_13
 70
     0
  0
APPID
  2
GENIUS_GENREC_14
 70
     0
  0
APPID
  2
GENIUS_GENOBJ-N-REC_13
 70
     0
  0
APPID
  2
GENIUS_GENDIMSH_14
 70
     0
  0
APPID
  2
GENIUS_GENOBJ-N-DIM_13
 70
     0
  0
APPID
  2
GENIUS_GENDIM_13
 70
     0
  0
APPID
  2
GENIUS_GENDTOL_13
 70
     0
  0
APPID
  2
GENIUS_GENOLIS_13
 70
     0
  0
APPID
  2
GENIUS_GENOENT_13
 70
     0
  0
APPID
  2
GENIUS_GENOBJ-F-FEM_13
 70
     0
  0
APPID
  2
GENIUS_GENOREF_13
 70
     0
  0
APPID
  2
GENIUS_GEFFEM_13
 70
     0
  0
APPID
  2
GENIUS_GEFFEMP_13
 70
     0
  0
APPID
  2
AD_DRAW
 70
     0
  0
APPID
  2
DESIGNERASSEMBLIES
 70
     0
  0
APPID
  2
ACADM_DIM_EDIT
 70
     0
  0
APPID
  2
AMDT_DM_ADJ
 70
     0
  0
ENDTAB
  0
TABLE
  2
DIMSTYLE
 70
    30
  0
DIMSTYLE
  2
STANDARD
 70
     0
  3

  4

  5

  6

  7

 40
1.0
 41
2.0
 42
2.0
 43
3.75
 44
2.0
 45
0.0
 46
0.0
 47
0.0
 48
0.0
140
4.0
141
0.09
142
0.0
143
25.399999999999999
144
1.0
145
0.0
146
1.0
147
1.0
 71
     0
 72
     0
 73
     1
 74
     1
 75
     0
 76
     0
 77
     0
 78
     8
170
     0
171
     2
172
     0
173
     1
174
     0
175
     0
176
   256
177
   256
178
   256
  0
DIMSTYLE
  2
BIGT
 70
     0
  3

  4

  5

  6

  7

 40
1.0
 41
2.2299999999999991
 42
0.5
 43
7.0
 44
1.0
 45
0.0
 46
0.0
 47
0.0
 48
0.01
140
2.799999999999998
141
0.0
142
0.0
143
25.399999999999999
144
1.0
145
0.0
146
1.0
147
1.0
 71
     0
 72
     0
 73
     0
 74
     0
 75
     0
 76
     0
 77
     3
 78
     9
170
     0
171
     2
172
     1
173
     0
174
     0
175
     0
176
   256
177
   256
178
    40
  0
DIMSTYLE
  2
AM_ANSI
 70
     0
  3

  4
mm
  5

  6

  7

 40
1.0
 41
0.1
 42
0.05
 43
0.5
 44
0.1
 45
0.0
 46
0.0
 47
0.1
 48
0.1
140
0.12
141
0.0
142
0.0
143
25.399999999999999
144
1.0
145
0.0
146
0.71
147
0.06
 71
     0
 72
     0
 73
     1
 74
     1
 75
     0
 76
     0
 77
     0
 78
     7
170
     0
171
     2
172
     0
173
     0
174
     0
175
     0
176
   256
177
   256
178
     2
  0
DIMSTYLE
  2
AM_ANSI$3
 70
     0
  3

  4
mm
  5

  6

  7

 40
1.0
 41
0.1
 42
0.05
 43
0.5
 44
0.1
 45
0.0
 46
0.0
 47
0.1
 48
0.1
140
0.12
141
0.0
142
0.0
143
25.399999999999999
144
1.0
145
0.0
146
0.71
147
0.06
 71
     0
 72
     0
 73
     1
 74
     1
 75
     0
 76
     0
 77
     0
 78
     7
170
     0
171
     2
172
     0
173
     0
174
     0
175
     0
176
   256
177
   256
178
     2
  0
DIMSTYLE
  2
AM_ANSI$4
 70
     0
  3

  4
mm
  5

  6

  7

 40
1.0
 41
0.1
 42
0.05
 43
0.5
 44
0.1
 45
0.0
 46
0.0
 47
0.1
 48
0.1
140
0.12
141
0.0
142
0.0
143
25.399999999999999
144
1.0
145
0.0
146
0.71
147
0.06
 71
     0
 72
     0
 73
     1
 74
     1
 75
     0
 76
     0
 77
     0
 78
     7
170
     0
171
     2
172
     0
173
     0
174
     0
175
     0
176
   256
177
   256
178
     2
  0
DIMSTYLE
  2
AM_ANSI$7
 70
     0
  3

  4
mm
  5

  6

  7

 40
1.0
 41
0.1
 42
0.05
 43
0.5
 44
0.1
 45
0.0
 46
0.0
 47
0.1
 48
0.1
140
0.24
141
0.0
142
0.0
143
25.399999999999999
144
1.0
145
0.0
146
0.71
147
0.06
 71
     0
 72
     0
 73
     1
 74
     1
 75
     0
 76
     0
 77
     0
 78
     7
170
     0
171
     2
172
     0
173
     0
174
     0
175
     0
176
   256
177
   256
178
     2
  0
DIMSTYLE
  2
AM_ANSI$SF
 70
     0
  3

  4
mm
  5

  6

  7

 40
1.0
 41
0.1
 42
0.05
 43
0.5
 44
0.1
 45
0.0
 46
0.0
 47
0.1
 48
0.1
140
0.12
141
0.0
142
0.0
143
25.399999999999999
144
1.0
145
0.0
146
0.71
147
0.06
 71
     0
 72
     0
 73
     1
 74
     1
 75
     1
 76
     1
 77
     0
 78
     7
170
     0
171
     2
172
     0
173
     0
174
     0
175
     0
176
   256
177
   256
178
     2
  0
DIMSTYLE
  2
AM_ANSI$SH
 70
     0
  3

  4
mm
  5

  6
GENAXEH
  7

 40
1.0
 41
0.1
 42
0.05
 43
0.5
 44
0.1
 45
0.0
 46
0.0
 47
0.1
 48
0.1
140
0.12
141
0.0
142
0.0
143
25.399999999999999
144
1.0
145
0.0
146
0.71
147
0.06
 71
     0
 72
     0
 73
     1
 74
     1
 75
     1
 76
     1
 77
     0
 78
     7
170
     0
171
     2
172
     0
173
     1
174
     0
175
     0
176
   256
177
   256
178
     2
  0
ENDTAB
  0
ENDSEC
  0
SECTION
  2
BLOCKS
  0
BLOCK
  8
0
  2
$MODEL_SPACE
 70
     0
 10
0.0
 20
0.0
 30
0.0
  3
$MODEL_SPACE
  1

  0
ENDBLK
  5
C5D
  8
0
  0
BLOCK
 67
     1
  8
0
  2
$PAPER_SPACE
 70
     0
 10
0.0
 20
0.0
 30
0.0
  3
$PAPER_SPACE
  1

  0
ENDBLK
  5
C59
 67
     1
  8
0
  0
BLOCK
  8
0
  2
_OPEN
 70
     0
 10
0.0
 20
0.0
 30
0.0
  3
_OPEN
  1

  0
LINE
  5
B54
  8
0
  6
BYBLOCK
 62
     0
 10
-1.0
 20
0.1666666666666666
 30
0.0
 11
0.0
 21
0.0
 31
0.0
  0
LINE
  5
B55
  8
0
  6
BYBLOCK
 62
     0
 10
-1.0
 20
-0.1666666666666666
 30
0.0
 11
0.0
 21
0.0
 31
0.0
  0
LINE
  5
B56
  8
0
  6
BYBLOCK
 62
     0
 10
0.0
 20
0.0
 30
0.0
 11
-1.0
 21
0.0
 31
0.0
  0
ENDBLK
  5
B57
  8
0
  0
BLOCK
  8
0
  2
A$C33773BBD
 70
     0
 10
0.0
 20
0.0
 30
0.0
  3
A$C33773BBD
  1

  0
LINE
  5
9CB
  8
245
 10
-68.12800500000003
 20
0.0000000000000142
 30
0.0
 11
61.281684650512382
 21
-0.000000000000009
 31
0.0
  0
LINE
  5
9CC
  8
240
 10
-0.0000000000000568
 20
-22.224999999999952
 30
0.0
 11
-64.544307000000003
 21
-12.81228900000001
 31
0.0
  0
LINE
  5
9CD
  8
240
 10
-0.0000000000002274
 20
22.22499999999998
 30
0.0
 11
-64.544307000000003
 21
12.81228800000004
 31
0.0
  0
LINE
  5
9CE
  8
240
 10
-65.399999999999977
 20
-11.822756000000011
 30
0.0
 11
-65.399999999999977
 21
11.822754999999979
 31
0.0
  0
ARC
  5
9CF
  8
240
 10
-64.399999999999963
 20
-11.822756000000011
 30
0.0
 40
1.0
 50
180.0
 51
261.7028549999996
  0
ARC
  5
9D0
  8
240
 10
-64.399999999999963
 20
11.822754999999979
 30
0.0
 40
1.0
 50
98.297145000000427
 51
180.0
  0
LINE
  5
9D1
  8
240
 10
27.0
 20
-30.499999999999989
 30
0.0
 11
27.0
 21
-11.11037599643771
 31
0.0
  0
LINE
  5
9D2
  8
241
 10
11.600000000000019
 20
-31.32679499999999
 30
0.0
 11
11.600000000000019
 21
0.0000000000000142
 31
0.0
  0
LINE
  5
9D3
  8
241
 10
14.48675099999997
 20
0.0000000000000142
 30
0.0
 11
14.48675099999997
 21
-26.499999999999989
 31
0.0
  0
LINE
  5
9D4
  8
241
 10
21.600000000000009
 20
-31.32679499999999
 30
0.0
 11
21.600000000000009
 21
0.0000000000000142
 31
0.0
  0
LINE
  5
9D5
  8
241
 10
18.713248000000011
 20
0.0000000000000142
 30
0.0
 11
18.713248000000011
 21
-26.499999999999989
 31
0.0
  0
LINE
  5
9D6
  8
247
 10
8.8480317345511121
 20
-28.149891361550431
 30
0.0
 11
8.8480317345511121
 21
-19.94519470627699
 31
0.0
1001
ACAD
1000
ASC_BOUNDS
1002
{
1070
    19
1005
9D8
1002
}
  0
LINE
  5
9D7
  8
247
 10
9.2522065288367248
 20
-28.149891361550431
 30
0.0
 11
9.2522065288367248
 21
-19.94519470627699
 31
0.0
1001
ACAD
1000
ASC_BOUNDS
1002
{
1070
    19
1005
9D8
1002
}
  0
INSERT
  5
9D8
  8
247
  6
CONTINUOUS
  2
*X16
 10
0.0
 20
0.0
 30
0.0
1001
ACAD
1000
HATCH
1002
{
1070
    19
1000
ANSI31
1040
0.1
1040
1.570796326794895
1000
ASC_BOUNDS
1070
     1
1070
     2
1070
    10
1005
A48
1005
A31
1005
A0C
1005
9D6
1005
9D7
1005
9EA
1005
9E9
1005
9ED
1005
9EE
1005
9F2
1000
ASC_SEEDPOINT
1011
25.002196525658292
1021
0.0
1031
-2.3248289244861364E+077
1021
-150.0717804759303
1031
0.0
1000
R14_HATCH_DATA
1000
9D8
1011
1.0
1021
0.0
1031
-2.3248289244861364E+077
1021
0.0
1031
0.0
1011
0.0
1021
0.0
1031
-2.3248289244861364E+077
1021
1.0
1031
0.0
1011
0.0
1021
0.0
1031
-2.3248289244861364E+077
1021
0.0
1031
1.0
1040
0.0
1010
0.0
1020
0.0
1030
1.0
1000
ANSI31
1070
     0
1070
     1
1071
        1
1071
       33
1071
       10
1070
     1
1040
5.0084011307608289
1040
-27.315220341042622
1040
5.4125759354483289
1040
-27.431110843972309
1070
     1
1040
5.0084011307608289
1040
-28.149891361550431
1040
5.0084011307608289
1040
-27.315220341042622
1070
     1
1040
5.4125759354483289
1040
-28.149891361550431
1040
5.4125759354483289
1040
-27.431110843972309
1070
     2
1040
7.1303035965811432
1040
-28.149891361550431
1040
1.7177276611328121
1040
3.1415926535897918
1040
6.2831853071795853
1070
     1
1070
     2
1040
7.1303035965811432
1040
-28.149891361550431
1040
2.1219024658203121
1040
3.1415926535897918
1040
6.2831853071795853
1070
     1
1070
     1
1040
9.2522065288367248
1040
-28.149891361550431
1040
9.2522065288367248
1040
-19.94519470627699
1070
     1
1040
8.8480317345511121
1040
-28.149891361550431
1040
8.8480317345511121
1040
-19.94519470627699
1070
     2
1040
7.1303035965811432
1040
-19.94519470627699
1040
2.1219024658203121
1040
0.0
1040
3.3993916414318441
1070
     1
1070
     2
1040
7.1303035965811432
1040
-19.94519470627699
1040
1.7177276611328121
1040
0.0
1040
3.388162935318594
1070
     1
1070
     1
1040
5.4645168534170789
1040
-20.364460453347309
1040
5.0785152665030173
1040
-20.486179813698872
1071
       10
1005
9F2
1005
9EE
1005
9ED
1005
9E9
1005
9EA
1005
9D7
1005
9D6
1005
A0C
1005
A31
1005
A48
1070
     0
1070
     1
1040
1.570796326794895
1040
0.1
1070
     0
1070
     1
1040
2.3561944901923431
1040
25.002196525658292
1040
-150.0717804759303
1040
-0.2245064030267288
1040
-0.2245064030267288
1070
     0
1071
        1
1040
25.002196525658292
1040
-150.0717804759303
1040
0.0
1002
}
  0
LINE
  5
9D9
  8
247
 10
8.2818253722031177
 20
-27.833399899912589
 30
0.0
 11
6.5717194103064571
 21
-26.123293938015991
 31
0.0
  0
LINE
  5
9DA
  8
247
 10
7.6522984039136741
 20
-27.65288573767657
 30
0.0
 11
6.2375127982338654
 21
-26.23810013199682
 31
0.0
  0
ARC
  5
9DB
  8
247
 10
7.5951015702139539
 20
-26.711475834206681
 30
0.0
 40
0.6062626242637637
 50
351.66285421114878
 51
156.3381921591137
  0
LINE
  5
9DC
  8
247
 10
8.6459443322073621
 20
-26.850480441756531
 30
0.0
 11
7.1629350790637432
 21
-25.36747118861285
 31
0.0
  0
ARC
  5
9DD
  8
247
 10
7.6355221024405182
 20
-26.26056335862074
 30
0.0
 40
1.0104217529296871
 50
0.0
 51
130.32984065416761
  0
LINE
  5
9DE
  8
240
 10
1.0
 20
-30.999999999999989
 30
0.0
 11
0.9999999999999431
 21
-22.22499999999993
 31
0.0
  0
LINE
  5
9DF
  8
247
 10
7.022771435624235
 20
-27.472371575440661
 30
0.0
 11
5.6079917882206001
 21
-26.057591928036921
 31
0.0
  0
LINE
  5
9E0
  8
247
 10
5.0084011307608289
 20
-27.105000004128328
 30
0.0
 11
5.0084011307609444
 21
-25.801150834548949
 31
0.0
  0
LINE
  5
9E1
  8
247
 10
6.393244467334795
 20
-27.291857413204639
 30
0.0
 11
5.0084011307609444
 21
-25.907014076630851
 31
0.0
  0
LINE
  5
9E2
  8
247
 10
7.173371062502893
 20
-26.27593278415884
 30
0.0
 11
5.7270401190365874
 21
-24.8296018406926
 31
0.0
  0
LINE
  5
9E3
  8
247
 10
5.4231400429929391
 20
-26.004587729608151
 30
0.0
 11
6.5782558350268232
 21
-26.335804438294758
 31
0.0
  0
ARC
  5
9E4
  8
247
 10
5.9784176102530173
 20
-26.247898563698872
 30
0.0
 40
0.6062452793121338
 50
351.66260168792923
 51
156.3381550951899
  0
LINE
  5
9E5
  8
247
 10
8.6459443322073621
 20
-26.40146763570306
 30
0.0
 11
7.503306042395363
 21
-25.258829345891058
 31
0.0
  0
LINE
  5
9E6
  8
243
 10
23.0
 20
-22.499999999999989
 30
0.0
 11
23.0
 21
-31.499999999999989
 31
0.0
  0
LINE
  5
9E7
  8
240
 10
1.5
 20
-31.499999999999989
 30
0.0
 11
11.30000000000001
 21
-31.499999999999989
 31
0.0
  0
ARC
  5
9E8
  8
240
 10
1.5
 20
-30.999999999999989
 30
0.0
 40
0.5
 50
180.0
 51
270.0
  0
ARC
  5
9E9
  8
247
 10
7.1303035965811432
 20
-28.149891361550431
 30
0.0
 40
1.7177276611328121
 50
180.0
 51
0.0
1001
ACAD
1000
ASC_BOUNDS
1002
{
1070
    19
1005
9D8
1002
}
  0
ARC
  5
9EA
  8
247
 10
7.1303035965811432
 20
-28.149891361550431
 30
0.0
 40
2.1219024658203121
 50
180.0
 51
0.0
1001
ACAD
1000
ASC_BOUNDS
1002
{
1070
    19
1005
9D8
1002
}
  0
LINE
  5
9EB
  8
247
 10
8.6459443322073621
 20
-27.93780945237074
 30
0.0
 11
5.4125759354495244
 21
-27.010654911355569
 31
0.0
  0
LINE
  5
9EC
  8
247
 10
5.763717499045355
 20
-27.11134325096873
 30
0.0
 11
5.0084011307609444
 21
-26.356026882684201
 31
0.0
  0
LINE
  5
9ED
  8
247
 10
5.4125759354483289
 20
-28.149891361550431
 30
0.0
 11
5.4125759354483289
 21
-27.431110843972309
 31
0.0
1001
ACAD
1000
ASC_BOUNDS
1002
{
1070
    19
1005
9D8
1002
}
  0
LINE
  5
9EE
  8
247
 10
5.0084011307608289
 20
-28.149891361550431
 30
0.0
 11
5.0084011307608289
 21
-27.315220341042622
 31
0.0
1001
ACAD
1000
ASC_BOUNDS
1002
{
1070
    19
1005
9D8
1002
}
  0
LINE
  5
9EF
  8
247
 10
5.4125759354483858
 20
-27.209214493425179
 30
0.0
 11
5.0084011307608289
 21
-26.805039688737679
 31
0.0
  0
LINE
  5
9F0
  8
247
 10
5.4125759354483289
 20
-27.220890507058702
 30
0.0
 11
5.4125759354495244
 21
-27.010654911355569
 31
0.0
  0
LINE
  5
9F1
  8
247
 10
5.0084011307608289
 20
-27.105000004128328
 30
0.0
 11
5.4125759354483289
 21
-27.220890507058702
 31
0.0
  0
LINE
  5
9F2
  8
247
 10
5.0084011307608289
 20
-27.315220341042622
 30
0.0
 11
5.4125759354483289
 21
-27.431110843972309
 31
0.0
1001
ACAD
1000
ASC_BOUNDS
1002
{
1070
    19
1005
9D8
1002
}
  0
LINE
  5
9F3
  8
247
 10
7.0398071796826098
 20
-26.46816017621564
 30
0.0
 11
8.1949572336048941
 21
-26.799382333835752
 31
0.0
  0
LINE
  5
9F4
  8
247
 10
8.6459443322073621
 20
-27.74850605386337
 30
0.0
 11
7.4965677899625121
 21
-26.599129511618571
 31
0.0
  0
LINE
  5
9F5
  8
247
 10
8.6459443322073621
 20
-27.93780945237074
 30
0.0
 11
8.6459443322073621
 21
-26.26056335862074
 31
0.0
  0
LINE
  5
9F6
  8
247
 10
8.6459443322073621
 20
-27.29949324781002
 30
0.0
 11
8.1260854570451784
 21
-26.77963437264771
 31
0.0
  0
LINE
  5
9F7
  8
240
 10
18.79985099999999
 20
-26.649999999999959
 30
0.0
 11
21.449999999999989
 21
-31.240193000000019
 31
0.0
  0
LINE
  5
9F8
  8
240
 10
18.540042999999969
 20
-26.499999999999989
 30
0.0
 11
14.659956000000021
 21
-26.499999999999989
 31
0.0
  0
LINE
  5
9F9
  8
240
 10
14.400148
 20
-26.649999999999959
 30
0.0
 11
11.75
 21
-31.240193000000019
 31
0.0
  0
LINE
  5
9FA
  8
240
 10
11.30000000000001
 20
-31.499999999999989
 30
0.0
 11
11.75
 21
-31.240193000000019
 31
0.0
  0
ARC
  5
9FB
  8
240
 10
14.659956000000021
 20
-26.800000000000001
 30
0.0
 40
0.3
 50
90.0
 51
149.99999999999869
  0
ARC
  5
9FC
  8
240
 10
18.540042999999969
 20
-26.800000000000001
 30
0.0
 40
0.3
 50
30.000000000001251
 51
90.0
  0
ARC
  5
9FD
  8
240
 10
26.0
 20
-30.499999999999989
 30
0.0
 40
1.0
 50
270.0
 51
0.0
  0
LINE
  5
9FE
  8
240
 10
21.900000000000031
 20
-31.499999999999989
 30
0.0
 11
26.0
 21
-31.499999999999989
 31
0.0
  0
LINE
  5
9FF
  8
240
 10
21.449999999999989
 20
-31.240193000000019
 30
0.0
 11
21.900000000000031
 21
-31.499999999999989
 31
0.0
  0
LINE
  5
A00
  8
240
  6
CONTINUOUS
 10
58.849999999999618
 20
4.9999999999999281
 30
0.0
 11
49.69999999999385
 21
4.9999999999998987
 31
0.0
1001
GRPNAME
1000
PASTMD01
  0
LINE
  5
A01
  8
246
 10
57.252146975983997
 20
2.836065155431541
 30
0.0
 11
47.023414471659031
 21
2.2999999999995122
 31
0.0
  0
LINE
  5
A02
  8
240
  6
CONTINUOUS
 10
58.849999999999618
 20
-5.0000000000000142
 30
0.0
 11
49.69999999999385
 21
-4.999999999999984
 31
0.0
1001
GRPNAME
1000
PASTMD01
  0
LINE
  5
A03
  8
246
 10
57.252146975983997
 20
-2.836065155431625
 30
0.0
 11
47.023414471659031
 21
-2.2999999999995979
 31
0.0
  0
LINE
  5
A04
  8
246
 10
40.200000000000088
 20
1.499999999997544
 30
0.0
 11
59.000000000000192
 21
1.4999999999994771
 31
0.0
1001
GRPNAME
1000
00000007
  0
LINE
  5
A05
  8
246
 10
40.200000000000088
 20
-1.499999999997629
 30
0.0
 11
59.000000000000192
 21
-1.499999999999561
 31
0.0
1001
GRPNAME
1000
00000007
  0
LINE
  5
A06
  8
243
 10
23.0
 20
-22.499999999999989
 30
0.0
 11
0.9999999999999715
 21
-22.499999999999918
 31
0.0
  0
LINE
  5
A07
  8
243
 10
23.0
 20
22.500000000000011
 30
0.0
 11
0.9999999999998577
 21
22.499999999999758
 31
0.0
  0
LINE
  5
A08
  8
240
 10
1.5
 20
31.5
 30
0.0
 11
11.30000000000001
 21
31.5
 31
0.0
  0
TEXT
  5
A09
  8
247
 10
8.7402258942948947
 20
-14.86078223841548
 30
0.0
 40
3.0
  1
BBT40-MEGA3S-60T
 50
90.0
 41
0.9
  7
YOKO
 11
8.7402258942948947
 21
-14.86078223841548
 31
0.0
 73
     1
  0
LINE
  5
A0A
  8
241
 10
0.0
 20
-22.224999999999952
 30
0.0
 11
0.0
 21
22.225000000000041
 31
0.0
  0
LINE
  5
A0B
  8
241
 10
1.000000000000085
 20
22.22499999999663
 30
0.0
 11
0.9999999999998864
 21
-22.225000000001799
 31
0.0
  0
ARC
  5
A0C
  8
247
 10
7.1303035965811432
 20
-19.94519470627699
 30
0.0
 40
2.1219024658203121
 50
0.0
 51
194.770793966094
1001
ACAD
1000
ASC_BOUNDS
1002
{
1070
    19
1005
9D8
1002
}
  0
LINE
  5
A0D
  8
240
 10
-0.0000000000000568
 20
-22.224999999999952
 30
0.0
 11
0.9999999999999431
 21
-22.22499999999993
 31
0.0
  0
INSERT
  5
A0E
  8
247
  6
CONTINUOUS
  2
*X17
 10
0.0
 20
0.0
 30
0.0
1001
ACAD
1000
HATCH
1002
{
1070
    19
1000
ANSI31
1040
0.1
1040
1.570796326794895
1000
ASC_BOUNDS
1070
     1
1070
     2
1070
    15
1005
A34
1005
A0F
1005
A28
1005
A10
1005
A54
1005
A53
1005
A4F
1005
A52
1005
A50
1005
A51
1005
A12
1005
A11
1005
A32
1005
A33
1005
A35
1000
ASC_SEEDPOINT
1011
25.002196525658292
1021
0.0
1031
-2.3248289244861364E+077
1021
-150.0717804759303
1031
0.0
1000
R14_HATCH_DATA
1000
A0E
1011
1.0
1021
0.0
1031
-2.3248289244861364E+077
1021
0.0
1031
0.0
1011
0.0
1021
0.0
1031
-2.3248289244861364E+077
1021
1.0
1031
0.0
1011
0.0
1021
0.0
1031
-2.3248289244861364E+077
1021
0.0
1031
1.0
1040
0.0
1010
0.0
1020
0.0
1030
1.0
1000
ANSI31
1070
     0
1070
     1
1071
        1
1071
       33
1071
       15
1070
     1
1040
5.5252926102530173
1040
-20.55719421799574
1040
5.1392910233389539
1040
-20.678913578347309
1070
     2
1040
7.1303035965811432
1040
-19.94519470627699
1040
1.7177324295043941
1040
3.5058809760360869
1040
3.8840897327625181
1070
     1
1070
     2
1040
5.8773739090811432
1040
-21.530796512917622
1040
0.4243833422660829
1040
1.6006435755206461
1040
4.4331083460772751
1070
     1
1070
     1
1040
7.6599972000967682
1040
-22.483448490456681
1040
5.7603847733389539
1040
-21.938740238503559
1070
     2
1040
7.7769710770498932
1040
-22.07550476487075
1040
0.4243830442428589
1040
4.433141065812503
1040
7.574733719402297
1070
     1
1070
     1
1040
7.8939449540030173
1040
-21.667561039284809
1040
6.9888393631827039
1040
-21.40802429612074
1070
     1
1040
6.9888393631827039
1040
-21.7443890422145
1040
6.9888393631827039
1040
-21.40802429612074
1070
     1
1040
6.9888393631827039
1040
-21.7443890422145
1040
6.5846645584952039
1040
-21.628498539284809
1070
     1
1040
6.5846645584952039
1040
-21.628498539284809
1040
6.5846645584952039
1040
-20.451206669167622
1070
     1
1040
8.6459443322073621
1040
-21.042271122292629
1040
6.5846645584952039
1040
-20.451206669167622
1070
     1
1040
8.4088685265433014
1040
-21.27936218674574
1040
8.6459443322073621
1040
-21.042271122292629
1070
     2
1040
7.3323909989248932
1040
-22.03210876877699
1040
1.313568115234375
1040
4.4331319489899519
1040
6.893420015368652
1070
     1
1070
     2
1040
7.4014522782217682
1040
-19.884495243386361
1040
3.43743896484375
1040
4.2796376880404052
1040
4.5866349702432849
1070
     1
1070
     2
1040
6.3219539872061432
1040
-21.74237488205824
1040
1.3135547637939451
1040
2.5035703051095641
1040
4.4331395182378071
1070
     1
1070
     2
1040
7.1303035965811432
1040
-19.94519470627699
1040
2.121903419494628
1040
3.4946665664545442
1040
3.6402626981642432
1070
     1
1071
       15
1005
A35
1005
A33
1005
A32
1005
A11
1005
A12
1005
A51
1005
A50
1005
A52
1005
A4F
1005
A53
1005
A54
1005
A10
1005
A28
1005
A0F
1005
A34
1070
     0
1070
     1
1040
1.570796326794895
1040
0.1
1070
     0
1070
     1
1040
2.3561944901923431
1040
25.002196525658292
1040
-150.0717804759303
1040
-0.2245064030267288
1040
-0.2245064030267288
1070
     0
1071
        1
1040
25.002196525658292
1040
-150.0717804759303
1040
0.0
1002
}
  0
ARC
  5
A0F
  8
247
 10
6.3219539872061432
 20
-21.74237488205824
 30
0.0
 40
1.3135547637939451
 50
143.44401219705779
 51
254.00018438768549
1001
ACAD
1000
ASC_BOUNDS
1002
{
1070
    19
1005
A0E
1002
}
  0
ARC
  5
A10
  8
247
 10
7.3323909989248932
 20
-22.03210876877699
 30
0.0
 40
1.313568115234375
 50
253.99975070172931
 51
34.963873291630833
1001
ACAD
1000
ASC_BOUNDS
1002
{
1070
    19
1005
A0E
1002
}
  0
LINE
  5
A11
  8
247
 10
7.6599972000967682
 20
-22.483448490456681
 30
0.0
 11
5.7603847733389539
 21
-21.938740238503559
 31
0.0
1001
ACAD
1000
ASC_BOUNDS
1002
{
1070
    19
1005
A0E
1002
}
  0
ARC
  5
A12
  8
247
 10
7.7769710770498932
 20
-22.07550476487075
 30
0.0
 40
0.4243830442428589
 50
254.0002730571841
 51
74.00027305718406
1001
ACAD
1000
ASC_BOUNDS
1002
{
1070
    19
1005
A0E
1002
}
  0
LINE
  5
A13
  8
247
 10
8.6459443322073621
 20
-25.036640629128559
 30
0.0
 11
5.4529812088858289
 21
-24.121067509011372
 31
0.0
  0
INSERT
  5
A14
  8
247
  6
CONTINUOUS
  2
*X18
 10
0.0
 20
0.0
 30
0.0
1001
ACAD
1000
HATCH
1002
{
1070
    19
1000
ANSI31
1040
0.1
1040
1.570796326794895
1000
R14_HATCH_DATA
1000
A14
1011
1.0
1021
0.0
1031
-2.3248289244861364E+077
1021
0.0
1031
0.0
1011
0.0
1021
0.0
1031
-2.3248289244861364E+077
1021
1.0
1031
0.0
1011
0.0
1021
0.0
1031
-2.3248289244861364E+077
1021
0.0
1031
1.0
1040
0.0
1010
0.0
1020
0.0
1030
1.0
1000
ANSI31
1070
     0
1070
     0
1071
        1
1071
        7
1070
     0
1070
     1
1071
        6
1040
5.0084011307608289
1040
-23.0896038859645
1040
5.0084011307608289
1040
-24.14075134690199
1040
5.4529812088858289
1040
-24.268238529519181
1040
5.4529812088858289
1040
-24.121067509011372
1040
8.6459443322073621
1040
-25.036640629128559
1040
8.6459443322073621
1040
-24.132648929909809
1071
        0
1070
     0
1070
     1
1040
1.570796326794895
1040
0.1
1070
     0
1070
     1
1040
2.3561944901923431
1040
25.002196525658292
1040
-150.0717804759303
1040
-0.2245064030267288
1040
-0.2245064030267288
1070
     0
1040
0.0134348504236232
1071
        1
1040
6.7319255174257924
1040
-24.034586150903358
1040
0.0
1002
}
  0
POLYLINE
  5
A15
  8
247
 66
     1
 10
0.0
 20
0.0
 30
0.0
 70
     1
  0
VERTEX
  5
A16
  8
247
 10
5.0084011307608289
 20
-24.14075134690199
 30
0.0
  0
VERTEX
  5
A17
  8
247
 10
5.4529812088858289
 20
-24.268238529519181
 30
0.0
  0
VERTEX
  5
A18
  8
247
 10
5.4529812088858289
 20
-24.121067509011372
 30
0.0
  0
VERTEX
  5
A19
  8
247
 10
8.6459443322073621
 20
-25.036640629128559
 30
0.0
  0
VERTEX
  5
A1A
  8
247
 10
8.6459443322073621
 20
-24.132648929909809
 30
0.0
  0
VERTEX
  5
A1B
  8
247
 10
5.0084011307608289
 20
-23.0896038859645
 30
0.0
  0
SEQEND
  5
A1C
  8
247
  0
POLYLINE
  5
A1D
  8
247
 66
     1
 10
0.0
 20
0.0
 30
0.0
 70
     1
1001
HATCH_DISTANCE
1040
1.0
1001
HATCH_DISPLAY
1070
     0
1001
HATCH_TYPE
1070
     7
  0
VERTEX
  5
A1E
  8
247
 10
5.0084011307608289
 20
-24.14075134690199
 30
0.0
  0
VERTEX
  5
A1F
  8
247
 10
5.4529812088858289
 20
-24.268238529519181
 30
0.0
  0
VERTEX
  5
A20
  8
247
 10
5.4529812088858289
 20
-24.121067509011372
 30
0.0
  0
VERTEX
  5
A21
  8
247
 10
8.6459443322073621
 20
-25.036640629128559
 30
0.0
  0
VERTEX
  5
A22
  8
247
 10
8.6459443322073621
 20
-24.132648929909809
 30
0.0
  0
VERTEX
  5
A23
  8
247
 10
5.0084011307608289
 20
-23.0896038859645
 30
0.0
  0
SEQEND
  5
A24
  8
247
  0
LINE
  5
A25
  8
247
 10
7.4656467354649854
 20
-26.119195651067571
 30
0.0
 11
6.1403405008897476
 21
-24.79388941649233
 31
0.0
  0
LINE
  5
A26
  8
247
 10
8.6459443322073621
 20
-24.132648929909809
 30
0.0
 11
5.0084011307608289
 21
-23.0896038859645
 31
0.0
  0
ARC
  5
A27
  8
247
 10
6.0188228836905182
 20
-25.796986088112931
 30
0.0
 40
1.010430335998534
 50
17.66957754739817
 51
180.23615984267161
  0
ARC
  5
A28
  8
247
 10
7.4014522782217682
 20
-19.884495243386361
 30
0.0
 40
3.43743896484375
 50
245.20517736984041
 51
262.79482596205207
1001
ACAD
1000
ASC_BOUNDS
1002
{
1070
    19
1005
A0E
1002
}
  0
LINE
  5
A29
  8
247
 10
5.4529812088858289
 20
-24.268238529519181
 30
0.0
 11
5.4529812088858289
 21
-24.121067509011372
 31
0.0
  0
LINE
  5
A2A
  8
247
 10
5.4529812088858289
 20
-24.268238529519181
 30
0.0
 11
5.0084011307608289
 21
-24.14075134690199
 31
0.0
  0
LINE
  5
A2B
  8
247
 10
5.70581316451654
 20
-25.706400498279439
 30
0.0
 11
5.2018370531258142
 21
-25.202424386888769
 31
0.0
  0
LINE
  5
A2C
  8
247
 10
5.4692447399941102
 20
-25.918844879810528
 30
0.0
 11
5.052408100481669
 21
-25.5020082402981
 31
0.0
  0
LINE
  5
A2D
  8
247
 10
6.1030222359359509
 20
-25.65459676364549
 30
0.0
 11
5.4266747191812783
 21
-24.978249246890758
 31
0.0
  0
LINE
  5
A2E
  8
247
 10
5.0084011307608289
 20
-24.14075134690199
 30
0.0
 11
5.0084011307608289
 21
-23.0896038859645
 31
0.0
  0
LINE
  5
A2F
  8
247
 10
8.6459443322073621
 20
-25.036640629128559
 30
0.0
 11
8.6459443322073621
 21
-24.132648929909809
 31
0.0
  0
LINE
  5
A30
  8
247
 10
8.5701875888577774
 20
-25.876698086299939
 30
0.0
 11
8.0193873747613225
 21
-25.325897872203541
 31
0.0
  0
ARC
  5
A31
  8
247
 10
7.1303035965811432
 20
-19.94519470627699
 30
0.0
 40
1.7177276611328121
 50
0.0
 51
194.127436496412
1001
ACAD
1000
ASC_BOUNDS
1002
{
1070
    19
1005
9D8
1002
}
  0
ARC
  5
A32
  8
247
 10
5.8773739090811432
 20
-21.530796512917622
 30
0.0
 40
0.4243833422660829
 50
91.710121382062695
 51
253.99839835444871
1001
ACAD
1000
ASC_BOUNDS
1002
{
1070
    19
1005
A0E
1002
}
  0
ARC
  5
A33
  8
247
 10
7.1303035965811432
 20
-19.94519470627699
 30
0.0
 40
1.7177324295043941
 50
200.8721834020736
 51
222.5419489373881
1001
ACAD
1000
ASC_BOUNDS
1002
{
1070
    19
1005
A0E
1002
}
  0
ARC
  5
A34
  8
247
 10
7.1303035965811432
 20
-19.94519470627699
 30
0.0
 40
2.121903419494628
 50
200.22964506332011
 51
208.57168892371669
1001
ACAD
1000
ASC_BOUNDS
1002
{
1070
    19
1005
A0E
1002
}
  0
LINE
  5
A35
  8
247
 10
5.5252926102530173
 20
-20.55719421799574
 30
0.0
 11
5.1392910233389539
 21
-20.678913578347309
 31
0.0
1001
ACAD
1000
ASC_BOUNDS
1002
{
1070
    19
1005
A0E
1002
}
  0
POLYLINE
  5
A36
  8
247
 66
     1
 10
0.0
 20
0.0
 30
0.0
 70
     1
1001
HATCH_DISTANCE
1040
1.0
1001
HATCH_DISPLAY
1070
     0
1001
HATCH_TYPE
1070
     7
  0
VERTEX
  5
A37
  8
247
 10
5.4645168534170789
 20
-20.364460453347309
 30
0.0
  0
VERTEX
  5
A38
  8
247
 10
5.0785152665030173
 20
-20.486179813698872
 30
0.0
  0
VERTEX
  5
A39
  8
247
 10
5.0785152665030173
 20
-20.486179813698872
 30
0.0
  0
VERTEX
  5
A3A
  8
247
 10
5.4645168534170789
 20
-20.364460453347309
 30
0.0
  0
SEQEND
  5
A3B
  8
247
  0
POLYLINE
  5
A3C
  8
247
 66
     1
 10
0.0
 20
0.0
 30
0.0
 70
     1
  0
VERTEX
  5
A3D
  8
247
 10
5.4645168534170789
 20
-20.364460453347309
 30
0.0
  0
VERTEX
  5
A3E
  8
247
 10
5.0785152665030173
 20
-20.486179813698872
 30
0.0
  0
VERTEX
  5
A3F
  8
247
 10
5.0785152665030173
 20
-20.486179813698872
 30
0.0
  0
VERTEX
  5
A40
  8
247
 10
5.4645168534170789
 20
-20.364460453347309
 30
0.0
  0
SEQEND
  5
A41
  8
247
  0
POLYLINE
  5
A42
  8
247
 66
     1
 10
0.0
 20
0.0
 30
0.0
 70
     1
1001
HATCH_DISTANCE
1040
1.0
1001
HATCH_DISPLAY
1070
     0
1001
HATCH_TYPE
1070
     7
  0
VERTEX
  5
A43
  8
247
 10
5.4645168534170789
 20
-20.364460453347309
 30
0.0
  0
VERTEX
  5
A44
  8
247
 10
5.0785152665030173
 20
-20.486179813698872
 30
0.0
  0
VERTEX
  5
A45
  8
247
 10
5.0785152665030173
 20
-20.486179813698872
 30
0.0
  0
VERTEX
  5
A46
  8
247
 10
5.4645168534170789
 20
-20.364460453347309
 30
0.0
  0
SEQEND
  5
A47
  8
247
  0
LINE
  5
A48
  8
247
 10
5.4645168534170789
 20
-20.364460453347309
 30
0.0
 11
5.0785152665030173
 21
-20.486179813698872
 31
0.0
1001
ACAD
1000
ASC_BOUNDS
1002
{
1070
    19
1005
9D8
1002
}
  0
POLYLINE
  5
A49
  8
247
 66
     1
 10
0.0
 20
0.0
 30
0.0
 70
     1
  0
VERTEX
  5
A4A
  8
247
 10
5.4645168534170789
 20
-20.364460453347309
 30
0.0
  0
VERTEX
  5
A4B
  8
247
 10
5.0785152665030173
 20
-20.486179813698872
 30
0.0
  0
VERTEX
  5
A4C
  8
247
 10
5.0785152665030173
 20
-20.486179813698872
 30
0.0
  0
VERTEX
  5
A4D
  8
247
 10
5.4645168534170789
 20
-20.364460453347309
 30
0.0
  0
SEQEND
  5
A4E
  8
247
  0
LINE
  5
A4F
  8
247
 10
6.5846645584952039
 20
-21.628498539284809
 30
0.0
 11
6.5846645584952039
 21
-20.451206669167622
 31
0.0
1001
ACAD
1000
ASC_BOUNDS
1002
{
1070
    19
1005
A0E
1002
}
  0
LINE
  5
A50
  8
247
 10
6.9888393631827039
 20
-21.7443890422145
 30
0.0
 11
6.9888393631827039
 21
-21.40802429612074
 31
0.0
1001
ACAD
1000
ASC_BOUNDS
1002
{
1070
    19
1005
A0E
1002
}
  0
LINE
  5
A51
  8
247
 10
7.8939449540030173
 20
-21.667561039284809
 30
0.0
 11
6.9888393631827039
 21
-21.40802429612074
 31
0.0
1001
ACAD
1000
ASC_BOUNDS
1002
{
1070
    19
1005
A0E
1002
}
  0
LINE
  5
A52
  8
247
 10
6.9888393631827039
 20
-21.7443890422145
 30
0.0
 11
6.5846645584952039
 21
-21.628498539284809
 31
0.0
1001
ACAD
1000
ASC_BOUNDS
1002
{
1070
    19
1005
A0E
1002
}
  0
LINE
  5
A53
  8
247
 10
8.6459443322073621
 20
-21.042271122292629
 30
0.0
 11
6.5846645584952039
 21
-20.451206669167622
 31
0.0
1001
ACAD
1000
ASC_BOUNDS
1002
{
1070
    19
1005
A0E
1002
}
  0
LINE
  5
A54
  8
247
 10
8.4088685265433014
 20
-21.27936218674574
 30
0.0
 11
8.6459443322073621
 21
-21.042271122292629
 31
0.0
1001
ACAD
1000
ASC_BOUNDS
1002
{
1070
    19
1005
A0E
1002
}
  0
LINE
  5
A55
  8
240
 10
1.0
 20
31.0
 30
0.0
 11
0.9999999999995453
 21
22.225000000000009
 31
0.0
  0
LINE
  5
A56
  8
240
 10
-0.0000000000002274
 20
22.22499999999998
 30
0.0
 11
0.9999999999995453
 21
22.225000000000009
 31
0.0
  0
ARC
  5
A57
  8
240
 10
1.5
 20
31.0
 30
0.0
 40
0.5
 50
90.0
 51
180.0
  0
LINE
  5
A58
  8
241
 10
26.99999999999994
 20
11.11037599643765
 30
0.0
 11
26.99999999999994
 21
-11.11037599643771
 31
0.0
  0
ARC
  5
A59
  8
240
 10
31.99999999999989
 20
11.11037599643765
 30
0.0
 40
5.0
 50
180.0
 51
265.00000000007037
  0
LINE
  5
A5A
  8
241
 10
14.48675099999997
 20
0.0000000000000142
 30
0.0
 11
14.48675099999997
 21
26.5
 31
0.0
  0
LINE
  5
A5B
  8
241
 10
11.600000000000019
 20
31.32679400000001
 30
0.0
 11
11.600000000000019
 21
0.0000000000000142
 31
0.0
  0
LINE
  5
A5C
  8
241
 10
18.713248000000011
 20
0.0000000000000142
 30
0.0
 11
18.713248000000011
 21
26.5
 31
0.0
  0
LINE
  5
A5D
  8
241
 10
21.600000000000009
 20
31.32679400000001
 30
0.0
 11
21.600000000000009
 21
0.0000000000000142
 31
0.0
  0
LINE
  5
A5E
  8
240
 10
32.999999999999801
 20
6.0037881451967801
 30
0.0
 11
31.564221286249079
 21
6.1294025059832791
 31
0.0
  0
LINE
  5
A5F
  8
240
 10
31.564221286267781
 20
-6.1294025059784438
 30
0.0
 11
32.999999999999801
 21
-6.0037881451967774
 31
0.0
  0
ARC
  5
A60
  8
240
 10
31.99999999999989
 20
-11.11037599643771
 30
0.0
 40
5.0
 50
94.999999999929557
 51
180.0
  0
LINE
  5
A61
  8
246
 10
46.82341447166074
 20
2.1000000000000361
 30
0.0
 11
42.65014697598977
 21
2.100000000000021
 31
0.0
  0
LINE
  5
A62
  8
246
 10
46.82341447166074
 20
-2.1000000000001222
 30
0.0
 11
42.65014697598977
 21
-2.100000000000108
 31
0.0
  0
LINE
  5
A63
  8
240
 10
45.361429257154782
 20
5.0226852039704397
 30
0.0
 11
33.150986921511141
 21
6.090960484976593
 31
0.0
  0
LINE
  5
A64
  8
240
 10
45.361429257154782
 20
-5.0226852039704646
 30
0.0
 11
33.150986921508803
 21
-6.09096048497676
 31
0.0
  0
LINE
  5
A65
  8
246
 10
40.199999999999932
 20
-0.0000000000000142
 30
0.0
 11
40.199999999999932
 21
-2.050000000000038
 31
0.0
  0
LINE
  5
A66
  8
241
 10
32.999999999998508
 20
-6.00378814519709
 30
0.0
 11
32.999999999999851
 21
6.0037881451970811
 31
0.0
  0
LINE
  5
A67
  8
240
 10
33.00000000000027
 20
-6.0037881451970598
 30
0.0
 11
33.150986921512811
 21
-6.0909604849764483
 31
0.0
  0
LINE
  5
A68
  8
246
 10
42.400146975990097
 20
-2.3499999999995951
 30
0.0
 11
40.460504250721918
 21
-2.350000000000092
 31
0.0
  0
LINE
  5
A69
  8
246
 10
40.422354286469172
 20
-2.339777747886798
 30
0.0
 11
40.460504250723787
 21
-2.350000000000092
 31
0.0
  0
ARC
  5
A6A
  8
246
 10
40.499999999999929
 20
-2.050000000000038
 30
0.0
 40
0.3
 50
180.0
 51
254.9999823999058
  0
LINE
  5
A6B
  8
246
 10
42.400146975989642
 20
-2.350000000000064
 30
0.0
 11
42.650146975989671
 21
-2.100000000000021
 31
0.0
1001
GRPNAME
1000
00000007
  0
LINE
  5
A6C
  8
240
 10
33.00000000000027
 20
6.0037881451970652
 30
0.0
 11
33.150986921512811
 21
6.09096048497645
 31
0.0
  0
LINE
  5
A6D
  8
246
 10
42.400146975990097
 20
2.3499999999995111
 30
0.0
 11
40.460504250721918
 21
2.3500000000000081
 31
0.0
  0
ARC
  5
A6E
  8
246
 10
40.499999999999929
 20
2.0499999999999541
 30
0.0
 40
0.3
 50
105.0000176000942
 51
180.0
  0
LINE
  5
A6F
  8
246
 10
40.422354286469172
 20
2.3397777478867141
 30
0.0
 11
40.460504250723787
 21
2.3500000000000081
 31
0.0
  0
LINE
  5
A70
  8
246
 10
40.199999999999932
 20
-0.0000000000000711
 30
0.0
 11
40.199999999999932
 21
2.0499999999999541
 31
0.0
  0
LINE
  5
A71
  8
246
 10
42.400146975989642
 20
2.3499999999999801
 30
0.0
 11
42.650146975989671
 21
2.099999999999937
 31
0.0
1001
GRPNAME
1000
00000007
  0
LINE
  5
A72
  8
241
 10
46.999999999993769
 20
-4.349999999998782
 30
0.0
 11
46.999999999994003
 21
4.3499999999998993
 31
0.0
1001
GRPNAME
1000
PASTMD01
  0
LINE
  5
A73
  8
241
 10
49.69999999999385
 20
-5.0000000000002132
 30
0.0
 11
49.69999999999385
 21
-0.0000000000000426
 31
0.0
  0
LINE
  5
A74
  8
241
 10
48.499999999993761
 20
-5.1500000000000483
 30
0.0
 11
48.499999999993761
 21
-0.0000000000000426
 31
0.0
  0
LINE
  5
A75
  8
241
 10
45.995999999994858
 20
-4.4234013676220894
 30
0.0
 11
45.996000000016572
 21
4.4234013676220352
 31
0.0
  0
LINE
  5
A76
  8
241
 10
45.620722325035189
 20
-4.922418464801094
 30
0.0
 11
45.620722325035487
 21
4.9224184648010434
 31
0.0
  0
LINE
  5
A77
  8
240
  6
CONTINUOUS
 10
46.226940107685778
 20
-4.3499999999980883
 30
0.0
 11
46.999999999994223
 21
-4.3499999999987882
 31
0.0
  0
LINE
  5
A78
  8
246
 10
46.82341447166074
 20
-2.1000000000001222
 30
0.0
 11
47.023414471659031
 21
-2.299999999999613
 31
0.0
  0
ARC
  5
A79
  8
240
  6
CONTINUOUS
 10
47.299999999993751
 20
-4.8500000000000361
 30
0.0
 40
0.3000000000000043
 50
180.0
 51
270.00000000257302
1001
GRPNAME
1000
PASTMD01
  0
ARC
  5
A7A
  8
240
 10
46.226940107685387
 20
-4.7499999999980931
 30
0.0
 40
0.4
 50
89.999999999949509
 51
150.0000000000002
  0
LINE
  5
A7B
  8
240
 10
45.88052994617162
 20
-4.5499999999981036
 30
0.0
 11
45.75086408767315
 21
-4.7745878549245884
 31
0.0
  0
ARC
  5
A7C
  8
240
 10
45.317851385780948
 20
-4.5245878549245884
 30
0.0
 40
0.5
 50
274.99999999999972
 51
329.99999999999812
  0
LINE
  5
A7D
  8
240
  6
CONTINUOUS
 10
46.99999999999374
 20
-4.8500000000000361
 30
0.0
 11
46.999999999993769
 21
-4.349999999998782
 31
0.0
1001
GRPNAME
1000
PASTMD01
  0
LINE
  5
A7E
  8
240
  6
CONTINUOUS
 10
49.09999999999377
 20
-4.9500000000000313
 30
0.0
 11
49.387750100073838
 21
-4.9500000000000313
 31
0.0
  0
ARC
  5
A7F
  8
240
  6
CONTINUOUS
 10
49.09999999999377
 20
-5.9500000000000313
 30
0.0
 40
1.0
 50
90.0
 51
126.8698976458456
  0
LINE
  5
A80
  8
240
  6
CONTINUOUS
 10
47.299999999993751
 20
-5.1500000000000483
 30
0.0
 11
48.499999999993761
 21
-5.1500000000000483
 31
0.0
  0
ARC
  5
A81
  8
240
  6
CONTINUOUS
 10
49.387750100073838
 20
-5.9500000000000313
 30
0.0
 40
1.0
 50
71.805127661231552
 51
90.0
  0
LINE
  5
A82
  8
241
 10
49.69999999999385
 20
5.000000000000127
 30
0.0
 11
49.69999999999385
 21
-0.0000000000000426
 31
0.0
  0
LINE
  5
A83
  8
241
 10
48.499999999993761
 20
5.1499999999999631
 30
0.0
 11
48.499999999993761
 21
-0.0000000000000426
 31
0.0
  0
LINE
  5
A84
  8
246
 10
46.82341447166074
 20
2.1000000000000361
 30
0.0
 11
47.023414471659031
 21
2.2999999999995282
 31
0.0
  0
LINE
  5
A85
  8
240
  6
CONTINUOUS
 10
46.226940107685387
 20
4.3499999999999091
 30
0.0
 11
46.999999999993747
 21
4.3499999999999179
 31
0.0
  0
ARC
  5
A86
  8
240
  6
CONTINUOUS
 10
47.299999999993751
 20
4.8499999999999499
 30
0.0
 40
0.3000000000000043
 50
89.999999997427068
 51
180.0
1001
GRPNAME
1000
PASTMD01
  0
LINE
  5
A87
  8
240
 10
45.88052994617162
 20
4.5499999999980787
 30
0.0
 11
45.75086408767315
 21
4.7745878549245617
 31
0.0
  0
ARC
  5
A88
  8
240
 10
46.226940107685387
 20
4.7499999999980691
 30
0.0
 40
0.4
 50
209.99999999999969
 51
270.00000000005048
  0
ARC
  5
A89
  8
240
 10
45.317851385780948
 20
4.5245878549245617
 30
0.0
 40
0.5
 50
30.000000000001972
 51
85.000000000000256
  0
LINE
  5
A8A
  8
240
  6
CONTINUOUS
 10
46.99999999999374
 20
4.8499999999999499
 30
0.0
 11
46.999999999993769
 21
4.3499999999998993
 31
0.0
1001
GRPNAME
1000
PASTMD01
  0
LINE
  5
A8B
  8
240
  6
CONTINUOUS
 10
47.299999999993751
 20
5.1499999999999631
 30
0.0
 11
48.499999999993761
 21
5.1499999999999631
 31
0.0
  0
ARC
  5
A8C
  8
240
  6
CONTINUOUS
 10
49.09999999999377
 20
5.9499999999999451
 30
0.0
 40
1.0
 50
233.13010235415439
 51
270.0
  0
LINE
  5
A8D
  8
240
  6
CONTINUOUS
 10
49.09999999999377
 20
4.9499999999999451
 30
0.0
 11
49.387750100073838
 21
4.9499999999999451
 31
0.0
  0
ARC
  5
A8E
  8
240
  6
CONTINUOUS
 10
49.387750100073838
 20
5.9499999999999451
 30
0.0
 40
1.0
 50
270.0
 51
288.19487233876839
  0
LINE
  5
A8F
  8
240
 10
27.0
 20
30.5
 30
0.0
 11
27.0
 21
11.11037599643765
 31
0.0
  0
LINE
  5
A90
  8
243
 10
23.0
 20
22.500000000000011
 30
0.0
 11
23.0
 21
31.5
 31
0.0
  0
LINE
  5
A91
  8
240
 10
18.79985099999999
 20
26.650000000000041
 30
0.0
 11
21.449999999999989
 21
31.240191999999968
 31
0.0
  0
LINE
  5
A92
  8
240
 10
14.400148
 20
26.650000000000041
 30
0.0
 11
11.75
 21
31.240191999999968
 31
0.0
  0
LINE
  5
A93
  8
240
 10
18.540042999999969
 20
26.5
 30
0.0
 11
14.659956000000021
 21
26.5
 31
0.0
  0
ARC
  5
A94
  8
240
 10
14.659956000000021
 20
26.800000000000011
 30
0.0
 40
0.3
 50
209.99999999999969
 51
270.0
  0
ARC
  5
A95
  8
240
 10
18.540042999999969
 20
26.800000000000011
 30
0.0
 40
0.3
 50
270.0
 51
329.99999999999869
  0
LINE
  5
A96
  8
240
 10
11.30000000000001
 20
31.5
 30
0.0
 11
11.75
 21
31.240191999999968
 31
0.0
  0
ARC
  5
A97
  8
240
 10
26.0
 20
30.5
 30
0.0
 40
1.0
 50
0.0
 51
90.0
  0
LINE
  5
A98
  8
240
 10
21.900000000000031
 20
31.5
 30
0.0
 11
26.0
 21
31.5
 31
0.0
  0
LINE
  5
A99
  8
240
 10
21.449999999999989
 20
31.240191999999968
 30
0.0
 11
21.900000000000031
 21
31.5
 31
0.0
  0
LINE
  5
A9A
  8
246
 10
58.99999999999995
 20
-0.0999999999995254
 30
0.0
 11
58.999999999999908
 21
-2.6799762058490999
 31
0.0
1001
GRPNAME
1000
00000007
  0
LINE
  5
A9B
  8
241
 10
59.85000000000209
 20
-0.0000000000000426
 30
0.0
 11
59.849999999999632
 21
-3.863397459614645
 31
0.0
  0
LINE
  5
A9C
  8
240
 10
60.000000000000071
 20
-3.5499999999926199
 30
0.0
 11
60.0
 21
-0.0000000000000142
 31
0.0
  0
LINE
  5
A9D
  8
246
 10
58.399999999999991
 20
-2.9799762058492831
 30
0.0
 11
58.69999999999996
 21
-2.9799762058492831
 31
0.0
1001
GRPNAME
1000
00000007
  0
LINE
  5
A9E
  8
246
 10
57.399999999999928
 20
-2.5799762058493041
 30
0.0
 11
57.999999999999972
 21
-2.5799762058492761
 31
0.0
1001
GRPNAME
1000
00000007
  0
LINE
  5
A9F
  8
246
 10
57.399999999999928
 20
-2.5799762058493041
 30
0.0
 11
57.252146975983997
 21
-2.8360651554315122
 31
0.0
1001
GRPNAME
1000
00000007
  0
LINE
  5
AA0
  8
246
 10
58.399999999999991
 20
-2.9799762058492831
 30
0.0
 11
57.999999999999972
 21
-2.5799762058492761
 31
0.0
  0
LINE
  5
AA1
  8
240
 10
59.849999999999739
 20
-3.863397459614645
 30
0.0
 11
59.849999999999632
 21
-4.0000000000006386
 31
0.0
  0
LINE
  5
AA2
  8
240
 10
59.876794919242819
 20
-3.7633974596147781
 30
0.0
 11
60.000000000000071
 21
-3.5499999999926199
 31
0.0
  0
ARC
  5
AA3
  8
240
 10
60.04999999999972
 20
-3.863397459614772
 30
0.0
 40
0.2
 50
150.0000000000002
 51
179.9999999999641
  0
ARC
  5
AA4
  8
240
 10
58.849999999999618
 20
-4.0000000000000142
 30
0.0
 40
1.0
 50
270.0
 51
359.9999999999643
1001
GRPNAME
1000
PASTMD01
  0
LINE
  5
AA5
  8
246
 10
58.69999999999996
 20
-2.9799762058492831
 30
0.0
 11
58.999999999999908
 21
-2.6799762058490999
 31
0.0
1001
GRPNAME
1000
00000007
  0
LINE
  5
AA6
  8
240
 10
60.000000000000071
 20
3.549999999992536
 30
0.0
 11
60.0
 21
-0.0000000000000711
 31
0.0
  0
LINE
  5
AA7
  8
241
 10
59.85000000000209
 20
-0.0000000000000426
 30
0.0
 11
59.849999999999632
 21
3.8633974596145602
 31
0.0
  0
LINE
  5
AA8
  8
246
 10
58.99999999999995
 20
0.0999999999994401
 30
0.0
 11
58.999999999999908
 21
2.6799762058490151
 31
0.0
1001
GRPNAME
1000
00000007
  0
LINE
  5
AA9
  8
246
 10
58.399999999999991
 20
2.9799762058491961
 30
0.0
 11
58.69999999999996
 21
2.9799762058491961
 31
0.0
1001
GRPNAME
1000
00000007
  0
LINE
  5
AAA
  8
246
 10
58.399999999999991
 20
2.9799762058491961
 30
0.0
 11
57.999999999999972
 21
2.5799762058491922
 31
0.0
  0
LINE
  5
AAB
  8
246
 10
57.399999999999928
 20
2.5799762058492202
 30
0.0
 11
57.999999999999972
 21
2.5799762058491922
 31
0.0
1001
GRPNAME
1000
00000007
  0
LINE
  5
AAC
  8
246
 10
57.399999999999928
 20
2.5799762058492202
 30
0.0
 11
57.252146975983997
 21
2.836065155431426
 31
0.0
1001
GRPNAME
1000
00000007
  0
LINE
  5
AAD
  8
240
 10
59.849999999999739
 20
3.8633974596145602
 30
0.0
 11
59.849999999999632
 21
4.0000000000005533
 31
0.0
  0
ARC
  5
AAE
  8
240
 10
60.04999999999972
 20
3.8633974596146881
 30
0.0
 40
0.2
 50
180.00000000003581
 51
209.99999999999969
  0
LINE
  5
AAF
  8
240
 10
59.876794919242819
 20
3.7633974596146942
 30
0.0
 11
60.000000000000071
 21
3.549999999992536
 31
0.0
  0
LINE
  5
AB0
  8
246
 10
58.69999999999996
 20
2.9799762058491961
 30
0.0
 11
58.999999999999908
 21
2.6799762058490151
 31
0.0
1001
GRPNAME
1000
00000007
  0
ARC
  5
AB1
  8
240
 10
58.849999999999618
 20
3.9999999999999281
 30
0.0
 40
1.0
 50
0.0000000000358258
 51
90.0
1001
GRPNAME
1000
PASTMD01
  0
ENDBLK
  5
AB3
  8
0
  0
BLOCK
  8
0
  2
*X16
 70
     1
 10
0.0
 20
0.0
 30
0.0
  3
*X16
  1

  0
LINE
  5
BEE
  8
0
 62
     0
 10
9.1389639652754227
 20
-19.261269565862261
 30
0.0
 11
7.8142287369958572
 21
-17.9365343375827
 31
0.0
  0
LINE
  5
BEF
  8
0
 62
     0
 10
7.78637593668513
 20
-18.357694343325448
 30
0.0
 11
7.2556811872315299
 21
-17.82699959387185
 31
0.0
  0
LINE
  5
BF0
  8
0
 62
     0
 10
9.2484987089862756
 20
-19.819817115626591
 30
0.0
 11
8.7178039595326737
 21
-19.28912236617299
 31
0.0
  0
LINE
  5
BF1
  8
0
 62
     0
 10
7.2089365803114278
 20
-18.22926779300521
 30
0.0
 11
6.8250346973237441
 21
-17.845365910017531
 31
0.0
  0
LINE
  5
BF2
  8
0
 62
     0
 10
9.252206528836707
 20
-20.272537741530488
 30
0.0
 11
8.8462305098529281
 21
-19.866561722546692
 31
0.0
  0
LINE
  5
BF3
  8
0
 62
     0
 10
6.791805706969738
 20
-18.26114972571694
 30
0.0
 11
6.461954182093506
 21
-17.931298200840718
 31
0.0
  0
LINE
  5
BF4
  8
0
 62
     0
 10
9.252206528836707
 20
-20.72155054758392
 30
0.0
 11
8.8480317345511121
 21
-20.317375753298322
 31
0.0
  0
LINE
  5
BF5
  8
0
 62
     0
 10
6.4496992990886923
 20
-18.368056123889371
 30
0.0
 11
6.1466868030097981
 21
-18.065043627810478
 31
0.0
  0
LINE
  5
BF6
  8
0
 62
     0
 10
9.2522065288366946
 20
-21.17056335363738
 30
0.0
 11
8.8480317345510855
 21
-20.766388559351771
 31
0.0
  0
LINE
  5
BF7
  8
0
 62
     0
 10
6.1602363373337408
 20
-18.527605968187881
 30
0.0
 11
5.8704315752687393
 21
-18.237801206122882
 31
0.0
  0
LINE
  5
BF8
  8
0
 62
     0
 10
9.252206528836707
 20
-21.619576159690851
 30
0.0
 11
8.8480317345510997
 21
-21.215401365405238
 31
0.0
  0
LINE
  5
BF9
  8
0
 62
     0
 10
5.9149412844411842
 20
-18.731323721348758
 30
0.0
 11
5.6291464956645134
 21
-18.445528932572088
 31
0.0
  0
LINE
  5
BFA
  8
0
 62
     0
 10
9.252206528836707
 20
-22.068588965744301
 30
0.0
 11
8.8480317345510997
 21
-21.664414171458692
 31
0.0
  0
LINE
  5
BFB
  8
0
 62
     0
 10
5.711504017116253
 20
-18.9768992600773
 30
0.0
 11
5.421644457124315
 21
-18.687039700085371
 31
0.0
  0
LINE
  5
BFC
  8
0
 62
     0
 10
9.252206528836707
 20
-22.517601771797761
 30
0.0
 11
8.8480317345510855
 21
-22.113426977512159
 31
0.0
  0
LINE
  5
BFD
  8
0
 62
     0
 10
5.552267023846098
 20
-19.266675072860622
 30
0.0
 11
5.2491289204336748
 21
-18.963536969448199
 31
0.0
  0
LINE
  5
BFE
  8
0
 62
     0
 10
9.2522065288366946
 20
-22.966614577851221
 30
0.0
 11
8.8480317345510855
 21
-22.562439783565608
 31
0.0
  0
LINE
  5
BFF
  8
0
 62
     0
 10
5.4457610193147872
 20
-19.609181874382742
 30
0.0
 11
5.115664925774281
 21
-19.279085780842241
 31
0.0
  0
LINE
  5
C00
  8
0
 62
     0
 10
9.2522065288367248
 20
-23.415627383904681
 30
0.0
 11
8.8480317345511121
 21
-23.011452589619068
 31
0.0
  0
LINE
  5
C01
  8
0
 62
     0
 10
5.4145229250447766
 20
-20.0269565861662
 30
0.0
 11
5.0300976654747398
 21
-19.642531326596149
 31
0.0
  0
LINE
  5
C02
  8
0
 62
     0
 10
9.252206528836707
 20
-23.864640189958131
 30
0.0
 11
8.8480317345510997
 21
-23.460465395672529
 31
0.0
  0
LINE
  5
C03
  8
0
 62
     0
 10
5.3417321556744479
 20
-20.403178622849339
 30
0.0
 11
5.0122986719733262
 21
-20.073745139148219
 31
0.0
  0
LINE
  5
C04
  8
0
 62
     0
 10
9.2522065288366946
 20
-24.31365299601158
 30
0.0
 11
8.8480317345510997
 21
-23.909478201725989
 31
0.0
  0
LINE
  5
C05
  8
0
 62
     0
 10
9.252206528836707
 20
-24.762665802065069
 30
0.0
 11
8.8480317345510997
 21
-24.358491007779449
 31
0.0
  0
LINE
  5
C06
  8
0
 62
     0
 10
9.252206528836707
 20
-25.2116786081185
 30
0.0
 11
8.8480317345510997
 21
-24.807503813832898
 31
0.0
  0
LINE
  5
C07
  8
0
 62
     0
 10
9.2522065288366946
 20
-25.660691414171971
 30
0.0
 11
8.8480317345510855
 21
-25.256516619886341
 31
0.0
  0
LINE
  5
C08
  8
0
 62
     0
 10
9.252206528836707
 20
-26.109704220225431
 30
0.0
 11
8.8480317345511121
 21
-25.705529425939829
 31
0.0
  0
LINE
  5
C09
  8
0
 62
     0
 10
9.252206528836707
 20
-26.558717026278892
 30
0.0
 11
8.8480317345511121
 21
-26.154542231993279
 31
0.0
  0
LINE
  5
C0A
  8
0
 62
     0
 10
9.252206528836707
 20
-27.00772983233233
 30
0.0
 11
8.8480317345510997
 21
-26.603555038046721
 31
0.0
  0
LINE
  5
C0B
  8
0
 62
     0
 10
9.2522065288366946
 20
-27.456742638385791
 30
0.0
 11
8.8480317345510855
 21
-27.052567844100199
 31
0.0
  0
LINE
  5
C0C
  8
0
 62
     0
 10
9.252206528836707
 20
-27.905755444439269
 30
0.0
 11
8.8480317345510997
 21
-27.501580650153659
 31
0.0
  0
LINE
  5
C0D
  8
0
 62
     0
 10
9.2431509825108957
 20
-28.3457127041669
 30
0.0
 11
8.8480317345510997
 21
-27.950593456207091
 31
0.0
  0
LINE
  5
C0E
  8
0
 62
     0
 10
9.1729237261586718
 20
-28.724498253868141
 30
0.0
 11
8.8320542116883587
 21
-28.383628739397839
 31
0.0
  0
LINE
  5
C0F
  8
0
 62
     0
 10
9.0510601912761928
 20
-29.051647525039119
 30
0.0
 11
8.7423933501406452
 21
-28.742980683903571
 31
0.0
  0
LINE
  5
C10
  8
0
 62
     0
 10
8.8883939993445154
 20
-29.337994139160891
 30
0.0
 11
8.5960059615546527
 21
-29.045606101371028
 31
0.0
  0
LINE
  5
C11
  8
0
 62
     0
 10
8.6899828919524111
 20
-29.58859583782224
 30
0.0
 11
8.4039008248185052
 21
-29.302513770688339
 31
0.0
  0
LINE
  5
C12
  8
0
 62
     0
 10
8.4577043317539733
 20
-29.805330083677291
 30
0.0
 11
8.1697761604858936
 21
-29.517401912409198
 31
0.0
  0
LINE
  5
C13
  8
0
 62
     0
 10
8.1910135341411205
 20
-29.98765209211788
 30
0.0
 11
7.892578867083655
 21
-29.689217425060399
 31
0.0
  0
LINE
  5
C14
  8
0
 62
     0
 10
5.4125759354483147
 20
-27.658227299478511
 30
0.0
 11
5.0941584965318754
 21
-27.339809860562081
 31
0.0
  0
LINE
  5
C15
  8
0
 62
     0
 10
7.8867341185446378
 20
-30.132385482574829
 30
0.0
 11
7.5658356585655042
 21
-29.811487022595699
 31
0.0
  0
LINE
  5
C16
  8
0
 62
     0
 10
5.4125759354483147
 20
-28.107240105531989
 30
0.0
 11
5.0084011307608147
 21
-27.703065300844489
 31
0.0
  0
LINE
  5
C17
  8
0
 62
     0
 10
7.5376608902341502
 20
-30.23232506031782
 30
0.0
 11
7.1724380139045962
 21
-29.867102183988251
 31
0.0
  0
LINE
  5
C18
  8
0
 62
     0
 10
5.4788903333129877
 20
-28.62256730945013
 30
0.0
 11
5.0084022587087267
 21
-28.152079234845861
 31
0.0
  0
LINE
  5
C19
  8
0
 62
     0
 10
7.1281157232857311
 20
-30.271792699422861
 30
0.0
 11
6.6576276486814541
 21
-29.801304624818581
 31
0.0
  0
LINE
  5
C1A
  8
0
 62
     0
 10
6.6157769007159697
 20
-30.20846668290655
 30
0.0
 11
5.0717282752250412
 21
-28.66441805741562
 31
0.0
  0
ENDBLK
  5
C1C
  8
0
  0
BLOCK
  8
0
  2
*X17
 70
     1
 10
0.0
 20
0.0
 30
0.0
  3
*X17
  1

  0
LINE
  5
C1E
  8
0
 62
     0
 10
8.435923267535486
 20
-21.252305704443071
 30
0.0
 11
8.0570154885855771
 21
-20.873397925493158
 31
0.0
  0
LINE
  5
C1F
  8
0
 62
     0
 10
8.6398151858997636
 20
-21.905210428860808
 30
0.0
 11
7.4274879613617903
 21
-20.69288320432285
 31
0.0
  0
LINE
  5
C20
  8
0
 62
     0
 10
8.0001151497821184
 20
-21.714523198796641
 30
0.0
 11
6.7979604341380178
 21
-20.51236848315256
 31
0.0
  0
LINE
  5
C21
  8
0
 62
     0
 10
8.61246048023024
 20
-22.326868529244759
 30
0.0
 11
8.1379526431239686
 21
-21.85236069213849
 31
0.0
  0
LINE
  5
C22
  8
0
 62
     0
 10
7.3474277579784921
 20
-21.510848613046448
 30
0.0
 11
6.5846645584952039
 21
-20.74808541356316
 31
0.0
  0
LINE
  5
C23
  8
0
 62
     0
 10
8.4898240010373058
 20
-22.65324485610526
 30
0.0
 11
8.1369084345404712
 21
-22.300329289608431
 31
0.0
  0
LINE
  5
C24
  8
0
 62
     0
 10
6.9888393631826897
 20
-21.60127302430411
 30
0.0
 11
6.5846645584951906
 21
-21.19709821961661
 31
0.0
  0
LINE
  5
C25
  8
0
 62
     0
 10
8.3038401279404326
 20
-22.916273789061851
 30
0.0
 11
7.8757889261625982
 21
-22.48822258728401
 31
0.0
  0
LINE
  5
C26
  8
0
 62
     0
 10
5.5449116396256244
 20
-20.60635810680051
 30
0.0
 11
5.5028307388502631
 21
-20.56427720602515
 31
0.0
  0
LINE
  5
C27
  8
0
 62
     0
 10
8.0625802623322151
 20
-23.124026729507118
 30
0.0
 11
7.3263215027351531
 21
-22.38776796991004
 31
0.0
  0
LINE
  5
C28
  8
0
 62
     0
 10
5.657409212044171
 20
-21.167868485272521
 30
0.0
 11
5.16146279526866
 21
-20.671922068497011
 31
0.0
  0
LINE
  5
C29
  8
0
 62
     0
 10
7.7627266253122249
 20
-23.273185898540572
 30
0.0
 11
6.6967933619162761
 21
-22.207252635144631
 31
0.0
  0
LINE
  5
C2A
  8
0
 62
     0
 10
5.466213470144238
 20
-21.425685549426039
 30
0.0
 11
5.1635701307645832
 21
-21.123042210046378
 31
0.0
  0
LINE
  5
C2B
  8
0
 62
     0
 10
7.3851450525857842
 20
-23.344617131867579
 30
0.0
 11
6.067265221097399
 21
-22.0267373003792
 31
0.0
  0
LINE
  5
C2C
  8
0
 62
     0
 10
6.8725094569552549
 20
-23.280994342290509
 30
0.0
 11
5.0413818172623888
 21
-21.449866702597649
 31
0.0
  0
LINE
  5
C2D
  8
0
 62
     0
 10
6.2744276224100162
 20
-23.131925313798732
 30
0.0
 11
5.0148447529657281
 21
-21.872342444354441
 31
0.0
  0
ENDBLK
  5
C2F
  8
0
  0
BLOCK
  8
0
  2
*X18
 70
     1
 10
0.0
 20
0.0
 30
0.0
  3
*X18
  1

  0
LINE
  5
C31
  8
0
 62
     0
 10
8.6459443322073462
 20
-24.156403605435699
 30
0.0
 11
8.6126397572120226
 21
-24.123099030440368
 31
0.0
  0
LINE
  5
C32
  8
0
 62
     0
 10
8.6459443322073621
 20
-24.605416411489159
 30
0.0
 11
7.9831139757810501
 21
-23.942586055062851
 31
0.0
  0
LINE
  5
C33
  8
0
 62
     0
 10
8.6210042443251336
 20
-25.029489129660391
 30
0.0
 11
7.3535881943500652
 21
-23.762073079685319
 31
0.0
  0
LINE
  5
C34
  8
0
 62
     0
 10
7.9914759994436917
 20
-24.84897369083242
 30
0.0
 11
6.7240624129190962
 21
-23.581560104307808
 31
0.0
  0
LINE
  5
C35
  8
0
 62
     0
 10
7.3619477545622356
 20
-24.668458252004399
 30
0.0
 11
6.0945366314881371
 21
-23.401047128930301
 31
0.0
  0
LINE
  5
C36
  8
0
 62
     0
 10
6.7324195096807671
 20
-24.487942813176389
 30
0.0
 11
5.465010850057153
 21
-23.22053415355278
 31
0.0
  0
LINE
  5
C37
  8
0
 62
     0
 10
6.102891264799295
 20
-24.307427374348389
 30
0.0
 11
5.0084011307608147
 21
-23.212937240309909
 31
0.0
  0
LINE
  5
C38
  8
0
 62
     0
 10
5.4733630199178389
 20
-24.1269119355204
 30
0.0
 11
5.0084011307608289
 21
-23.66195004636339
 31
0.0
  0
LINE
  5
C39
  8
0
 62
     0
 10
5.0501660879486518
 20
-24.152727809604642
 30
0.0
 11
5.0084011307608147
 21
-24.110962852416812
 31
0.0
  0
ENDBLK
  5
C3B
  8
0
  0
BLOCK
  8
0
  2
GENAXEH
 70
     0
 10
0.0
 20
0.0
 30
0.0
  3
GENAXEH
  1

  0
LINE
  5
B7F
  8
0
 10
-1.0
 20
0.0
 30
0.0
 11
1.0
 21
0.0
 31
0.0
  0
ENDBLK
  5
B80
  8
0
  0
ENDSEC
  0
SECTION
  2
ENTITIES
  0
TEXT
  5
772
  8
241
 10
-63.0
 20
70.0
 30
0.0
 40
5.0
  1
BBT40-MEGA3S-60T
  7
YOKO
 11
-63.0
 21
70.0
 31
0.0
 73
     1
  0
LINE
  5
774
  8
250
 10
-37.272123228785752
 20
-26.85481408795733
 30
0.0
 11
-56.272123228785738
 21
-26.85481408795733
 31
0.0
1001
ITEMNAME
1000
LNSP2
  0
INSERT
  5
AB4
  8
240
  2
A$C33773BBD
 10
0.0
 20
0.0
 30
0.0
  0
LINE
  5
D6F
  8
250
 10
-0.0000000000002273
 20
22.72499999999998
 30
0.0
 11
-0.0000000000002252
 21
57.0
 31
0.0
  0
LINE
  5
D70
  8
250
 10
60.000000000000071
 20
4.0499999999925347
 30
0.0
 11
60.000000000000071
 21
57.0
 31
0.0
  0
LINE
  5
D71
  8
250
 10
2.2299999999997731
 20
56.0
 30
0.0
 11
57.770000000000067
 21
56.0
 31
0.0
  0
LINE
  5
D75
  8
250
 10
27.0
 20
31.0
 30
0.0
 11
27.0
 21
50.0
 31
0.0
  0
LINE
  5
D76
  8
250
 10
60.000000000000071
 20
4.0499999999925347
 30
0.0
 11
60.000000000000071
 21
50.0
 31
0.0
  0
LINE
  5
D77
  8
250
 10
29.23
 20
49.0
 30
0.0
 11
57.770000000000067
 21
49.0
 31
0.0
  0
LINE
  5
D7B
  8
250
 10
59.349999999999632
 20
-5.0000000000000142
 30
0.0
 11
78.0
 21
-5.0000000000000178
 31
0.0
  0
LINE
  5
D7C
  8
250
 10
59.349999999999632
 20
4.9999999999999281
 30
0.0
 11
78.0
 21
4.9999999999999218
 31
0.0
  0
LINE
  5
D7D
  8
250
 10
77.0
 20
-2.7700000000000191
 30
0.0
 11
77.0
 21
2.7699999999999241
 31
0.0
  0
LINE
  5
D81
  8
250
 10
59.500000000000199
 20
-1.499999999999561
 30
0.0
 11
71.0
 21
-1.4999999999995639
 31
0.0
  0
LINE
  5
D82
  8
250
 10
59.499999999999929
 20
1.4999999999994751
 30
0.0
 11
71.0
 21
1.4999999999994731
 31
0.0
  0
LINE
  5
D83
  8
250
 10
70.0
 20
-3.7299999999995639
 30
0.0
 11
70.0
 21
-5.9599999999995639
 31
0.0
  0
LINE
  5
D84
  8
250
 10
70.0
 20
3.729999999999472
 30
0.0
 11
70.0
 21
31.406470817713
 31
0.0
  0
LINE
  5
D85
  8
250
 10
70.0
 20
-1.4999999999995639
 30
0.0
 11
70.0
 21
1.4999999999994731
 31
0.0
  0
LINE
  5
D89
  8
250
 10
-0.0000000000002273
 20
22.72499999999998
 30
0.0
 11
-0.0000000000002261
 21
43.0
 31
0.0
  0
LINE
  5
D8A
  8
250
 10
1.0
 20
31.5
 30
0.0
 11
1.0
 21
43.0
 31
0.0
  0
LINE
  5
D8B
  8
250
 10
-2.230000000000226
 20
42.0
 30
0.0
 11
-4.4600000000002247
 21
42.0
 31
0.0
  0
LINE
  5
D8C
  8
250
 10
3.2299999999999991
 20
42.0
 30
0.0
 11
8.1742857142857144
 21
42.0
 31
0.0
  0
LINE
  5
D8D
  8
250
 10
-0.0000000000002262
 20
42.0
 30
0.0
 11
1.0
 21
42.0
 31
0.0
  0
LINE
  5
D91
  8
250
 10
-0.0000000000002273
 20
22.579162
 30
0.0
 11
-0.0000000000002257
 21
50.0
 31
0.0
  0
LINE
  5
D92
  8
250
 10
27.0
 20
30.854162000000041
 30
0.0
 11
27.0
 21
50.0
 31
0.0
  0
LINE
  5
D93
  8
250
 10
2.2299999999997731
 20
49.0
 30
0.0
 11
24.77
 21
49.0
 31
0.0
  0
TEXT
  5
D97
  8
250
 10
-53.8435518002143
 20
-25.854814087957319
 30
0.0
 40
3.0
  1
BBT40
  7
YOKO
  0
LINE
  5
D9D
  8
250
 10
-33.027190939418801
 20
-19.502375688084111
 30
0.0
 11
-37.272123228785752
 21
-26.85481408795733
 31
0.0
  0
LINE
  5
D9E
  8
250
 10
-33.349063714491997
 20
-19.316542354750769
 30
0.0
 11
-31.912190939418789
 21
-17.571139037644802
 31
0.0
  0
LINE
  5
D9F
  8
250
 10
-32.705318164345577
 20
-19.688209021417428
 30
0.0
 11
-31.912190939418789
 21
-17.571139037644802
 31
0.0
  0
LINE
  5
DA0
  8
250
 10
-31.912190939418789
 20
-17.571139037644802
 30
0.0
 11
-33.027190939418787
 21
-19.502375688084101
 31
0.0
  0
TEXT
  5
DA1
  8
250
 10
10.64285714285703
 20
50.0
 30
0.0
 40
3.0
  1
27
  0
LINE
  5
DA2
  8
250
 10
24.77
 20
49.37166666666667
 30
0.0
 11
27.0
 21
49.0
 31
0.0
  0
LINE
  5
DA3
  8
250
 10
24.77
 20
48.62833333333333
 30
0.0
 11
27.0
 21
49.0
 31
0.0
  0
LINE
  5
DA4
  8
250
 10
27.0
 20
49.0
 30
0.0
 11
24.77
 21
49.0
 31
0.0
  0
LINE
  5
DA5
  8
250
 10
2.2299999999997731
 20
48.62833333333333
 30
0.0
 11
-0.0000000000002257
 21
49.0
 31
0.0
  0
LINE
  5
DA6
  8
250
 10
2.2299999999997731
 20
49.371666666666663
 30
0.0
 11
-0.0000000000002257
 21
49.0
 31
0.0
  0
LINE
  5
DA7
  8
250
 10
-0.0000000000002257
 20
49.0
 30
0.0
 11
2.2299999999997731
 21
49.0
 31
0.0
  0
TEXT
  5
DA8
  8
250
 10
5.6028571428571441
 20
43.0
 30
0.0
 40
3.0
  1
1
  0
LINE
  5
DA9
  8
250
 10
3.2299999999999991
 20
41.62833333333333
 30
0.0
 11
1.0
 21
42.0
 31
0.0
  0
LINE
  5
DAA
  8
250
 10
3.2299999999999991
 20
42.371666666666663
 30
0.0
 11
1.0
 21
42.0
 31
0.0
  0
LINE
  5
DAB
  8
250
 10
1.0
 20
42.0
 30
0.0
 11
3.2299999999999991
 21
42.0
 31
0.0
  0
LINE
  5
DAC
  8
250
 10
-2.2300000000002251
 20
42.371666666666663
 30
0.0
 11
-0.0000000000002262
 21
42.0
 31
0.0
  0
LINE
  5
DAD
  8
250
 10
-2.2300000000002251
 20
41.62833333333333
 30
0.0
 11
-0.0000000000002262
 21
42.0
 31
0.0
  0
LINE
  5
DAE
  8
250
 10
-0.0000000000002262
 20
42.0
 30
0.0
 11
-2.2300000000002251
 21
42.0
 31
0.0
  0
TEXT
  5
DAF
  8
250
 10
69.0
 20
6.3885714285709181
 30
0.0
 40
3.0
  1
MAX.\U+22053.25
 50
90.0
  0
LINE
  5
DB0
  8
250
 10
70.37166666666667
 20
3.729999999999472
 30
0.0
 11
70.0
 21
1.4999999999994731
 31
0.0
  0
LINE
  5
DB1
  8
250
 10
69.62833333333333
 20
3.729999999999472
 30
0.0
 11
70.0
 21
1.4999999999994731
 31
0.0
  0
LINE
  5
DB2
  8
250
 10
70.0
 20
1.4999999999994731
 30
0.0
 11
70.0
 21
3.729999999999472
 31
0.0
  0
LINE
  5
DB3
  8
250
 10
69.62833333333333
 20
-3.729999999999563
 30
0.0
 11
70.0
 21
-1.4999999999995639
 31
0.0
  0
LINE
  5
DB4
  8
250
 10
70.37166666666667
 20
-3.729999999999563
 30
0.0
 11
70.0
 21
-1.4999999999995639
 31
0.0
  0
LINE
  5
DB5
  8
250
 10
70.0
 20
-1.4999999999995639
 30
0.0
 11
70.0
 21
-3.729999999999563
 31
0.0
  0
TEXT
  5
DB6
  8
250
 10
76.0
 20
-4.2142857142857491
 30
0.0
 40
3.0
  1
\U+2205
 50
90.0
  0
TEXT
  5
DB7
  8
250
 10
76.0
 20
-1.500000000000034
 30
0.0
 40
3.0
  1
10
 50
90.0
  0
LINE
  5
DB8
  8
250
 10
76.62833333333333
 20
2.7699999999999241
 30
0.0
 11
77.0
 21
4.9999999999999227
 31
0.0
  0
LINE
  5
DB9
  8
250
 10
77.371666666666655
 20
2.7699999999999241
 30
0.0
 11
77.0
 21
4.9999999999999227
 31
0.0
  0
LINE
  5
DBA
  8
250
 10
77.0
 20
4.9999999999999227
 30
0.0
 11
77.0
 21
2.7699999999999241
 31
0.0
  0
LINE
  5
DBB
  8
250
 10
77.371666666666655
 20
-2.7700000000000178
 30
0.0
 11
77.0
 21
-5.0000000000000169
 31
0.0
  0
LINE
  5
DBC
  8
250
 10
76.62833333333333
 20
-2.7700000000000178
 30
0.0
 11
77.0
 21
-5.0000000000000169
 31
0.0
  0
LINE
  5
DBD
  8
250
 10
77.0
 20
-5.0000000000000169
 30
0.0
 11
77.0
 21
-2.7700000000000178
 31
0.0
  0
TEXT
  5
DBE
  8
250
 10
40.642857142857153
 20
50.0
 30
0.0
 40
3.0
  1
33
  0
LINE
  5
DBF
  8
250
 10
57.770000000000067
 20
49.37166666666667
 30
0.0
 11
60.000000000000071
 21
49.0
 31
0.0
  0
LINE
  5
DC0
  8
250
 10
57.770000000000067
 20
48.62833333333333
 30
0.0
 11
60.000000000000071
 21
49.0
 31
0.0
  0
LINE
  5
DC1
  8
250
 10
60.000000000000071
 20
49.0
 30
0.0
 11
57.770000000000067
 21
49.0
 31
0.0
  0
LINE
  5
DC2
  8
250
 10
29.23
 20
48.62833333333333
 30
0.0
 11
27.0
 21
49.0
 31
0.0
  0
LINE
  5
DC3
  8
250
 10
29.23
 20
49.371666666666663
 30
0.0
 11
27.0
 21
49.0
 31
0.0
  0
LINE
  5
DC4
  8
250
 10
27.0
 20
49.0
 30
0.0
 11
29.23
 21
49.0
 31
0.0
  0
TEXT
  5
DC5
  8
250
 10
27.071428571428491
 20
57.0
 30
0.0
 40
3.0
  1
60
  0
LINE
  5
DC6
  8
250
 10
57.770000000000067
 20
56.37166666666667
 30
0.0
 11
60.000000000000071
 21
56.0
 31
0.0
  0
LINE
  5
DC7
  8
250
 10
57.770000000000067
 20
55.62833333333333
 30
0.0
 11
60.000000000000071
 21
56.0
 31
0.0
  0
LINE
  5
DC8
  8
250
 10
60.000000000000071
 20
56.0
 30
0.0
 11
57.770000000000067
 21
56.0
 31
0.0
  0
LINE
  5
DC9
  8
250
 10
2.2299999999997731
 20
55.62833333333333
 30
0.0
 11
-0.0000000000002253
 21
56.0
 31
0.0
  0
LINE
  5
DCA
  8
250
 10
2.2299999999997731
 20
56.371666666666663
 30
0.0
 11
-0.0000000000002253
 21
56.0
 31
0.0
  0
LINE
  5
DCB
  8
250
 10
-0.0000000000002253
 20
56.0
 30
0.0
 11
2.2299999999997731
 21
56.0
 31
0.0
  0
VIEWPORT
  5
22
 67
     1
  8
0
 10
261.51769911504419
 20
148.5
 30
0.0
 40
523.0353982300885
 41
297.0
 68
     1
 69
     1
1001
ACAD
1000
MVIEW
1002
{
1070
    16
1010
0.0
1020
0.0
1030
0.0
1010
0.0
1020
0.0
1030
1.0
1040
0.0
1040
297.0
1040
261.51769911504419
1040
148.5
1040
50.0
1040
0.0
1040
0.0
1070
     0
1070
   100
1070
     1
1070
     1
1070
     0
1070
     0
1070
     0
1070
     0
1040
0.0
1040
0.0
1040
0.0
1040
1.0
1040
1.0
1040
10.0
1040
10.0
1070
     0
1002
{
1002
}
1002
}
1001
GENIUS_GENOBJ-N-SDF_13
1002
{
1000
OWNER
1000
GEN
1002
}
1001
GENIUS_GENODEF_13
1002
{
1000
HIER
1070
     0
1002
}
1002
{
1000
MANEDIT
1070
     0
1002
}
1002
{
1000
NOSEL
1070
     0
1002
}
1002
{
1000
BEHIND
1070
     0
1002
}
1002
{
1000
OTHER
1070
     0
1002
}
1002
{
1000
REACTOR
1002
}
1001
GENIUS_GENSCREG_15
1000
PF
1040
1.0
1000
DF
1040
1.0
1000
MIN
1011
0.0
1021
0.0
1031
-2.3248289244861364E+077
1021
0.0
1031
0.0
1000
MAX
1011
523.0353982300885
1021
0.0
1031
-2.3248289244861364E+077
1021
297.0
1031
0.0
1000
FLAGS
1070
     2
  0
ENDSEC
  0
EOF
