  0
SECTION
  2
HEADER
  9
$ACADVER
  1
AC1009
  9
$INSBASE
 10
0.0
 20
0.0
 30
0.0
  9
$EXTMIN
 10
-66.422178821985085
 20
-35.364974061568432
 30
-0.0000000349181948
  9
$EXTMAX
 10
229.0267779287756
 20
75.003963682589529
 30
0.0000000814935747
  9
$LIMMIN
 10
0.0
 20
0.0
  9
$LIMMAX
 10
297.0
 20
210.0
  9
$ORTHOMODE
 70
     1
  9
$REGENMODE
 70
     1
  9
$FILLMODE
 70
     1
  9
$QTEXTMODE
 70
     0
  9
$MIRRTEXT
 70
     1
  9
$DRAGMODE
 70
     2
  9
$LTSCALE
 40
10.0
  9
$OSMODE
 70
    37
  9
$ATTMODE
 70
     1
  9
$TEXTSIZE
 40
3.0
  9
$TRACEWID
 40
1.0
  9
$TEXTSTYLE
  7
YOKO
  9
$CLAYER
  8
245
  9
$CELTYPE
  6
BYLAYER
  9
$CECOLOR
 62
   256
  9
$DIMSCALE
 40
1.0
  9
$DIMASZ
 40
2.0
  9
$DIMEXO
 40
0.5
  9
$DIMDLI
 40
2.5
  9
$DIMRND
 40
0.0
  9
$DIMDLE
 40
0.0
  9
$DIMEXE
 40
1.0
  9
$DIMTP
 40
0.0
  9
$DIMTM
 40
0.0
  9
$DIMTXT
 40
2.799999999999998
  9
$DIMCEN
 40
0.0
  9
$DIMTSZ
 40
0.0
  9
$DIMTOL
 70
     0
  9
$DIMLIM
 70
     0
  9
$DIMTIH
 70
     0
  9
$DIMTOH
 70
     0
  9
$DIMSE1
 70
     0
  9
$DIMSE2
 70
     0
  9
$DIMTAD
 70
     3
  9
$DIMZIN
 70
     8
  9
$DIMBLK
  1

  9
$DIMASO
 70
     1
  9
$DIMSHO
 70
     1
  9
$DIMPOST
  1

  9
$DIMAPOST
  1

  9
$DIMALT
 70
     0
  9
$DIMALTD
 70
     2
  9
$DIMALTF
 40
25.399999999999999
  9
$DIMLFAC
 40
1.0
  9
$DIMTOFL
 70
     1
  9
$DIMTVP
 40
0.0
  9
$DIMTIX
 70
     1
  9
$DIMSOXD
 70
     0
  9
$DIMSAH
 70
     1
  9
$DIMBLK1
  1
OPEN
  9
$DIMBLK2
  1
OPEN
  9
$DIMSTYLE
  2
BIGT
  9
$DIMCLRD
 70
   256
  9
$DIMCLRE
 70
   256
  9
$DIMCLRT
 70
    40
  9
$DIMTFAC
 40
1.0
  9
$DIMGAP
 40
1.0
  9
$LUNITS
 70
     2
  9
$LUPREC
 70
     3
  9
$SKETCHINC
 40
1.0
  9
$FILLETRAD
 40
0.0
  9
$AUNITS
 70
     0
  9
$AUPREC
 70
     3
  9
$MENU
  1
.
  9
$ELEVATION
 40
0.0
  9
$PELEVATION
 40
0.0
  9
$THICKNESS
 40
0.0
  9
$LIMCHECK
 70
     0
  9
$BLIPMODE
 70
     0
  9
$CHAMFERA
 40
10.0
  9
$CHAMFERB
 40
10.0
  9
$SKPOLY
 70
     0
  9
$TDCREATE
 40
2456317.391312384
  9
$TDUPDATE
 40
2456875.4489276619
  9
$TDINDWG
 40
0.012663831
  9
$TDUSRTIMER
 40
0.0126596412
  9
$USRTIMER
 70
     1
  9
$ANGBASE
 50
0.0
  9
$ANGDIR
 70
     0
  9
$PDMODE
 70
     1
  9
$PDSIZE
 40
-5.0
  9
$PLINEWID
 40
0.0
  9
$COORDS
 70
     1
  9
$SPLFRAME
 70
     0
  9
$SPLINETYPE
 70
     6
  9
$SPLINESEGS
 70
     8
  9
$ATTDIA
 70
     1
  9
$ATTREQ
 70
     1
  9
$HANDLING
 70
     1
  9
$HANDSEED
  5
EC8
  9
$SURFTAB1
 70
     6
  9
$SURFTAB2
 70
     6
  9
$SURFTYPE
 70
     6
  9
$SURFU
 70
     6
  9
$SURFV
 70
     6
  9
$UCSNAME
  2

  9
$UCSORG
 10
0.0
 20
0.0
 30
0.0
  9
$UCSXDIR
 10
1.0
 20
0.0
 30
0.0
  9
$UCSYDIR
 10
0.0
 20
1.0
 30
0.0
  9
$PUCSNAME
  2

  9
$PUCSORG
 10
0.0
 20
0.0
 30
0.0
  9
$PUCSXDIR
 10
1.0
 20
0.0
 30
0.0
  9
$PUCSYDIR
 10
0.0
 20
1.0
 30
0.0
  9
$USERI1
 70
     1
  9
$USERI2
 70
     0
  9
$USERI3
 70
     0
  9
$USERI4
 70
     0
  9
$USERI5
 70
     0
  9
$USERR1
 40
0.0
  9
$USERR2
 40
0.0
  9
$USERR3
 40
0.0
  9
$USERR4
 40
0.0
  9
$USERR5
 40
0.0
  9
$WORLDVIEW
 70
     1
  9
$SHADEDGE
 70
     3
  9
$SHADEDIF
 70
    70
  9
$TILEMODE
 70
     1
  9
$MAXACTVP
 70
    16
  9
$PLIMCHECK
 70
     0
  9
$PEXTMIN
 10
1.0000000000000000E+020
 20
1.0000000000000000E+020
 30
1.0000000000000000E+020
  9
$PEXTMAX
 10
-1.0000000000000000E+020
 20
-1.0000000000000000E+020
 30
-1.0000000000000000E+020
  9
$PLIMMIN
 10
0.0
 20
0.0
  9
$PLIMMAX
 10
420.0
 20
297.0
  9
$UNITMODE
 70
     0
  9
$VISRETAIN
 70
     0
  9
$PLINEGEN
 70
     0
  9
$PSLTSCALE
 70
     1
  0
ENDSEC
  0
SECTION
  2
TABLES
  0
TABLE
  2
VPORT
 70
     1
  0
VPORT
  2
*ACTIVE
 70
     0
 10
0.0
 20
0.0
 11
1.0
 21
1.0
 12
81.302299553395244
 22
19.819494810510552
 13
0.0
 23
0.0
 14
7.0
 24
7.0
 15
7.0
 25
7.0
 16
0.0
 26
0.0
 36
1.0
 17
0.0
 27
0.0
 37
0.0
 40
238.08265869462741
 41
1.247144340602284
 42
50.0
 43
0.0
 44
0.0
 50
0.0
 51
0.0
 71
     0
 72
 20000
 73
     1
 74
     0
 75
     0
 76
     0
 77
     0
 78
     0
  0
ENDTAB
  0
TABLE
  2
LTYPE
 70
    13
  0
LTYPE
  2
CONTINUOUS
 70
     0
  3
Solid line
 72
    65
 73
     0
 40
0.0
  0
LTYPE
  2
CENTER2
 70
     0
  3
___ _ ___ _ ___ _ ___ _ ___ _ ___ _ ___ _ ___ _
 72
    65
 73
     4
 40
1.125
 49
0.75
 49
-0.125
 49
0.125
 49
-0.125
  0
LTYPE
  2
HIDDEN2
 70
     0
  3
_ _ _ _ _ _ _ _ _ _ _ _ _ _ _ _ _ _ _ _ _ _ _ _
 72
    65
 73
     2
 40
0.1875
 49
0.125
 49
-0.0625
  0
LTYPE
  2
PHANTOM2
 70
     0
  3
___ _ _ ___ _ _ ___ _ _ ___ _ _ ___ _ _ ___ _ _
 72
    65
 73
     6
 40
1.25
 49
0.625
 49
-0.125
 49
0.125
 49
-0.125
 49
0.125
 49
-0.125
  0
LTYPE
  2
AMCONSTR
 70
     0
  3
_______________________
 72
    65
 73
     2
 40
9999.0
 49
9999.0
 49
0.0
  0
LTYPE
  2
AM_ISO02W050
 70
     0
  3
__ __ __ __ __ __ __ __ __ __ __ __ __ __ __
 72
    65
 73
     2
 40
7.5
 49
6.0
 49
-1.5
  0
LTYPE
  2
ACJISTGB
 70
     0
  3
__ . . __ . .
 72
    65
 73
     6
 40
9.0
 49
4.0
 49
-1.0
 49
1.0
 49
-1.0
 49
1.0
 49
-1.0
  0
LTYPE
  2
ACJISTGL
 70
     0
  3
_ _ _ _ _
 72
    65
 73
     2
 40
3.0
 49
2.0
 49
-1.0
  0
LTYPE
  2
ACISOWELD
 70
     0
  3
_ _ _ _ _
 72
    65
 73
     2
 40
2.0
 49
2.0
 49
-1.0
  0
LTYPE
  2
ACISOTGB
 70
     0
  3
__ . . __ . .
 72
    65
 73
     6
 40
9.0
 49
4.0
 49
-1.0
 49
1.0
 49
-1.0
 49
1.0
 49
-1.0
  0
LTYPE
  2
ACISOTGL
 70
     0
  3
_ _ _ _ _
 72
    65
 73
     2
 40
3.0
 49
2.0
 49
-1.0
  0
ENDTAB
  0
TABLE
  2
LAYER
 70
     6
  0
LAYER
  2
0
 70
     0
 62
     7
  6
CONTINUOUS
  0
LAYER
  2
240
 70
     0
 62
     4
  6
CONTINUOUS
  0
LAYER
  2
241
 70
     0
 62
   211
  6
CONTINUOUS
  0
LAYER
  2
245
 70
     0
 62
     2
  6
CENTER2
  0
LAYER
  2
250
 70
     0
 62
     3
  6
CONTINUOUS
  0
LAYER
  2
DEFPOINTS
 70
     0
 62
     7
  6
CONTINUOUS
  0
ENDTAB
  0
TABLE
  2
STYLE
 70
     6
  0
STYLE
  2
STANDARD
 70
     0
 40
0.0
 41
1.0
 50
0.0
 71
     0
 42
3.0
  3
romans.shx
  4
BIGFONT.SHX
  0
STYLE
  2
YOKO
 70
     0
 40
0.0
 41
1.0
 50
0.0
 71
     0
 42
3.0
  3
romans.shx
  4
extfont.shx
  0
STYLE
  2
ACJISTS
 70
     0
 40
1.0
 41
1.0
 50
0.0
 71
     0
 42
3.0
  3
amgdt.shx
  4
extfont.shx
  0
STYLE
  2
ACJISGDT
 70
     0
 40
0.0
 41
1.0
 50
0.0
 71
     0
 42
3.0
  3
amgdt.shx
  4
extfont.shx
  0
STYLE
  2
ACISOTS
 70
     0
 40
1.0
 41
1.0
 50
0.0
 71
     0
 42
3.0
  3
amgdt.shx
  4
extfont.shx
  0
STYLE
  2
ACISOGDT
 70
     0
 40
0.0
 41
1.0
 50
0.0
 71
     0
 42
3.0
  3
amgdt.shx
  4
extfont.shx
  0
ENDTAB
  0
TABLE
  2
VIEW
 70
     0
  0
ENDTAB
  0
TABLE
  2
UCS
 70
     0
  0
ENDTAB
  0
TABLE
  2
APPID
 70
    37
  0
APPID
  2
ACAD
 70
     0
  0
APPID
  2
GLOBAL
 70
     0
  0
APPID
  2
DETAIL
 70
     0
  0
APPID
  2
GRPNAME
 70
     0
  0
APPID
  2
GPARA
 70
     0
  0
APPID
  2
DCO15
 70
     0
  0
APPID
  2
ITEMNAME
 70
     0
  0
APPID
  2
GRADE_0
 70
     0
  0
APPID
  2
ASK_MEN_XD
 70
     0
  0
APPID
  2
LAYER_SCALE
 70
     0
  0
APPID
  2
MCAD_NO_VIS
 70
     0
  0
APPID
  2
ACAD_TEMP_GRAPHIC
 70
     0
  0
APPID
  2
ACATTRIBSERVICES
 70
     0
  0
APPID
  2
GENIUS_GENSCREG_15
 70
     0
  0
APPID
  2
GENIUS_GENODEF_13
 70
     0
  0
APPID
  2
GENIUS_GENOBJ-N-SDF_13
 70
     0
  0
APPID
  2
GENIUS_GENREC_14
 70
     0
  0
APPID
  2
GENIUS_GENOBJ-N-REC_13
 70
     0
  0
APPID
  2
GENIUS_GENDIMSH_14
 70
     0
  0
APPID
  2
GENIUS_GENOBJ-N-DIM_13
 70
     0
  0
APPID
  2
GENIUS_GENDIM_13
 70
     0
  0
APPID
  2
GENIUS_GENDTOL_13
 70
     0
  0
APPID
  2
GENIUS_GENOLIS_13
 70
     0
  0
APPID
  2
GENIUS_GENOENT_13
 70
     0
  0
APPID
  2
GENIUS_GENOBJ-F-FEM_13
 70
     0
  0
APPID
  2
GENIUS_GENOREF_13
 70
     0
  0
APPID
  2
GENIUS_GEFFEM_13
 70
     0
  0
APPID
  2
GENIUS_GEFFEMP_13
 70
     0
  0
APPID
  2
AD_DRAW
 70
     0
  0
APPID
  2
DESIGNERASSEMBLIES
 70
     0
  0
APPID
  2
ACADM_DIM_EDIT
 70
     0
  0
APPID
  2
AMDT_DM_ADJ
 70
     0
  0
APPID
  2
GENIUS_GENOBJ-N-FIL_13
 70
     0
  0
APPID
  2
GENIUS_GENFIL_13
 70
     0
  0
APPID
  2
GENIUS_GENOBJ-N-CHA_13
 70
     0
  0
APPID
  2
ACAD_NAV_VCDISPLAY
 70
     0
  0
APPID
  2
ACAD_MLEADERVER
 70
     0
  0
ENDTAB
  0
TABLE
  2
DIMSTYLE
 70
    23
  0
DIMSTYLE
  2
BIGT
 70
     0
  3

  4

  5
OPEN
  6

  7

 40
1.0
 41
2.2299999999999991
 42
0.5
 43
7.0
 44
1.0
 45
0.0
 46
0.0
 47
0.0
 48
0.01
140
2.7999999999999989
141
0.0
142
0.0
143
25.399999999999999
144
1.0
145
0.0
146
1.0
147
1.0
 71
     0
 72
     0
 73
     0
 74
     0
 75
     0
 76
     0
 77
     3
 78
     9
170
     0
171
     2
172
     1
173
     0
174
     1
175
     0
176
   256
177
   256
178
    40
  0
DIMSTYLE
  2
BIGT$0
 70
     0
  3

  4

  5
OPEN
  6

  7

 40
1.0
 41
2.2299999999999991
 42
0.5
 43
7.0
 44
1.0
 45
0.0
 46
0.0
 47
0.0
 48
0.01
140
2.7999999999999989
141
0.0
142
0.0
143
25.399999999999999
144
1.0
145
0.0
146
1.0
147
1.0
 71
     0
 72
     0
 73
     0
 74
     0
 75
     0
 76
     0
 77
     3
 78
     9
170
     0
171
     2
172
     1
173
     0
174
     1
175
     0
176
   256
177
   256
178
    40
  0
DIMSTYLE
  2
BIGT$2
 70
     0
  3

  4

  5
OPEN
  6

  7

 40
1.0
 41
2.2299999999999991
 42
0.5
 43
7.0
 44
1.0
 45
0.0
 46
0.0
 47
0.0
 48
0.01
140
2.7999999999999989
141
0.0
142
0.0
143
25.399999999999999
144
1.0
145
0.0
146
1.0
147
1.0
 71
     0
 72
     0
 73
     0
 74
     0
 75
     0
 76
     0
 77
     3
 78
     9
170
     0
171
     2
172
     1
173
     0
174
     0
175
     0
176
   256
177
   256
178
    40
  0
DIMSTYLE
  2
BIGT$3
 70
     0
  3

  4

  5
OPEN
  6

  7

 40
1.0
 41
2.2299999999999991
 42
0.5
 43
2.5
 44
1.0
 45
0.0
 46
0.0
 47
0.0
 48
0.01
140
2.7999999999999989
141
0.0
142
0.0
143
25.399999999999999
144
1.0
145
0.0
146
1.0
147
1.0
 71
     0
 72
     0
 73
     0
 74
     0
 75
     0
 76
     0
 77
     3
 78
     9
170
     0
171
     2
172
     1
173
     0
174
     0
175
     0
176
   256
177
   256
178
    40
  0
DIMSTYLE
  2
BIGT$4
 70
     0
  3

  4

  5
OPEN
  6

  7

 40
1.0
 41
2.2299999999999991
 42
0.5
 43
2.5
 44
1.0
 45
0.0
 46
0.0
 47
0.0
 48
0.01
140
2.7999999999999989
141
0.0
142
0.0
143
25.399999999999999
144
1.0
145
0.0
146
1.0
147
1.0
 71
     0
 72
     0
 73
     0
 74
     0
 75
     0
 76
     0
 77
     3
 78
     9
170
     0
171
     2
172
     1
173
     0
174
     0
175
     0
176
   256
177
   256
178
    40
  0
DIMSTYLE
  2
BIGT$6
 70
     0
  3

  4

  5
OPEN
  6

  7

 40
1.0
 41
2.2299999999999991
 42
0.5
 43
2.5
 44
1.0
 45
0.0
 46
0.0
 47
0.0
 48
0.01
140
2.7999999999999989
141
0.0
142
0.0
143
25.399999999999999
144
1.0
145
0.0
146
1.0
147
1.0
 71
     0
 72
     0
 73
     0
 74
     0
 75
     0
 76
     0
 77
     3
 78
     9
170
     0
171
     2
172
     1
173
     0
174
     0
175
     0
176
   256
177
   256
178
    40
  0
DIMSTYLE
  2
BIGT$7
 70
     0
  3

  4

  5
OPEN
  6

  7

 40
0.0
 41
2.2299999999999991
 42
0.5
 43
7.0
 44
1.0
 45
0.0
 46
0.0
 47
0.0
 48
0.01
140
2.7999999999999989
141
0.0
142
0.0
143
25.399999999999999
144
1.0
145
0.0
146
1.0
147
1.0
 71
     0
 72
     0
 73
     0
 74
     0
 75
     0
 76
     0
 77
     3
 78
     9
170
     0
171
     2
172
     0
173
     0
174
     0
175
     0
176
   256
177
   256
178
    40
  0
DIMSTYLE
  2
BIGT$SF
 70
     0
  3

  4

  5
OPEN
  6

  7

 40
1.0
 41
2.2299999999999991
 42
0.5
 43
7.0
 44
1.0
 45
0.0
 46
0.0
 47
0.0
 48
0.0
140
2.7999999999999989
141
0.0
142
0.0
143
25.399999999999999
144
1.0
145
0.0
146
1.0
147
1.0
 71
     0
 72
     0
 73
     0
 74
     0
 75
     0
 76
     0
 77
     3
 78
     9
170
     0
171
     2
172
     1
173
     0
174
     0
175
     0
176
   256
177
   256
178
    40
  0
DIMSTYLE
  2
BIGT$SH
 70
     0
  3

  4

  5
OPEN
  6

  7

 40
1.0
 41
2.2299999999999991
 42
0.5
 43
7.0
 44
1.0
 45
0.0
 46
0.0
 47
0.0
 48
0.0
140
2.7999999999999989
141
0.0
142
0.0
143
25.399999999999999
144
1.0
145
0.0
146
1.0
147
1.0
 71
     0
 72
     0
 73
     0
 74
     0
 75
     0
 76
     0
 77
     3
 78
     9
170
     0
171
     2
172
     1
173
     0
174
     0
175
     0
176
   256
177
   256
178
    40
  0
DIMSTYLE
  2
AM_ISO
 70
     0
  3

  4
"
  5

  6

  7

 40
1.0
 41
2.5
 42
1.0
 43
10.0
 44
1.0
 45
0.0
 46
0.0
 47
0.1
 48
0.1
140
3.5
141
0.0
142
0.0
143
0.0393701
144
1.0
145
0.0
146
0.71
147
1.5
 71
     0
 72
     0
 73
     0
 74
     0
 75
     0
 76
     0
 77
     1
 78
     8
170
     0
171
     2
172
     1
173
     0
174
     0
175
     0
176
   256
177
   256
178
     2
  0
DIMSTYLE
  2
AM_ISO$3
 70
     0
  3

  4
"
  5

  6

  7

 40
1.0
 41
2.5
 42
1.0
 43
10.0
 44
1.0
 45
0.0
 46
0.0
 47
0.1
 48
0.1
140
3.5
141
0.0
142
0.0
143
0.0393701
144
1.0
145
0.0
146
0.71
147
1.5
 71
     0
 72
     0
 73
     0
 74
     1
 75
     0
 76
     0
 77
     1
 78
     8
170
     0
171
     2
172
     0
173
     0
174
     0
175
     0
176
   256
177
   256
178
     2
  0
DIMSTYLE
  2
AM_ISO$4
 70
     0
  3

  4
"
  5

  6

  7

 40
1.0
 41
2.5
 42
1.0
 43
10.0
 44
1.0
 45
0.0
 46
0.0
 47
0.1
 48
0.1
140
3.5
141
0.0
142
0.0
143
0.0393701
144
1.0
145
0.0
146
0.71
147
1.5
 71
     0
 72
     0
 73
     0
 74
     1
 75
     0
 76
     0
 77
     1
 78
     8
170
     0
171
     2
172
     0
173
     0
174
     0
175
     0
176
   256
177
   256
178
     2
  0
DIMSTYLE
  2
AM_ISO$6
 70
     0
  3

  4
"
  5

  6

  7

 40
1.0
 41
2.5
 42
1.0
 43
10.0
 44
1.0
 45
0.0
 46
0.0
 47
0.1
 48
0.1
140
3.5
141
0.0
142
0.0
143
0.0393701
144
1.0
145
0.0
146
0.71
147
1.5
 71
     0
 72
     0
 73
     0
 74
     0
 75
     0
 76
     0
 77
     0
 78
     8
170
     0
171
     2
172
     1
173
     0
174
     0
175
     0
176
   256
177
   256
178
     2
  0
DIMSTYLE
  2
AM_ISO$7
 70
     0
  3

  4
"
  5

  6

  7

 40
1.0
 41
2.5
 42
1.0
 43
10.0
 44
1.0
 45
0.0
 46
0.0
 47
0.1
 48
0.1
140
5.0
141
0.0
142
0.0
143
0.0393701
144
1.0
145
0.0
146
0.71
147
1.5
 71
     0
 72
     0
 73
     0
 74
     0
 75
     0
 76
     0
 77
     1
 78
     8
170
     0
171
     2
172
     1
173
     0
174
     0
175
     0
176
   256
177
   256
178
     2
  0
DIMSTYLE
  2
AM_ISO$SF
 70
     0
  3

  4
"
  5

  6

  7

 40
1.0
 41
2.5
 42
1.0
 43
10.0
 44
1.0
 45
0.0
 46
0.0
 47
0.1
 48
0.1
140
3.5
141
0.0
142
0.0
143
0.0393701
144
1.0
145
0.0
146
0.71
147
1.5
 71
     0
 72
     0
 73
     0
 74
     0
 75
     1
 76
     1
 77
     1
 78
     8
170
     0
171
     2
172
     1
173
     0
174
     0
175
     0
176
   256
177
   256
178
     2
  0
DIMSTYLE
  2
AM_ISO$SH
 70
     0
  3

  4
"
  5

  6
GENAXEH
  7

 40
1.0
 41
2.5
 42
1.0
 43
10.0
 44
1.0
 45
0.0
 46
0.0
 47
0.1
 48
0.1
140
3.5
141
0.0
142
0.0
143
0.0393701
144
2.0
145
0.0
146
0.71
147
1.5
 71
     0
 72
     0
 73
     0
 74
     0
 75
     1
 76
     1
 77
     1
 78
     8
170
     0
171
     2
172
     1
173
     1
174
     0
175
     0
176
   256
177
   256
178
     2
  0
DIMSTYLE
  2
TECHNICAL_OSAKA
 70
     0
  3

  4
"
  5
OPEN30
  6

  7

 40
1.0
 41
2.5
 42
1.0
 43
10.0
 44
1.0
 45
0.0
 46
0.0
 47
0.1
 48
0.1
140
2.7999999999999989
141
0.0
142
0.0
143
0.0393701
144
1.0
145
0.0
146
0.71
147
1.5
 71
     0
 72
     0
 73
     0
 74
     0
 75
     0
 76
     0
 77
     3
 78
     8
170
     0
171
     2
172
     1
173
     0
174
     0
175
     0
176
   256
177
   256
178
    40
  0
DIMSTYLE
  2
TECHNICAL_OSAKA$3
 70
     0
  3

  4
"
  5
OPEN30
  6

  7

 40
1.0
 41
2.5
 42
1.0
 43
10.0
 44
1.0
 45
0.0
 46
0.0
 47
0.1
 48
0.1
140
2.7999999999999989
141
0.0
142
0.0
143
0.0393701
144
1.0
145
0.0
146
0.71
147
1.5
 71
     0
 72
     0
 73
     0
 74
     1
 75
     0
 76
     0
 77
     3
 78
     8
170
     0
171
     2
172
     0
173
     0
174
     0
175
     0
176
   256
177
   256
178
    40
  0
DIMSTYLE
  2
TECHNICAL_OSAKA$4
 70
     0
  3

  4
"
  5
OPEN30
  6

  7

 40
1.0
 41
2.5
 42
1.0
 43
10.0
 44
1.0
 45
0.0
 46
0.0
 47
0.1
 48
0.1
140
2.7999999999999989
141
0.0
142
0.0
143
0.0393701
144
1.0
145
0.0
146
0.71
147
1.5
 71
     0
 72
     0
 73
     0
 74
     1
 75
     0
 76
     0
 77
     3
 78
     8
170
     0
171
     2
172
     0
173
     0
174
     0
175
     0
176
   256
177
   256
178
    40
  0
DIMSTYLE
  2
TECHNICAL_OSAKA$6
 70
     0
  3

  4
"
  5
OPEN30
  6

  7

 40
1.0
 41
2.5
 42
1.0
 43
10.0
 44
1.0
 45
0.0
 46
0.0
 47
0.1
 48
0.1
140
2.7999999999999989
141
0.0
142
0.0
143
0.0393701
144
1.0
145
0.0
146
0.71
147
1.5
 71
     0
 72
     0
 73
     0
 74
     0
 75
     0
 76
     0
 77
     0
 78
     8
170
     0
171
     2
172
     1
173
     0
174
     0
175
     0
176
   256
177
   256
178
    40
  0
DIMSTYLE
  2
TECHNICAL_OSAKA$7
 70
     0
  3

  4
"
  5
OPEN30
  6

  7

 40
1.0
 41
2.5
 42
1.0
 43
10.0
 44
1.0
 45
0.0
 46
0.0
 47
0.1
 48
0.1
140
2.7999999999999989
141
0.0
142
0.0
143
0.0393701
144
1.0
145
0.0
146
0.71
147
1.5
 71
     0
 72
     0
 73
     0
 74
     0
 75
     0
 76
     0
 77
     3
 78
     8
170
     0
171
     2
172
     1
173
     0
174
     0
175
     0
176
   256
177
   256
178
    40
  0
DIMSTYLE
  2
TECHNICAL_OSAKA$SF
 70
     0
  3

  4
"
  5
OPEN30
  6
OPEN30
  7
OPEN30
 40
1.0
 41
2.5
 42
1.0
 43
10.0
 44
1.0
 45
0.0
 46
0.0
 47
0.1
 48
0.1
140
3.5
141
0.0
142
0.0
143
0.0393701
144
1.0
145
0.0
146
0.71
147
1.5
 71
     0
 72
     0
 73
     0
 74
     0
 75
     1
 76
     1
 77
     3
 78
     8
170
     0
171
     2
172
     1
173
     0
174
     0
175
     0
176
   256
177
   256
178
    40
  0
DIMSTYLE
  2
TECHNICAL_OSAKA$SH
 70
     0
  3

  4
"
  5
OPEN30
  6
GENAXEH
  7
OPEN30
 40
1.0
 41
2.5
 42
1.0
 43
10.0
 44
1.0
 45
0.0
 46
0.0
 47
0.1
 48
0.1
140
3.5
141
0.0
142
0.0
143
0.0393701
144
2.0
145
0.0
146
0.71
147
1.5
 71
     0
 72
     0
 73
     0
 74
     0
 75
     1
 76
     1
 77
     3
 78
     8
170
     0
171
     2
172
     1
173
     1
174
     0
175
     0
176
   256
177
   256
178
    40
  0
ENDTAB
  0
ENDSEC
  0
SECTION
  2
BLOCKS
  0
BLOCK
  8
0
  2
$MODEL_SPACE
 70
     0
 10
0.0
 20
0.0
 30
0.0
  3
$MODEL_SPACE
  1

  0
ENDBLK
  5
1C
  8
0
  0
BLOCK
 67
     1
  8
0
  2
$PAPER_SPACE
 70
     0
 10
0.0
 20
0.0
 30
0.0
  3
$PAPER_SPACE
  1

  0
ENDBLK
  5
19
 67
     1
  8
0
  0
BLOCK
  8
0
  2
_OPEN
 70
     0
 10
0.0
 20
0.0
 30
0.0
  3
_OPEN
  1

  0
LINE
  5
D0D
  8
0
  6
BYBLOCK
 62
     0
 10
-1.0
 20
0.1666666666666666
 30
0.0
 11
0.0
 21
0.0
 31
0.0
  0
LINE
  5
D0E
  8
0
  6
BYBLOCK
 62
     0
 10
-1.0
 20
-0.1666666666666666
 30
0.0
 11
0.0
 21
0.0
 31
0.0
  0
LINE
  5
D0F
  8
0
  6
BYBLOCK
 62
     0
 10
0.0
 20
0.0
 30
0.0
 11
-1.0
 21
0.0
 31
0.0
  0
ENDBLK
  5
D10
  8
0
  0
BLOCK
  8
0
  2
矢印なし
 70
     0
 10
0.0
 20
0.0
 30
0.0
  3
矢印なし
  1

  0
ENDBLK
  5
6E5
  8
0
  0
BLOCK
  8
0
  2
GENAXEH
 70
     0
 10
0.0
 20
0.0
 30
0.0
  3
GENAXEH
  1

  0
LINE
  5
D48
  8
0
 10
-1.0
 20
0.0
 30
0.0
 11
1.0
 21
0.0
 31
0.0
  0
ENDBLK
  5
D49
  8
0
  0
BLOCK
  8
0
  2
_OPEN30
 70
     0
 10
0.0
 20
0.0
 30
0.0
  3
_OPEN30
  1

  0
LINE
  5
D84
  8
0
  6
BYBLOCK
 62
     0
 10
-1.0
 20
0.26794919
 30
0.0
 11
0.0
 21
0.0
 31
0.0
  0
LINE
  5
D85
  8
0
  6
BYBLOCK
 62
     0
 10
0.0
 20
0.0
 30
0.0
 11
-1.0
 21
-0.26794919
 31
0.0
  0
LINE
  5
D86
  8
0
  6
BYBLOCK
 62
     0
 10
0.0
 20
0.0
 30
0.0
 11
-1.0
 21
0.0
 31
0.0
  0
ENDBLK
  5
D87
  8
0
  0
ENDSEC
  0
SECTION
  2
ENTITIES
  0
INSERT
  5
6E6
  8
245
  2
矢印なし
 10
175.62382696643769
 20
90.551235716905978
 30
0.0
  0
TEXT
  5
80F
  8
241
  6
CONTINUOUS
 10
-65.400000000000063
 20
70.0
 30
0.0
 40
5.0
  1
BBT40-MEGA32D-200A
  7
YOKO
 11
-65.400000000000063
 21
70.0
 31
0.0
 73
     1
  0
LINE
  5
83C
  8
250
 10
-48.256370890134079
 20
-28.151483684754961
 30
0.0
 11
-65.989704223467413
 21
-28.151483684754961
 31
0.0
1001
ITEMNAME
1000
LNSP2
  0
LINE
  5
DB6
  8
245
  6
CENTER2
 10
16.599999999999941
 20
31.500000000000149
 30
0.0
 11
16.599999999999909
 21
-31.500000000000298
 31
0.0
  0
LINE
  5
DB7
  8
241
  6
CONTINUOUS
 10
21.599999999999909
 20
-31.5
 30
0.0
 11
21.599999999999909
 21
0.0
 31
0.0
  0
LINE
  5
DB8
  8
241
  6
CONTINUOUS
 10
11.599999999999911
 20
0.0
 30
0.0
 11
11.59999999999993
 21
-31.500000000000028
 31
0.0
  0
LINE
  5
DB9
  8
241
  6
CONTINUOUS
 10
-0.0000000000001705
 20
-22.224999999999941
 30
0.0
 11
0.0
 21
0.0
 31
0.0
  0
LINE
  5
DBA
  8
240
  6
CONTINUOUS
 10
0.9999999999998864
 20
-30.5
 30
0.0
 11
0.9999999999998293
 21
-22.224999999999909
 31
0.0
  0
ARC
  5
DBB
  8
240
  6
CONTINUOUS
 10
1.9999999999998841
 20
-30.5
 30
0.0
 40
1.0
 50
180.0
 51
270.0
  0
LINE
  5
DBC
  8
240
  6
CONTINUOUS
 10
-65.400000000000048
 20
11.30390895524866
 30
0.0
 11
-65.400000000000077
 21
-11.30390895524873
 31
0.0
  0
ARC
  5
DBD
  8
240
  6
CONTINUOUS
 10
-63.800000000000061
 20
-11.30390895524873
 30
0.0
 40
1.6000000000000001
 50
180.0
 51
261.70285503016299
  0
LINE
  5
DBE
  8
240
  6
CONTINUOUS
 10
-0.0000000000001137
 20
-22.225000000000001
 30
0.0
 11
-64.030891028914851
 21
-12.88716172494998
 31
0.0
  0
LINE
  5
DBF
  8
240
  6
CONTINUOUS
 10
21.599999999999909
 20
-31.5
 30
0.0
 11
26.999999999999829
 21
-31.500000000000171
 31
0.0
  0
LINE
  5
DC0
  8
241
  6
HIDDEN2
 10
22.99999999999989
 20
-22.5
 30
0.0
 11
22.99999999999989
 21
-31.5
 31
0.0
  0
LINE
  5
DC1
  8
240
  6
CONTINUOUS
 10
1.9999999999998841
 20
-31.5
 30
0.0
 11
11.59999999999985
 21
-31.500000000000199
 31
0.0
  0
LINE
  5
DC2
  8
241
  6
HIDDEN2
 10
22.99999999999989
 20
-22.5
 30
0.0
 11
0.9999999999998864
 21
-22.5
 31
0.0
  0
LINE
  5
DC3
  8
245
  6
CENTER2
 10
-66.400000000000063
 20
0.0000000000000284
 30
0.0
 11
200.99999999999909
 21
-0.0000000000000142
 31
0.0
  0
LINE
  5
DC4
  8
240
  6
CONTINUOUS
 10
-0.0000000000001137
 20
22.225000000000001
 30
0.0
 11
-64.030891028914823
 21
12.88716172494992
 31
0.0
  0
ARC
  5
DC5
  8
240
  6
CONTINUOUS
 10
-63.800000000000061
 20
11.30390895524866
 30
0.0
 40
1.6000000000000001
 50
98.297144969836921
 51
180.0
  0
LINE
  5
DC6
  8
240
  6
CONTINUOUS
 10
21.599999999999909
 20
31.500000000000028
 30
0.0
 11
26.999999999991161
 21
31.500000000000231
 31
0.0
  0
LINE
  5
DC7
  8
241
  6
HIDDEN2
 10
22.99999999999989
 20
22.5
 30
0.0
 11
1.299999999999897
 21
22.5
 31
0.0
  0
LINE
  5
DC8
  8
240
  6
CONTINUOUS
 10
1.999999999999829
 20
31.500000000000028
 30
0.0
 11
11.59999999999993
 21
31.50000000000006
 31
0.0
  0
ARC
  5
DC9
  8
240
  6
CONTINUOUS
 10
1.999999999999829
 20
30.500000000000028
 30
0.0
 40
1.0
 50
90.0
 51
180.0000000000023
  0
LINE
  5
DCA
  8
240
  6
CONTINUOUS
 10
1.0000000000002269
 20
22.225000000001419
 30
0.0
 11
0.9999999999998293
 21
30.500000000000028
 31
0.0
  0
LINE
  5
DCB
  8
241
  6
HIDDEN2
 10
22.99999999999989
 20
22.5
 30
0.0
 11
22.99999999999989
 21
31.500000000000028
 31
0.0
  0
LINE
  5
DCC
  8
241
  6
CONTINUOUS
 10
14.486751345948219
 20
-26.49999999999967
 30
0.0
 11
14.48675134594825
 21
0.0000000000000142
 31
0.0
  0
LINE
  5
DCD
  8
240
  6
CONTINUOUS
 10
14.486751345948219
 20
-26.49999999999967
 30
0.0
 11
11.59999999999985
 21
-31.500000000000199
 31
0.0
  0
LINE
  5
DCE
  8
240
  6
CONTINUOUS
 10
18.713248654051679
 20
-26.49999999999979
 30
0.0
 11
14.486751345948219
 21
-26.49999999999967
 31
0.0
1001
GRPNAME
1000
PASTMD1I
  0
LINE
  5
DCF
  8
241
  6
CONTINUOUS
 10
18.713248654051679
 20
-26.49999999999979
 30
0.0
 11
18.713248654051789
 21
0.0000000000000142
 31
0.0
  0
LINE
  5
DD0
  8
240
  6
CONTINUOUS
 10
18.713248654051679
 20
-26.49999999999979
 30
0.0
 11
21.599999999999991
 21
-31.5
 31
0.0
  0
LINE
  5
DD1
  8
240
  6
CONTINUOUS
 10
21.600000000000279
 20
31.500000000000028
 30
0.0
 11
18.713248654050972
 21
26.499999999999261
 31
0.0
  0
LINE
  5
DD2
  8
240
  6
CONTINUOUS
 10
11.599999999999881
 20
31.50000000000006
 30
0.0
 11
14.486751345948759
 21
26.499999999999151
 31
0.0
  0
LINE
  5
DD3
  8
240
 10
-0.0000000000001705
 20
-22.224999999999941
 30
0.0
 11
0.9999999999998293
 21
-22.224999999999909
 31
0.0
  0
LINE
  5
DD4
  8
241
 10
0.9999999999998293
 20
-22.2249999999996
 30
0.0
 11
0.9999999999998293
 21
0.0
 31
0.0
  0
LINE
  5
DD5
  8
241
  6
CONTINUOUS
 10
14.486751345948219
 20
26.49999999999967
 30
0.0
 11
14.48675134594825
 21
-0.0000000000000142
 31
0.0
  0
LINE
  5
DD6
  8
240
  6
CONTINUOUS
 10
18.713248654051679
 20
26.499999999999801
 30
0.0
 11
14.486751345948219
 21
26.49999999999967
 31
0.0
1001
GRPNAME
1000
PASTMD1I
  0
LINE
  5
DD7
  8
241
  6
CONTINUOUS
 10
18.713248654051679
 20
26.499999999999801
 30
0.0
 11
18.713248654051789
 21
-0.0000000000000142
 31
0.0
  0
LINE
  5
DD8
  8
240
 10
-0.0000000000001705
 20
22.224999999999941
 30
0.0
 11
1.0000000000002269
 21
22.225000000001419
 31
0.0
  0
LINE
  5
DD9
  8
241
  6
CONTINUOUS
 10
-0.0000000000001705
 20
22.224999999999941
 30
0.0
 11
0.0
 21
0.0
 31
0.0
  0
LINE
  5
DDA
  8
241
 10
0.9999999999998293
 20
22.2249999999996
 30
0.0
 11
0.9999999999998293
 21
0.0
 31
0.0
  0
LINE
  5
DDB
  8
241
  6
CONTINUOUS
 10
21.599999999999909
 20
31.500000000000028
 30
0.0
 11
21.599999999999909
 21
0.0
 31
0.0
  0
LINE
  5
DDC
  8
241
  6
CONTINUOUS
 10
11.599999999999911
 20
0.0
 30
0.0
 11
11.59999999999993
 21
31.50000000000006
 31
0.0
  0
LINE
  5
DDD
  8
240
  6
CONTINUOUS
 10
27.100000000003629
 20
-31.399999999999981
 30
0.0
 11
26.99999999999989
 21
-31.5
 31
0.0
  0
LINE
  5
DDE
  8
241
 10
27.100000000003629
 20
-31.40000000000013
 30
0.0
 11
27.100000000003629
 21
0.0000000000000426
 31
0.0
  0
LINE
  5
DDF
  8
240
  6
CONTINUOUS
 10
27.100000000003629
 20
31.399999999999981
 30
0.0
 11
26.99999999999989
 21
31.5
 31
0.0
  0
LINE
  5
DE0
  8
241
 10
27.100000000003629
 20
31.400000000000151
 30
0.0
 11
27.100000000003629
 21
-0.0000000000000284
 31
0.0
  0
LINE
  5
DE1
  8
240
  6
CONTINUOUS
 10
156.79999999999899
 20
-35.350000000000009
 30
0.0
 11
165.09999999999911
 21
-35.350000000000009
 31
0.0
  0
LINE
  5
DE2
  8
240
  6
CONTINUOUS
 10
165.4499999999889
 20
-34.999999999999957
 30
0.0
 11
186.2626129027268
 21
-34.999999999999879
 31
0.0
  0
ARC
  5
DE3
  8
240
  6
CONTINUOUS
 10
156.79999999999899
 20
-33.350000000000009
 30
0.0
 40
2.0
 50
180.0
 51
270.0
  0
LINE
  5
DE4
  8
241
 10
146.19999999999951
 20
31.399999999999981
 30
0.0
 11
146.19999999999851
 21
-0.0000000000000142
 31
0.0
  0
LINE
  5
DE5
  8
240
 10
199.99999999999901
 20
27.199169847161329
 30
0.0
 11
199.9999999999994
 21
0.0000000000000142
 31
0.0
  0
LINE
  5
DE6
  8
240
 10
199.99999999999909
 20
-27.199169847161141
 30
0.0
 11
199.99999999999909
 21
-0.0000000000000142
 31
0.0
  0
LINE
  5
DE7
  8
241
  6
CONTINUOUS
 10
146.19999999999851
 20
-0.0000000000000142
 30
0.0
 11
146.19999999999851
 21
-31.40000000000013
 31
0.0
  0
ARC
  5
DE8
  8
240
 10
153.29999999999859
 20
-32.899999999999991
 30
0.0
 40
1.5
 50
359.99999999987381
 51
90.0
1001
ASK_MEN_XD
1005
0
1070
     1
1005
0
1070
     1
  0
LINE
  5
DE9
  8
241
 10
165.4499999999889
 20
-35.000000000000021
 30
0.0
 11
165.4499999999889
 21
-0.0000000000000142
 31
0.0
1001
GRPNAME
1000
PASTMD1C
  0
LINE
  5
DEA
  8
240
 10
165.4499999999889
 20
-34.999999999999957
 30
0.0
 11
165.09999999999911
 21
-35.350000000000037
 31
0.0
1001
GRPNAME
1000
PASTMD1C
  0
LINE
  5
DEB
  8
240
 10
197.3680805733018
 20
-30.957940330304769
 30
0.0
 11
186.2626129027272
 21
-34.999999999999929
 31
0.0
  0
ARC
  5
DEC
  8
240
 10
195.99999999999909
 20
-27.199169847161141
 30
0.0
 40
4.0
 50
290.00000000000011
 51
0.0
  0
LINE
  5
DED
  8
241
 10
186.2626129027268
 20
-34.999999999999879
 30
0.0
 11
186.2626129027266
 21
-0.0000000000000142
 31
0.0
  0
LINE
  5
DEE
  8
240
 10
197.3680805733016
 20
30.957940330304901
 30
0.0
 11
186.26261290272609
 21
35.000000000000227
 31
0.0
  0
ARC
  5
DEF
  8
240
 10
195.99999999999901
 20
27.199169847161269
 30
0.0
 40
4.0
 50
0.0
 51
69.999999999999915
  0
LINE
  5
DF0
  8
241
  6
CONTINUOUS
 10
154.79999999999899
 20
-0.0000000000000142
 30
0.0
 11
154.79999999999899
 21
-32.899999999999991
 31
0.0
  0
LINE
  5
DF1
  8
240
  6
CONTINUOUS
 10
154.8000000000014
 20
-32.900000000003303
 30
0.0
 11
154.79999999999899
 21
-33.350000000000009
 31
0.0
  0
LINE
  5
DF2
  8
240
  6
CONTINUOUS
 10
156.79999999999899
 20
35.349999999999973
 30
0.0
 11
165.09999999999911
 21
35.349999999999973
 31
0.0
  0
ARC
  5
DF3
  8
240
  6
CONTINUOUS
 10
156.79999999999899
 20
33.349999999999973
 30
0.0
 40
2.0
 50
90.0
 51
180.0
  0
ARC
  5
DF4
  8
240
 10
153.29999999999859
 20
32.899999999999991
 30
0.0
 40
1.5
 50
270.0
 51
0.0
1001
ASK_MEN_XD
1005
0
1070
     1
1005
0
1070
     1
  0
LINE
  5
DF5
  8
240
 10
165.4499999999889
 20
34.99999999999995
 30
0.0
 11
165.09999999999911
 21
35.350000000000023
 31
0.0
1001
GRPNAME
1000
PASTMD1C
  0
LINE
  5
DF6
  8
240
  6
CONTINUOUS
 10
154.79999999999961
 20
32.900000000011261
 30
0.0
 11
154.79999999999899
 21
33.349999999999973
 31
0.0
  0
LINE
  5
DF7
  8
240
  6
CONTINUOUS
 10
165.4499999999889
 20
34.99999999999995
 30
0.0
 11
186.2626129027268
 21
34.999999999999829
 31
0.0
  0
LINE
  5
DF8
  8
241
 10
165.4499999999889
 20
35.0
 30
0.0
 11
165.4499999999889
 21
-0.0000000000000142
 31
0.0
1001
GRPNAME
1000
PASTMD1C
  0
LINE
  5
DF9
  8
241
 10
186.2626129027268
 20
34.999999999999829
 30
0.0
 11
186.2626129027266
 21
-0.0000000000000142
 31
0.0
  0
LINE
  5
DFA
  8
241
  6
CONTINUOUS
 10
154.79999999999899
 20
-0.0000000000000142
 30
0.0
 11
154.79999999999899
 21
32.899999999999991
 31
0.0
  0
LINE
  5
DFB
  8
241
  6
HIDDEN2
 10
197.50000000000051
 20
16.049999999998018
 30
0.0
 11
199.99999999999929
 21
16.049999999997961
 31
0.0
  0
LINE
  5
DFC
  8
241
  6
HIDDEN2
 10
197.50000000000031
 20
21.535837971092811
 30
0.0
 11
197.50000000000031
 21
0.0000000000000426
 31
0.0
  0
LINE
  5
DFD
  8
241
  6
HIDDEN2
 10
117.8660254037753
 20
16.000000000000028
 30
0.0
 11
197.50000000000051
 21
16.000000000000082
 31
0.0
1001
GRPNAME
1000
PASTMD64
  0
LINE
  5
DFE
  8
241
 10
134.1999999999986
 20
-0.0000000000005969
 30
0.0
 11
134.1999999999986
 21
-31.400000000000109
 31
0.0
  0
LINE
  5
DFF
  8
241
 10
128.19999999999871
 20
-0.0000000000005969
 30
0.0
 11
128.19999999999871
 21
-31.400000000000428
 31
0.0
  0
LINE
  5
E00
  8
241
 10
126.1999999999987
 20
-0.0000000000005969
 30
0.0
 11
126.1999999999987
 21
-31.400000000000471
 31
0.0
  0
LINE
  5
E01
  8
241
 10
120.1999999999987
 20
-0.0000000000005969
 30
0.0
 11
120.1999999999987
 21
-31.400000000000091
 31
0.0
  0
LINE
  5
E02
  8
240
 10
120.70000000000989
 20
-30.89999999999959
 30
0.0
 11
125.7000000000052
 21
-30.900000000000901
 31
0.0
  0
LINE
  5
E03
  8
240
 10
125.7000000000052
 20
-30.900000000000901
 30
0.0
 11
126.1999999999987
 21
-31.400000000000471
 31
0.0
  0
LINE
  5
E04
  8
240
 10
120.70000000000989
 20
-30.89999999999959
 30
0.0
 11
120.19999999999889
 21
-31.400000000000531
 31
0.0
  0
LINE
  5
E05
  8
240
 10
126.1999999999987
 20
-31.400000000000482
 30
0.0
 11
128.19999999999871
 21
-31.400000000000428
 31
0.0
  0
LINE
  5
E06
  8
240
 10
153.29999999999859
 20
-31.399999999999991
 30
0.0
 11
134.1999999999986
 21
-31.400000000000109
 31
0.0
  0
LINE
  5
E07
  8
240
 10
120.1999999999987
 20
-31.400000000000091
 30
0.0
 11
27.100000000003629
 21
-31.400000000000329
 31
0.0
  0
LINE
  5
E08
  8
240
 10
128.70000000000979
 20
-30.899999999999238
 30
0.0
 11
133.7000000000051
 21
-30.900000000000549
 31
0.0
  0
LINE
  5
E09
  8
240
 10
133.7000000000051
 20
-30.900000000000549
 30
0.0
 11
134.1999999999986
 21
-31.400000000000109
 31
0.0
  0
LINE
  5
E0A
  8
240
 10
128.70000000000979
 20
-30.899999999999238
 30
0.0
 11
128.19999999999891
 21
-31.40000000000018
 31
0.0
  0
LINE
  5
E0B
  8
241
 10
134.1999999999986
 20
0.0000000000005684
 30
0.0
 11
134.1999999999986
 21
31.400000000000091
 31
0.0
  0
LINE
  5
E0C
  8
241
 10
128.19999999999871
 20
0.0000000000005826
 30
0.0
 11
128.19999999999871
 21
31.400000000000428
 31
0.0
  0
LINE
  5
E0D
  8
241
 10
126.1999999999987
 20
0.0000000000005826
 30
0.0
 11
126.1999999999987
 21
31.400000000000428
 31
0.0
  0
LINE
  5
E0E
  8
241
 10
120.1999999999987
 20
0.0000000000005826
 30
0.0
 11
120.19999999999879
 21
31.400000000000091
 31
0.0
  0
LINE
  5
E0F
  8
240
 10
120.70000000000989
 20
30.899999999999579
 30
0.0
 11
125.7000000000052
 21
30.90000000000089
 31
0.0
  0
LINE
  5
E10
  8
240
 10
125.7000000000052
 20
30.90000000000089
 30
0.0
 11
126.1999999999987
 21
31.400000000000428
 31
0.0
  0
LINE
  5
E11
  8
240
 10
120.70000000000989
 20
30.899999999999579
 30
0.0
 11
120.19999999999889
 21
31.400000000000521
 31
0.0
  0
LINE
  5
E12
  8
240
 10
126.1999999999987
 20
31.400000000000471
 30
0.0
 11
128.19999999999871
 21
31.400000000000428
 31
0.0
  0
LINE
  5
E13
  8
240
 10
153.29999999999859
 20
31.399999999999981
 30
0.0
 11
134.1999999999986
 21
31.400000000000091
 31
0.0
  0
LINE
  5
E14
  8
240
 10
120.19999999999879
 20
31.400000000000091
 30
0.0
 11
27.100000000003661
 21
31.400000000000361
 31
0.0
  0
LINE
  5
E15
  8
240
 10
128.70000000000979
 20
30.899999999999238
 30
0.0
 11
133.70000000000519
 21
30.900000000000521
 31
0.0
  0
LINE
  5
E16
  8
240
 10
133.70000000000519
 20
30.900000000000521
 30
0.0
 11
134.1999999999986
 21
31.400000000000091
 31
0.0
  0
LINE
  5
E17
  8
240
 10
128.70000000000979
 20
30.899999999999238
 30
0.0
 11
128.19999999999891
 21
31.400000000000151
 31
0.0
  0
LINE
  5
E18
  8
250
 10
165.599999999999
 20
-35.350000000000037
 30
0.0
 11
228.9999999999994
 21
-35.350000000000072
 31
0.0
  0
LINE
  5
E19
  8
250
 10
165.599999999999
 20
35.350000000000023
 30
0.0
 11
228.9999999999994
 21
35.350000000000001
 31
0.0
  0
LINE
  5
E1A
  8
250
 10
227.9999999999994
 20
-33.120000000000061
 30
0.0
 11
227.9999999999994
 21
33.120000000000012
 31
0.0
  0
LINE
  5
E1E
  8
250
 10
186.7626129027268
 20
-34.999999999999879
 30
0.0
 11
221.9999999999994
 21
-34.999999999999879
 31
0.0
  0
LINE
  5
E1F
  8
250
 10
186.7626129027268
 20
34.999999999999829
 30
0.0
 11
221.9999999999994
 21
34.999999999999822
 31
0.0
  0
LINE
  5
E20
  8
250
 10
220.9999999999994
 20
-32.769999999999889
 30
0.0
 11
220.9999999999994
 21
32.769999999999833
 31
0.0
  0
LINE
  5
E24
  8
250
 10
198.00000000000031
 20
15.999999999999829
 30
0.0
 11
214.99999999999949
 21
15.999999999999821
 31
0.0
  0
LINE
  5
E25
  8
250
 10
213.9999999999994
 20
-13.770000000000159
 30
0.0
 11
213.9999999999994
 21
13.76999999999982
 31
0.0
  0
INSERT
  5
E26
  8
250
  6
CONTINUOUS
  2
矢印なし
 10
213.9999999999994
 20
-16.00000000000016
 30
0.0
 41
2.2299999999999991
 42
2.2299999999999991
 43
2.2299999999999991
 50
270.0
  0
TEXT
  5
E29
  8
250
 10
-63.723037556800719
 20
-27.151483684754961
 30
0.0
 40
2.799999999999998
  1
BBT40
  7
YOKO
1001
ITEMNAME
1000
LNSP3
1001
ACAD
1000
MTEXTBEGIN
1070
    73
1070
     1
1070
    44
1040
1.0
1070
    74
1070
     0
1000
MTEXTEND
  0
POLYLINE
  5
E2B
  8
250
 66
     1
 10
0.0
 20
0.0
 30
0.0
1001
ACAD
1000
DSTYLE
1002
{
1070
    41
1040
2.0
1002
}
  0
VERTEX
  5
EC5
  8
250
 10
-42.352925238793503
 20
-17.92641587691153
 30
0.0
  0
VERTEX
  5
EC6
  8
250
 10
-48.256370890134079
 20
-28.151483684754961
 30
0.0
  0
SEQEND
  5
EC7
  8
250
  0
LINE
  5
E2C
  8
250
 10
109.9999999999999
 20
16.500000000000028
 30
0.0
 11
109.9999999999999
 21
49.999999999999929
 31
0.0
  0
LINE
  5
E2D
  8
250
 10
199.99999999999901
 20
27.699169847161279
 30
0.0
 11
199.99999999999901
 21
49.999999999999929
 31
0.0
  0
LINE
  5
E2E
  8
250
 10
111.9999999999999
 20
48.99999999999995
 30
0.0
 11
197.99999999999889
 21
48.99999999999995
 31
0.0
  0
LINE
  5
E32
  8
250
 10
-0.0000000000004973
 20
22.724999999999941
 30
0.0
 11
-0.0000000000004953
 21
56.999999999999929
 31
0.0
  0
LINE
  5
E33
  8
250
 10
199.99999999999901
 20
27.699169847161158
 30
0.0
 11
199.99999999999901
 21
56.999999999999929
 31
0.0
  0
LINE
  5
E34
  8
250
 10
1.999999999999504
 20
55.999999999999943
 30
0.0
 11
197.99999999999889
 21
55.999999999999943
 31
0.0
  0
TEXT
  5
E38
  8
250
 10
144.37333333333271
 20
49.999999999999929
 30
0.0
 40
2.799999999999998
  1
（max.90）
1001
ACAD
1000
MTEXTBEGIN
1070
    73
1070
     1
1070
    44
1040
1.0
1070
    74
1070
     0
1000
MTEXTEND
  0
LINE
  5
E39
  8
250
 10
197.99999999999901
 20
49.333333333333293
 30
0.0
 11
199.99999999999901
 21
48.99999999999995
 31
0.0
  0
LINE
  5
E3A
  8
250
 10
197.99999999999901
 20
48.666666666666607
 30
0.0
 11
199.99999999999901
 21
48.99999999999995
 31
0.0
  0
LINE
  5
E3B
  8
250
 10
199.99999999999901
 20
48.99999999999995
 30
0.0
 11
197.99999999999901
 21
48.99999999999995
 31
0.0
  0
LINE
  5
E3C
  8
250
 10
111.9999999999999
 20
48.666666666666607
 30
0.0
 11
109.9999999999999
 21
48.99999999999995
 31
0.0
  0
LINE
  5
E3D
  8
250
 10
111.9999999999999
 20
49.333333333333293
 30
0.0
 11
109.9999999999999
 21
48.99999999999995
 31
0.0
  0
LINE
  5
E3E
  8
250
 10
109.9999999999999
 20
48.99999999999995
 30
0.0
 11
111.9999999999999
 21
48.99999999999995
 31
0.0
  0
TEXT
  5
E3F
  8
250
 10
95.999999999999233
 20
56.999999999999929
 30
0.0
 40
2.799999999999998
  1
200
1001
ACAD
1000
MTEXTBEGIN
1070
    73
1070
     1
1070
    44
1040
1.0
1070
    74
1070
     0
1000
MTEXTEND
  0
LINE
  5
E40
  8
250
 10
197.99999999999901
 20
56.333333333333272
 30
0.0
 11
199.99999999999901
 21
55.999999999999943
 31
0.0
  0
LINE
  5
E41
  8
250
 10
197.99999999999901
 20
55.6666666666666
 30
0.0
 11
199.99999999999901
 21
55.999999999999943
 31
0.0
  0
LINE
  5
E42
  8
250
 10
199.99999999999901
 20
55.999999999999943
 30
0.0
 11
197.99999999999901
 21
55.999999999999943
 31
0.0
  0
LINE
  5
E43
  8
250
 10
1.999999999999504
 20
55.6666666666666
 30
0.0
 11
-0.0000000000004953
 21
55.999999999999943
 31
0.0
  0
LINE
  5
E44
  8
250
 10
1.999999999999504
 20
56.333333333333272
 30
0.0
 11
-0.0000000000004953
 21
55.999999999999943
 31
0.0
  0
LINE
  5
E45
  8
250
 10
-0.0000000000004953
 20
55.999999999999943
 30
0.0
 11
1.999999999999504
 21
55.999999999999943
 31
0.0
  0
TEXT
  5
E46
  8
250
 10
226.9999999999994
 20
-5.933333333333322
 30
0.0
 40
2.7999999999999989
  1
\U+2205
 50
90.0
1001
ACAD
1000
MTEXTBEGIN
1070
    73
1070
     1
1070
    44
1040
1.0
1070
    74
1070
     0
1000
MTEXTEND
  0
TEXT
  5
E47
  8
250
 10
226.9999999999994
 20
-3.3999999999999888
 30
0.0
 40
2.799999999999998
  1
70.7
 50
90.0
1001
ACAD
1000
MTEXTBEGIN
1070
    73
1070
     1
1070
    44
1040
1.0
1070
    74
1070
     0
1000
MTEXTEND
  0
LINE
  5
E48
  8
250
 10
227.62833333333271
 20
33.120000000000012
 30
0.0
 11
227.9999999999994
 21
35.350000000000001
 31
0.0
  0
LINE
  5
E49
  8
250
 10
228.3716666666661
 20
33.120000000000012
 30
0.0
 11
227.9999999999994
 21
35.350000000000001
 31
0.0
  0
LINE
  5
E4A
  8
250
 10
227.9999999999994
 20
35.350000000000001
 30
0.0
 11
227.9999999999994
 21
33.120000000000012
 31
0.0
  0
LINE
  5
E4B
  8
250
 10
228.3716666666661
 20
-33.120000000000083
 30
0.0
 11
227.9999999999994
 21
-35.350000000000072
 31
0.0
  0
LINE
  5
E4C
  8
250
 10
227.62833333333271
 20
-33.120000000000083
 30
0.0
 11
227.9999999999994
 21
-35.350000000000072
 31
0.0
  0
LINE
  5
E4D
  8
250
 10
227.9999999999994
 20
-35.350000000000072
 30
0.0
 11
227.9999999999994
 21
-33.120000000000083
 31
0.0
  0
TEXT
  5
E4E
  8
250
 10
219.9999999999994
 20
-3.9333333333333229
 30
0.0
 40
2.7999999999999989
  1
\U+2205
 50
90.0
1001
ACAD
1000
MTEXTBEGIN
1070
    73
1070
     1
1070
    44
1040
1.0
1070
    74
1070
     0
1000
MTEXTEND
  0
TEXT
  5
E4F
  8
250
 10
219.9999999999994
 20
-1.3999999999999899
 30
0.0
 40
2.799999999999998
  1
70
 50
90.0
1001
ACAD
1000
MTEXTBEGIN
1070
    73
1070
     1
1070
    44
1040
1.0
1070
    74
1070
     0
1000
MTEXTEND
  0
LINE
  5
E50
  8
250
 10
220.62833333333279
 20
32.769999999999818
 30
0.0
 11
220.9999999999994
 21
34.999999999999822
 31
0.0
  0
LINE
  5
E51
  8
250
 10
221.3716666666661
 20
32.769999999999818
 30
0.0
 11
220.9999999999994
 21
34.999999999999822
 31
0.0
  0
LINE
  5
E52
  8
250
 10
220.9999999999994
 20
34.999999999999822
 30
0.0
 11
220.9999999999994
 21
32.769999999999818
 31
0.0
  0
LINE
  5
E53
  8
250
 10
221.3716666666661
 20
-32.769999999999889
 30
0.0
 11
220.9999999999994
 21
-34.999999999999879
 31
0.0
  0
LINE
  5
E54
  8
250
 10
220.62833333333279
 20
-32.769999999999889
 30
0.0
 11
220.9999999999994
 21
-34.999999999999879
 31
0.0
  0
LINE
  5
E55
  8
250
 10
220.9999999999994
 20
-34.999999999999879
 30
0.0
 11
220.9999999999994
 21
-32.769999999999889
 31
0.0
  0
TEXT
  5
E56
  8
250
 10
212.9999999999994
 20
-3.933333333333465
 30
0.0
 40
2.7999999999999989
  1
\U+2205
 50
90.0
1001
ACAD
1000
MTEXTBEGIN
1070
    73
1070
     1
1070
    44
1040
1.0
1070
    74
1070
     0
1000
MTEXTEND
  0
TEXT
  5
E57
  8
250
 10
212.9999999999994
 20
-1.400000000000132
 30
0.0
 40
2.799999999999998
  1
32
 50
90.0
1001
ACAD
1000
MTEXTBEGIN
1070
    73
1070
     1
1070
    44
1040
1.0
1070
    74
1070
     0
1000
MTEXTEND
  0
LINE
  5
E58
  8
250
 10
213.62833333333271
 20
13.76999999999982
 30
0.0
 11
213.9999999999994
 21
15.999999999999821
 31
0.0
  0
LINE
  5
E59
  8
250
 10
214.3716666666661
 20
13.76999999999982
 30
0.0
 11
213.9999999999994
 21
15.999999999999821
 31
0.0
  0
LINE
  5
E5A
  8
250
 10
213.9999999999994
 20
15.999999999999821
 30
0.0
 11
213.9999999999994
 21
13.76999999999982
 31
0.0
  0
LINE
  5
E5B
  8
250
 10
-42.641600373388307
 20
-17.759749210244859
 30
0.0
 11
-41.352925238793503
 21
-16.194365069342648
 31
0.0
  0
LINE
  5
E5C
  8
250
 10
-42.064250104198692
 20
-18.093082543578191
 30
0.0
 11
-41.352925238793503
 21
-16.194365069342648
 31
0.0
  0
LINE
  5
E5D
  8
250
 10
-41.352925238793503
 20
-16.194365069342648
 30
0.0
 11
-42.352925238793503
 21
-17.92641587691153
 31
0.0
  0
VIEWPORT
  5
22
 67
     1
  8
0
 10
261.51769911504419
 20
148.5
 30
0.0
 40
523.0353982300885
 41
297.0
 68
     1
 69
     1
1001
ACAD
1000
MVIEW
1002
{
1070
    16
1010
0.0
1020
0.0
1030
0.0
1010
0.0
1020
0.0
1030
1.0
1040
0.0
1040
297.0
1040
261.51769911504419
1040
148.5
1040
50.0
1040
0.0
1040
0.0
1070
     0
1070
   100
1070
     1
1070
     1
1070
     0
1070
     0
1070
     0
1070
     0
1040
0.0
1040
0.0
1040
0.0
1040
1.0
1040
1.0
1040
10.0
1040
10.0
1070
     0
1002
{
1002
}
1002
}
1001
GENIUS_GENOBJ-N-SDF_13
1002
{
1000
OWNER
1000
GEN
1002
}
1001
GENIUS_GENODEF_13
1002
{
1000
HIER
1070
     0
1002
}
1002
{
1000
MANEDIT
1070
     0
1002
}
1002
{
1000
NOSEL
1070
     0
1002
}
1002
{
1000
BEHIND
1070
     0
1002
}
1002
{
1000
OTHER
1070
     0
1002
}
1002
{
1000
REACTOR
1002
}
1001
GENIUS_GENSCREG_15
1000
PF
1040
1.0
1000
DF
1040
1.0
1000
MIN
1011
0.0
1021
0.0
1031
0.0
1021
0.0
1031
0.0
1000
MAX
1011
523.0353982300885
1021
0.0
1031
0.0
1021
297.0
1031
0.0
1000
FLAGS
1070
     4
  0
ENDSEC
  0
EOF
