  0
SECTION
  2
HEADER
  9
$ACADVER
  1
AC1009
  9
$INSBASE
 10
0.0
 20
0.0
 30
0.0
  9
$EXTMIN
 10
-66.422178821985085
 20
-35.364974061568432
 30
-0.0000000349181948
  9
$EXTMAX
 10
194.00875682230571
 20
75.003963682589529
 30
0.0000000814935747
  9
$LIMMIN
 10
0.0
 20
0.0
  9
$LIMMAX
 10
297.0
 20
210.0
  9
$ORTHOMODE
 70
     1
  9
$REGENMODE
 70
     1
  9
$FILLMODE
 70
     1
  9
$QTEXTMODE
 70
     0
  9
$MIRRTEXT
 70
     1
  9
$DRAGMODE
 70
     2
  9
$LTSCALE
 40
10.0
  9
$OSMODE
 70
    37
  9
$ATTMODE
 70
     1
  9
$TEXTSIZE
 40
3.0
  9
$TRACEWID
 40
1.0
  9
$TEXTSTYLE
  7
YOKO
  9
$CLAYER
  8
245
  9
$CELTYPE
  6
BYLAYER
  9
$CECOLOR
 62
   256
  9
$DIMSCALE
 40
1.0
  9
$DIMASZ
 40
2.0
  9
$DIMEXO
 40
0.5
  9
$DIMDLI
 40
2.5
  9
$DIMRND
 40
0.0
  9
$DIMDLE
 40
0.0
  9
$DIMEXE
 40
1.0
  9
$DIMTP
 40
0.0
  9
$DIMTM
 40
0.0
  9
$DIMTXT
 40
2.799999999999998
  9
$DIMCEN
 40
0.0
  9
$DIMTSZ
 40
0.0
  9
$DIMTOL
 70
     0
  9
$DIMLIM
 70
     0
  9
$DIMTIH
 70
     0
  9
$DIMTOH
 70
     0
  9
$DIMSE1
 70
     0
  9
$DIMSE2
 70
     0
  9
$DIMTAD
 70
     3
  9
$DIMZIN
 70
     8
  9
$DIMBLK
  1

  9
$DIMASO
 70
     1
  9
$DIMSHO
 70
     1
  9
$DIMPOST
  1

  9
$DIMAPOST
  1

  9
$DIMALT
 70
     0
  9
$DIMALTD
 70
     2
  9
$DIMALTF
 40
25.399999999999999
  9
$DIMLFAC
 40
1.0
  9
$DIMTOFL
 70
     1
  9
$DIMTVP
 40
0.0
  9
$DIMTIX
 70
     1
  9
$DIMSOXD
 70
     0
  9
$DIMSAH
 70
     1
  9
$DIMBLK1
  1
OPEN
  9
$DIMBLK2
  1
OPEN
  9
$DIMSTYLE
  2
BIGT
  9
$DIMCLRD
 70
   256
  9
$DIMCLRE
 70
   256
  9
$DIMCLRT
 70
    40
  9
$DIMTFAC
 40
1.0
  9
$DIMGAP
 40
1.0
  9
$LUNITS
 70
     2
  9
$LUPREC
 70
     3
  9
$SKETCHINC
 40
1.0
  9
$FILLETRAD
 40
0.0
  9
$AUNITS
 70
     0
  9
$AUPREC
 70
     3
  9
$MENU
  1
.
  9
$ELEVATION
 40
0.0
  9
$PELEVATION
 40
0.0
  9
$THICKNESS
 40
0.0
  9
$LIMCHECK
 70
     0
  9
$BLIPMODE
 70
     0
  9
$CHAMFERA
 40
10.0
  9
$CHAMFERB
 40
10.0
  9
$SKPOLY
 70
     0
  9
$TDCREATE
 40
2456317.391312384
  9
$TDUPDATE
 40
2456875.4482831601
  9
$TDINDWG
 40
0.006333206
  9
$TDUSRTIMER
 40
0.0063290162
  9
$USRTIMER
 70
     1
  9
$ANGBASE
 50
0.0
  9
$ANGDIR
 70
     0
  9
$PDMODE
 70
     1
  9
$PDSIZE
 40
-5.0
  9
$PLINEWID
 40
0.0
  9
$COORDS
 70
     1
  9
$SPLFRAME
 70
     0
  9
$SPLINETYPE
 70
     6
  9
$SPLINESEGS
 70
     8
  9
$ATTDIA
 70
     1
  9
$ATTREQ
 70
     1
  9
$HANDLING
 70
     1
  9
$HANDSEED
  5
EEB
  9
$SURFTAB1
 70
     6
  9
$SURFTAB2
 70
     6
  9
$SURFTYPE
 70
     6
  9
$SURFU
 70
     6
  9
$SURFV
 70
     6
  9
$UCSNAME
  2

  9
$UCSORG
 10
0.0
 20
0.0
 30
0.0
  9
$UCSXDIR
 10
1.0
 20
0.0
 30
0.0
  9
$UCSYDIR
 10
0.0
 20
1.0
 30
0.0
  9
$PUCSNAME
  2

  9
$PUCSORG
 10
0.0
 20
0.0
 30
0.0
  9
$PUCSXDIR
 10
1.0
 20
0.0
 30
0.0
  9
$PUCSYDIR
 10
0.0
 20
1.0
 30
0.0
  9
$USERI1
 70
     1
  9
$USERI2
 70
     0
  9
$USERI3
 70
     0
  9
$USERI4
 70
     0
  9
$USERI5
 70
     0
  9
$USERR1
 40
0.0
  9
$USERR2
 40
0.0
  9
$USERR3
 40
0.0
  9
$USERR4
 40
0.0
  9
$USERR5
 40
0.0
  9
$WORLDVIEW
 70
     1
  9
$SHADEDGE
 70
     3
  9
$SHADEDIF
 70
    70
  9
$TILEMODE
 70
     1
  9
$MAXACTVP
 70
    16
  9
$PLIMCHECK
 70
     0
  9
$PEXTMIN
 10
1.0000000000000000E+020
 20
1.0000000000000000E+020
 30
1.0000000000000000E+020
  9
$PEXTMAX
 10
-1.0000000000000000E+020
 20
-1.0000000000000000E+020
 30
-1.0000000000000000E+020
  9
$PLIMMIN
 10
0.0
 20
0.0
  9
$PLIMMAX
 10
420.0
 20
297.0
  9
$UNITMODE
 70
     0
  9
$VISRETAIN
 70
     0
  9
$PLINEGEN
 70
     0
  9
$PSLTSCALE
 70
     1
  0
ENDSEC
  0
SECTION
  2
TABLES
  0
TABLE
  2
VPORT
 70
     1
  0
VPORT
  2
*ACTIVE
 70
     0
 10
0.0
 20
0.0
 11
1.0
 21
1.0
 12
63.793289000160307
 22
19.819494810510552
 13
0.0
 23
0.0
 14
7.0
 24
7.0
 15
7.0
 25
7.0
 16
0.0
 26
0.0
 36
1.0
 17
0.0
 27
0.0
 37
0.0
 40
209.86396515465961
 41
1.247144340602284
 42
50.0
 43
0.0
 44
0.0
 50
0.0
 51
0.0
 71
     0
 72
 20000
 73
     1
 74
     0
 75
     0
 76
     0
 77
     0
 78
     0
  0
ENDTAB
  0
TABLE
  2
LTYPE
 70
    13
  0
LTYPE
  2
CONTINUOUS
 70
     0
  3
Solid line
 72
    65
 73
     0
 40
0.0
  0
LTYPE
  2
CENTER2
 70
     0
  3
___ _ ___ _ ___ _ ___ _ ___ _ ___ _ ___ _ ___ _
 72
    65
 73
     4
 40
1.125
 49
0.75
 49
-0.125
 49
0.125
 49
-0.125
  0
LTYPE
  2
HIDDEN2
 70
     0
  3
_ _ _ _ _ _ _ _ _ _ _ _ _ _ _ _ _ _ _ _ _ _ _ _
 72
    65
 73
     2
 40
0.1875
 49
0.125
 49
-0.0625
  0
LTYPE
  2
PHANTOM2
 70
     0
  3
___ _ _ ___ _ _ ___ _ _ ___ _ _ ___ _ _ ___ _ _
 72
    65
 73
     6
 40
1.25
 49
0.625
 49
-0.125
 49
0.125
 49
-0.125
 49
0.125
 49
-0.125
  0
LTYPE
  2
AMCONSTR
 70
     0
  3
_______________________
 72
    65
 73
     2
 40
9999.0
 49
9999.0
 49
0.0
  0
LTYPE
  2
AM_ISO02W050
 70
     0
  3
__ __ __ __ __ __ __ __ __ __ __ __ __ __ __
 72
    65
 73
     2
 40
7.5
 49
6.0
 49
-1.5
  0
LTYPE
  2
ACJISTGB
 70
     0
  3
__ . . __ . .
 72
    65
 73
     6
 40
9.0
 49
4.0
 49
-1.0
 49
1.0
 49
-1.0
 49
1.0
 49
-1.0
  0
LTYPE
  2
ACJISTGL
 70
     0
  3
_ _ _ _ _
 72
    65
 73
     2
 40
3.0
 49
2.0
 49
-1.0
  0
LTYPE
  2
ACISOWELD
 70
     0
  3
_ _ _ _ _
 72
    65
 73
     2
 40
2.0
 49
2.0
 49
-1.0
  0
LTYPE
  2
ACISOTGB
 70
     0
  3
__ . . __ . .
 72
    65
 73
     6
 40
9.0
 49
4.0
 49
-1.0
 49
1.0
 49
-1.0
 49
1.0
 49
-1.0
  0
LTYPE
  2
ACISOTGL
 70
     0
  3
_ _ _ _ _
 72
    65
 73
     2
 40
3.0
 49
2.0
 49
-1.0
  0
ENDTAB
  0
TABLE
  2
LAYER
 70
     6
  0
LAYER
  2
0
 70
     0
 62
     7
  6
CONTINUOUS
  0
LAYER
  2
240
 70
     0
 62
     4
  6
CONTINUOUS
  0
LAYER
  2
241
 70
     0
 62
   211
  6
CONTINUOUS
  0
LAYER
  2
245
 70
     0
 62
     2
  6
CENTER2
  0
LAYER
  2
250
 70
     0
 62
     3
  6
CONTINUOUS
  0
LAYER
  2
DEFPOINTS
 70
     0
 62
     7
  6
CONTINUOUS
  0
ENDTAB
  0
TABLE
  2
STYLE
 70
     6
  0
STYLE
  2
STANDARD
 70
     0
 40
0.0
 41
1.0
 50
0.0
 71
     0
 42
3.0
  3
romans.shx
  4
BIGFONT.SHX
  0
STYLE
  2
YOKO
 70
     0
 40
0.0
 41
1.0
 50
0.0
 71
     0
 42
3.0
  3
romans.shx
  4
extfont.shx
  0
STYLE
  2
ACJISTS
 70
     0
 40
1.0
 41
1.0
 50
0.0
 71
     0
 42
3.0
  3
amgdt.shx
  4
extfont.shx
  0
STYLE
  2
ACJISGDT
 70
     0
 40
0.0
 41
1.0
 50
0.0
 71
     0
 42
3.0
  3
amgdt.shx
  4
extfont.shx
  0
STYLE
  2
ACISOTS
 70
     0
 40
1.0
 41
1.0
 50
0.0
 71
     0
 42
3.0
  3
amgdt.shx
  4
extfont.shx
  0
STYLE
  2
ACISOGDT
 70
     0
 40
0.0
 41
1.0
 50
0.0
 71
     0
 42
3.0
  3
amgdt.shx
  4
extfont.shx
  0
ENDTAB
  0
TABLE
  2
VIEW
 70
     0
  0
ENDTAB
  0
TABLE
  2
UCS
 70
     0
  0
ENDTAB
  0
TABLE
  2
APPID
 70
    37
  0
APPID
  2
ACAD
 70
     0
  0
APPID
  2
GLOBAL
 70
     0
  0
APPID
  2
DETAIL
 70
     0
  0
APPID
  2
GRPNAME
 70
     0
  0
APPID
  2
GPARA
 70
     0
  0
APPID
  2
DCO15
 70
     0
  0
APPID
  2
ITEMNAME
 70
     0
  0
APPID
  2
GRADE_0
 70
     0
  0
APPID
  2
ASK_MEN_XD
 70
     0
  0
APPID
  2
LAYER_SCALE
 70
     0
  0
APPID
  2
MCAD_NO_VIS
 70
     0
  0
APPID
  2
ACAD_TEMP_GRAPHIC
 70
     0
  0
APPID
  2
ACATTRIBSERVICES
 70
     0
  0
APPID
  2
GENIUS_GENSCREG_15
 70
     0
  0
APPID
  2
GENIUS_GENODEF_13
 70
     0
  0
APPID
  2
GENIUS_GENOBJ-N-SDF_13
 70
     0
  0
APPID
  2
GENIUS_GENREC_14
 70
     0
  0
APPID
  2
GENIUS_GENOBJ-N-REC_13
 70
     0
  0
APPID
  2
GENIUS_GENDIMSH_14
 70
     0
  0
APPID
  2
GENIUS_GENOBJ-N-DIM_13
 70
     0
  0
APPID
  2
GENIUS_GENDIM_13
 70
     0
  0
APPID
  2
GENIUS_GENDTOL_13
 70
     0
  0
APPID
  2
GENIUS_GENOLIS_13
 70
     0
  0
APPID
  2
GENIUS_GENOENT_13
 70
     0
  0
APPID
  2
GENIUS_GENOBJ-F-FEM_13
 70
     0
  0
APPID
  2
GENIUS_GENOREF_13
 70
     0
  0
APPID
  2
GENIUS_GEFFEM_13
 70
     0
  0
APPID
  2
GENIUS_GEFFEMP_13
 70
     0
  0
APPID
  2
AD_DRAW
 70
     0
  0
APPID
  2
DESIGNERASSEMBLIES
 70
     0
  0
APPID
  2
ACADM_DIM_EDIT
 70
     0
  0
APPID
  2
AMDT_DM_ADJ
 70
     0
  0
APPID
  2
GENIUS_GENOBJ-N-FIL_13
 70
     0
  0
APPID
  2
GENIUS_GENFIL_13
 70
     0
  0
APPID
  2
GENIUS_GENOBJ-N-CHA_13
 70
     0
  0
APPID
  2
ACAD_NAV_VCDISPLAY
 70
     0
  0
APPID
  2
ACAD_MLEADERVER
 70
     0
  0
ENDTAB
  0
TABLE
  2
DIMSTYLE
 70
    23
  0
DIMSTYLE
  2
BIGT
 70
     0
  3

  4

  5
OPEN
  6

  7

 40
1.0
 41
2.2299999999999991
 42
0.5
 43
7.0
 44
1.0
 45
0.0
 46
0.0
 47
0.0
 48
0.01
140
2.7999999999999989
141
0.0
142
0.0
143
25.399999999999999
144
1.0
145
0.0
146
1.0
147
1.0
 71
     0
 72
     0
 73
     0
 74
     0
 75
     0
 76
     0
 77
     3
 78
     9
170
     0
171
     2
172
     1
173
     0
174
     1
175
     0
176
   256
177
   256
178
    40
  0
DIMSTYLE
  2
BIGT$0
 70
     0
  3

  4

  5
OPEN
  6

  7

 40
1.0
 41
2.2299999999999991
 42
0.5
 43
7.0
 44
1.0
 45
0.0
 46
0.0
 47
0.0
 48
0.01
140
2.7999999999999989
141
0.0
142
0.0
143
25.399999999999999
144
1.0
145
0.0
146
1.0
147
1.0
 71
     0
 72
     0
 73
     0
 74
     0
 75
     0
 76
     0
 77
     3
 78
     9
170
     0
171
     2
172
     1
173
     0
174
     1
175
     0
176
   256
177
   256
178
    40
  0
DIMSTYLE
  2
BIGT$2
 70
     0
  3

  4

  5
OPEN
  6

  7

 40
1.0
 41
2.2299999999999991
 42
0.5
 43
7.0
 44
1.0
 45
0.0
 46
0.0
 47
0.0
 48
0.01
140
2.7999999999999989
141
0.0
142
0.0
143
25.399999999999999
144
1.0
145
0.0
146
1.0
147
1.0
 71
     0
 72
     0
 73
     0
 74
     0
 75
     0
 76
     0
 77
     3
 78
     9
170
     0
171
     2
172
     1
173
     0
174
     0
175
     0
176
   256
177
   256
178
    40
  0
DIMSTYLE
  2
BIGT$3
 70
     0
  3

  4

  5
OPEN
  6

  7

 40
1.0
 41
2.2299999999999991
 42
0.5
 43
2.5
 44
1.0
 45
0.0
 46
0.0
 47
0.0
 48
0.01
140
2.7999999999999989
141
0.0
142
0.0
143
25.399999999999999
144
1.0
145
0.0
146
1.0
147
1.0
 71
     0
 72
     0
 73
     0
 74
     0
 75
     0
 76
     0
 77
     3
 78
     9
170
     0
171
     2
172
     1
173
     0
174
     0
175
     0
176
   256
177
   256
178
    40
  0
DIMSTYLE
  2
BIGT$4
 70
     0
  3

  4

  5
OPEN
  6

  7

 40
1.0
 41
2.2299999999999991
 42
0.5
 43
2.5
 44
1.0
 45
0.0
 46
0.0
 47
0.0
 48
0.01
140
2.7999999999999989
141
0.0
142
0.0
143
25.399999999999999
144
1.0
145
0.0
146
1.0
147
1.0
 71
     0
 72
     0
 73
     0
 74
     0
 75
     0
 76
     0
 77
     3
 78
     9
170
     0
171
     2
172
     1
173
     0
174
     0
175
     0
176
   256
177
   256
178
    40
  0
DIMSTYLE
  2
BIGT$6
 70
     0
  3

  4

  5
OPEN
  6

  7

 40
1.0
 41
2.2299999999999991
 42
0.5
 43
2.5
 44
1.0
 45
0.0
 46
0.0
 47
0.0
 48
0.01
140
2.7999999999999989
141
0.0
142
0.0
143
25.399999999999999
144
1.0
145
0.0
146
1.0
147
1.0
 71
     0
 72
     0
 73
     0
 74
     0
 75
     0
 76
     0
 77
     3
 78
     9
170
     0
171
     2
172
     1
173
     0
174
     0
175
     0
176
   256
177
   256
178
    40
  0
DIMSTYLE
  2
BIGT$7
 70
     0
  3

  4

  5
OPEN
  6

  7

 40
0.0
 41
2.2299999999999991
 42
0.5
 43
7.0
 44
1.0
 45
0.0
 46
0.0
 47
0.0
 48
0.01
140
2.7999999999999989
141
0.0
142
0.0
143
25.399999999999999
144
1.0
145
0.0
146
1.0
147
1.0
 71
     0
 72
     0
 73
     0
 74
     0
 75
     0
 76
     0
 77
     3
 78
     9
170
     0
171
     2
172
     0
173
     0
174
     0
175
     0
176
   256
177
   256
178
    40
  0
DIMSTYLE
  2
BIGT$SF
 70
     0
  3

  4

  5
OPEN
  6

  7

 40
1.0
 41
2.2299999999999991
 42
0.5
 43
7.0
 44
1.0
 45
0.0
 46
0.0
 47
0.0
 48
0.0
140
2.7999999999999989
141
0.0
142
0.0
143
25.399999999999999
144
1.0
145
0.0
146
1.0
147
1.0
 71
     0
 72
     0
 73
     0
 74
     0
 75
     0
 76
     0
 77
     3
 78
     9
170
     0
171
     2
172
     1
173
     0
174
     0
175
     0
176
   256
177
   256
178
    40
  0
DIMSTYLE
  2
BIGT$SH
 70
     0
  3

  4

  5
OPEN
  6

  7

 40
1.0
 41
2.2299999999999991
 42
0.5
 43
7.0
 44
1.0
 45
0.0
 46
0.0
 47
0.0
 48
0.0
140
2.7999999999999989
141
0.0
142
0.0
143
25.399999999999999
144
1.0
145
0.0
146
1.0
147
1.0
 71
     0
 72
     0
 73
     0
 74
     0
 75
     0
 76
     0
 77
     3
 78
     9
170
     0
171
     2
172
     1
173
     0
174
     0
175
     0
176
   256
177
   256
178
    40
  0
DIMSTYLE
  2
AM_ISO
 70
     0
  3

  4
"
  5

  6

  7

 40
1.0
 41
2.5
 42
1.0
 43
10.0
 44
1.0
 45
0.0
 46
0.0
 47
0.1
 48
0.1
140
3.5
141
0.0
142
0.0
143
0.0393701
144
1.0
145
0.0
146
0.71
147
1.5
 71
     0
 72
     0
 73
     0
 74
     0
 75
     0
 76
     0
 77
     1
 78
     8
170
     0
171
     2
172
     1
173
     0
174
     0
175
     0
176
   256
177
   256
178
     2
  0
DIMSTYLE
  2
AM_ISO$3
 70
     0
  3

  4
"
  5

  6

  7

 40
1.0
 41
2.5
 42
1.0
 43
10.0
 44
1.0
 45
0.0
 46
0.0
 47
0.1
 48
0.1
140
3.5
141
0.0
142
0.0
143
0.0393701
144
1.0
145
0.0
146
0.71
147
1.5
 71
     0
 72
     0
 73
     0
 74
     1
 75
     0
 76
     0
 77
     1
 78
     8
170
     0
171
     2
172
     0
173
     0
174
     0
175
     0
176
   256
177
   256
178
     2
  0
DIMSTYLE
  2
AM_ISO$4
 70
     0
  3

  4
"
  5

  6

  7

 40
1.0
 41
2.5
 42
1.0
 43
10.0
 44
1.0
 45
0.0
 46
0.0
 47
0.1
 48
0.1
140
3.5
141
0.0
142
0.0
143
0.0393701
144
1.0
145
0.0
146
0.71
147
1.5
 71
     0
 72
     0
 73
     0
 74
     1
 75
     0
 76
     0
 77
     1
 78
     8
170
     0
171
     2
172
     0
173
     0
174
     0
175
     0
176
   256
177
   256
178
     2
  0
DIMSTYLE
  2
AM_ISO$6
 70
     0
  3

  4
"
  5

  6

  7

 40
1.0
 41
2.5
 42
1.0
 43
10.0
 44
1.0
 45
0.0
 46
0.0
 47
0.1
 48
0.1
140
3.5
141
0.0
142
0.0
143
0.0393701
144
1.0
145
0.0
146
0.71
147
1.5
 71
     0
 72
     0
 73
     0
 74
     0
 75
     0
 76
     0
 77
     0
 78
     8
170
     0
171
     2
172
     1
173
     0
174
     0
175
     0
176
   256
177
   256
178
     2
  0
DIMSTYLE
  2
AM_ISO$7
 70
     0
  3

  4
"
  5

  6

  7

 40
1.0
 41
2.5
 42
1.0
 43
10.0
 44
1.0
 45
0.0
 46
0.0
 47
0.1
 48
0.1
140
5.0
141
0.0
142
0.0
143
0.0393701
144
1.0
145
0.0
146
0.71
147
1.5
 71
     0
 72
     0
 73
     0
 74
     0
 75
     0
 76
     0
 77
     1
 78
     8
170
     0
171
     2
172
     1
173
     0
174
     0
175
     0
176
   256
177
   256
178
     2
  0
DIMSTYLE
  2
AM_ISO$SF
 70
     0
  3

  4
"
  5

  6

  7

 40
1.0
 41
2.5
 42
1.0
 43
10.0
 44
1.0
 45
0.0
 46
0.0
 47
0.1
 48
0.1
140
3.5
141
0.0
142
0.0
143
0.0393701
144
1.0
145
0.0
146
0.71
147
1.5
 71
     0
 72
     0
 73
     0
 74
     0
 75
     1
 76
     1
 77
     1
 78
     8
170
     0
171
     2
172
     1
173
     0
174
     0
175
     0
176
   256
177
   256
178
     2
  0
DIMSTYLE
  2
AM_ISO$SH
 70
     0
  3

  4
"
  5

  6
GENAXEH
  7

 40
1.0
 41
2.5
 42
1.0
 43
10.0
 44
1.0
 45
0.0
 46
0.0
 47
0.1
 48
0.1
140
3.5
141
0.0
142
0.0
143
0.0393701
144
2.0
145
0.0
146
0.71
147
1.5
 71
     0
 72
     0
 73
     0
 74
     0
 75
     1
 76
     1
 77
     1
 78
     8
170
     0
171
     2
172
     1
173
     1
174
     0
175
     0
176
   256
177
   256
178
     2
  0
DIMSTYLE
  2
TECHNICAL_OSAKA
 70
     0
  3

  4
"
  5
OPEN30
  6

  7

 40
1.0
 41
2.5
 42
1.0
 43
10.0
 44
1.0
 45
0.0
 46
0.0
 47
0.1
 48
0.1
140
2.7999999999999989
141
0.0
142
0.0
143
0.0393701
144
1.0
145
0.0
146
0.71
147
1.5
 71
     0
 72
     0
 73
     0
 74
     0
 75
     0
 76
     0
 77
     3
 78
     8
170
     0
171
     2
172
     1
173
     0
174
     0
175
     0
176
   256
177
   256
178
    40
  0
DIMSTYLE
  2
TECHNICAL_OSAKA$3
 70
     0
  3

  4
"
  5
OPEN30
  6

  7

 40
1.0
 41
2.5
 42
1.0
 43
10.0
 44
1.0
 45
0.0
 46
0.0
 47
0.1
 48
0.1
140
2.7999999999999989
141
0.0
142
0.0
143
0.0393701
144
1.0
145
0.0
146
0.71
147
1.5
 71
     0
 72
     0
 73
     0
 74
     1
 75
     0
 76
     0
 77
     3
 78
     8
170
     0
171
     2
172
     0
173
     0
174
     0
175
     0
176
   256
177
   256
178
    40
  0
DIMSTYLE
  2
TECHNICAL_OSAKA$4
 70
     0
  3

  4
"
  5
OPEN30
  6

  7

 40
1.0
 41
2.5
 42
1.0
 43
10.0
 44
1.0
 45
0.0
 46
0.0
 47
0.1
 48
0.1
140
2.7999999999999989
141
0.0
142
0.0
143
0.0393701
144
1.0
145
0.0
146
0.71
147
1.5
 71
     0
 72
     0
 73
     0
 74
     1
 75
     0
 76
     0
 77
     3
 78
     8
170
     0
171
     2
172
     0
173
     0
174
     0
175
     0
176
   256
177
   256
178
    40
  0
DIMSTYLE
  2
TECHNICAL_OSAKA$6
 70
     0
  3

  4
"
  5
OPEN30
  6

  7

 40
1.0
 41
2.5
 42
1.0
 43
10.0
 44
1.0
 45
0.0
 46
0.0
 47
0.1
 48
0.1
140
2.7999999999999989
141
0.0
142
0.0
143
0.0393701
144
1.0
145
0.0
146
0.71
147
1.5
 71
     0
 72
     0
 73
     0
 74
     0
 75
     0
 76
     0
 77
     0
 78
     8
170
     0
171
     2
172
     1
173
     0
174
     0
175
     0
176
   256
177
   256
178
    40
  0
DIMSTYLE
  2
TECHNICAL_OSAKA$7
 70
     0
  3

  4
"
  5
OPEN30
  6

  7

 40
1.0
 41
2.5
 42
1.0
 43
10.0
 44
1.0
 45
0.0
 46
0.0
 47
0.1
 48
0.1
140
2.7999999999999989
141
0.0
142
0.0
143
0.0393701
144
1.0
145
0.0
146
0.71
147
1.5
 71
     0
 72
     0
 73
     0
 74
     0
 75
     0
 76
     0
 77
     3
 78
     8
170
     0
171
     2
172
     1
173
     0
174
     0
175
     0
176
   256
177
   256
178
    40
  0
DIMSTYLE
  2
TECHNICAL_OSAKA$SF
 70
     0
  3

  4
"
  5
OPEN30
  6
OPEN30
  7
OPEN30
 40
1.0
 41
2.5
 42
1.0
 43
10.0
 44
1.0
 45
0.0
 46
0.0
 47
0.1
 48
0.1
140
3.5
141
0.0
142
0.0
143
0.0393701
144
1.0
145
0.0
146
0.71
147
1.5
 71
     0
 72
     0
 73
     0
 74
     0
 75
     1
 76
     1
 77
     3
 78
     8
170
     0
171
     2
172
     1
173
     0
174
     0
175
     0
176
   256
177
   256
178
    40
  0
DIMSTYLE
  2
TECHNICAL_OSAKA$SH
 70
     0
  3

  4
"
  5
OPEN30
  6
GENAXEH
  7
OPEN30
 40
1.0
 41
2.5
 42
1.0
 43
10.0
 44
1.0
 45
0.0
 46
0.0
 47
0.1
 48
0.1
140
3.5
141
0.0
142
0.0
143
0.0393701
144
2.0
145
0.0
146
0.71
147
1.5
 71
     0
 72
     0
 73
     0
 74
     0
 75
     1
 76
     1
 77
     3
 78
     8
170
     0
171
     2
172
     1
173
     1
174
     0
175
     0
176
   256
177
   256
178
    40
  0
ENDTAB
  0
ENDSEC
  0
SECTION
  2
BLOCKS
  0
BLOCK
  8
0
  2
$MODEL_SPACE
 70
     0
 10
0.0
 20
0.0
 30
0.0
  3
$MODEL_SPACE
  1

  0
ENDBLK
  5
1C
  8
0
  0
BLOCK
 67
     1
  8
0
  2
$PAPER_SPACE
 70
     0
 10
0.0
 20
0.0
 30
0.0
  3
$PAPER_SPACE
  1

  0
ENDBLK
  5
19
 67
     1
  8
0
  0
BLOCK
  8
0
  2
_OPEN
 70
     0
 10
0.0
 20
0.0
 30
0.0
  3
_OPEN
  1

  0
LINE
  5
D30
  8
0
  6
BYBLOCK
 62
     0
 10
-1.0
 20
0.1666666666666666
 30
0.0
 11
0.0
 21
0.0
 31
0.0
  0
LINE
  5
D31
  8
0
  6
BYBLOCK
 62
     0
 10
-1.0
 20
-0.1666666666666666
 30
0.0
 11
0.0
 21
0.0
 31
0.0
  0
LINE
  5
D32
  8
0
  6
BYBLOCK
 62
     0
 10
0.0
 20
0.0
 30
0.0
 11
-1.0
 21
0.0
 31
0.0
  0
ENDBLK
  5
D33
  8
0
  0
BLOCK
  8
0
  2
矢印なし
 70
     0
 10
0.0
 20
0.0
 30
0.0
  3
矢印なし
  1

  0
ENDBLK
  5
6E5
  8
0
  0
BLOCK
  8
0
  2
GENAXEH
 70
     0
 10
0.0
 20
0.0
 30
0.0
  3
GENAXEH
  1

  0
LINE
  5
D6B
  8
0
 10
-1.0
 20
0.0
 30
0.0
 11
1.0
 21
0.0
 31
0.0
  0
ENDBLK
  5
D6C
  8
0
  0
BLOCK
  8
0
  2
_OPEN30
 70
     0
 10
0.0
 20
0.0
 30
0.0
  3
_OPEN30
  1

  0
LINE
  5
DA7
  8
0
  6
BYBLOCK
 62
     0
 10
-1.0
 20
0.26794919
 30
0.0
 11
0.0
 21
0.0
 31
0.0
  0
LINE
  5
DA8
  8
0
  6
BYBLOCK
 62
     0
 10
0.0
 20
0.0
 30
0.0
 11
-1.0
 21
-0.26794919
 31
0.0
  0
LINE
  5
DA9
  8
0
  6
BYBLOCK
 62
     0
 10
0.0
 20
0.0
 30
0.0
 11
-1.0
 21
0.0
 31
0.0
  0
ENDBLK
  5
DAA
  8
0
  0
ENDSEC
  0
SECTION
  2
ENTITIES
  0
INSERT
  5
6E6
  8
245
  2
矢印なし
 10
175.62382696643769
 20
90.551235716905978
 30
0.0
  0
TEXT
  5
80F
  8
241
  6
CONTINUOUS
 10
-65.400000000000063
 20
70.0
 30
0.0
 40
5.0
  1
BBT40-MEGA32D-165A
  7
YOKO
 11
-65.400000000000063
 21
70.0
 31
0.0
 73
     1
  0
LINE
  5
83C
  8
250
 10
-48.256370890134079
 20
-28.151483684754961
 30
0.0
 11
-65.989704223467413
 21
-28.151483684754961
 31
0.0
1001
ITEMNAME
1000
LNSP2
  0
LINE
  5
DD9
  8
245
  6
CENTER2
 10
16.599999999999941
 20
31.500000000000149
 30
0.0
 11
16.599999999999909
 21
-31.500000000000298
 31
0.0
  0
LINE
  5
DDA
  8
241
  6
CONTINUOUS
 10
21.599999999999909
 20
-31.499999999999989
 30
0.0
 11
21.599999999999909
 21
0.0
 31
0.0
  0
LINE
  5
DDB
  8
241
  6
CONTINUOUS
 10
11.599999999999911
 20
0.0
 30
0.0
 11
11.59999999999993
 21
-31.500000000000028
 31
0.0
  0
LINE
  5
DDC
  8
241
  6
CONTINUOUS
 10
-0.0000000000001705
 20
-22.224999999999941
 30
0.0
 11
0.0
 21
0.0
 31
0.0
  0
LINE
  5
DDD
  8
240
  6
CONTINUOUS
 10
0.9999999999998864
 20
-30.5
 30
0.0
 11
0.9999999999998293
 21
-22.224999999999909
 31
0.0
  0
ARC
  5
DDE
  8
240
  6
CONTINUOUS
 10
1.9999999999998841
 20
-30.5
 30
0.0
 40
1.0
 50
180.0
 51
270.0
  0
LINE
  5
DDF
  8
240
  6
CONTINUOUS
 10
-65.400000000000048
 20
11.30390895524866
 30
0.0
 11
-65.400000000000077
 21
-11.30390895524873
 31
0.0
  0
ARC
  5
DE0
  8
240
  6
CONTINUOUS
 10
-63.800000000000061
 20
-11.30390895524873
 30
0.0
 40
1.6000000000000001
 50
180.0
 51
261.70285503016299
  0
LINE
  5
DE1
  8
240
  6
CONTINUOUS
 10
-0.0000000000001137
 20
-22.225000000000001
 30
0.0
 11
-64.030891028914851
 21
-12.88716172494998
 31
0.0
  0
LINE
  5
DE2
  8
240
  6
CONTINUOUS
 10
21.599999999999991
 20
-31.5
 30
0.0
 11
26.999999999999829
 21
-31.500000000000171
 31
0.0
  0
LINE
  5
DE3
  8
241
  6
HIDDEN2
 10
22.99999999999989
 20
-22.5
 30
0.0
 11
22.99999999999989
 21
-31.5
 31
0.0
  0
LINE
  5
DE4
  8
240
  6
CONTINUOUS
 10
1.9999999999998841
 20
-31.5
 30
0.0
 11
11.59999999999985
 21
-31.500000000000199
 31
0.0
  0
LINE
  5
DE5
  8
241
  6
HIDDEN2
 10
22.99999999999989
 20
-22.5
 30
0.0
 11
0.9999999999998864
 21
-22.5
 31
0.0
  0
LINE
  5
DE6
  8
245
  6
CENTER2
 10
-66.400000000000063
 20
0.0000000000000284
 30
0.0
 11
165.99999999999909
 21
-0.0000000000000142
 31
0.0
  0
LINE
  5
DE7
  8
240
  6
CONTINUOUS
 10
-0.0000000000001137
 20
22.225000000000001
 30
0.0
 11
-64.030891028914823
 21
12.88716172494992
 31
0.0
  0
ARC
  5
DE8
  8
240
  6
CONTINUOUS
 10
-63.800000000000061
 20
11.30390895524866
 30
0.0
 40
1.6000000000000001
 50
98.297144969836921
 51
180.0
  0
LINE
  5
DE9
  8
240
  6
CONTINUOUS
 10
21.599999999999909
 20
31.500000000000028
 30
0.0
 11
26.999999999991161
 21
31.500000000000231
 31
0.0
  0
LINE
  5
DEA
  8
241
  6
HIDDEN2
 10
22.99999999999989
 20
22.5
 30
0.0
 11
1.299999999999897
 21
22.5
 31
0.0
  0
LINE
  5
DEB
  8
240
  6
CONTINUOUS
 10
1.999999999999829
 20
31.500000000000028
 30
0.0
 11
11.59999999999993
 21
31.50000000000006
 31
0.0
  0
ARC
  5
DEC
  8
240
  6
CONTINUOUS
 10
1.999999999999829
 20
30.500000000000028
 30
0.0
 40
1.0
 50
90.0
 51
180.0000000000023
  0
LINE
  5
DED
  8
240
  6
CONTINUOUS
 10
1.0000000000002269
 20
22.225000000001419
 30
0.0
 11
0.9999999999998293
 21
30.500000000000028
 31
0.0
  0
LINE
  5
DEE
  8
241
  6
HIDDEN2
 10
22.99999999999989
 20
22.5
 30
0.0
 11
22.99999999999989
 21
31.500000000000028
 31
0.0
  0
LINE
  5
DEF
  8
241
  6
CONTINUOUS
 10
14.486751345948219
 20
-26.49999999999967
 30
0.0
 11
14.48675134594825
 21
0.0000000000000142
 31
0.0
  0
LINE
  5
DF0
  8
240
  6
CONTINUOUS
 10
14.486751345948219
 20
-26.49999999999967
 30
0.0
 11
11.59999999999985
 21
-31.500000000000199
 31
0.0
  0
LINE
  5
DF1
  8
240
  6
CONTINUOUS
 10
18.713248654051679
 20
-26.49999999999979
 30
0.0
 11
14.486751345948219
 21
-26.49999999999967
 31
0.0
1001
GRPNAME
1000
PASTMD1I
  0
LINE
  5
DF2
  8
241
  6
CONTINUOUS
 10
18.713248654051679
 20
-26.49999999999979
 30
0.0
 11
18.713248654051789
 21
0.0000000000000142
 31
0.0
  0
LINE
  5
DF3
  8
240
  6
CONTINUOUS
 10
18.713248654051679
 20
-26.49999999999979
 30
0.0
 11
21.599999999999991
 21
-31.5
 31
0.0
  0
LINE
  5
DF4
  8
240
  6
CONTINUOUS
 10
21.600000000000279
 20
31.500000000000028
 30
0.0
 11
18.713248654050972
 21
26.499999999999261
 31
0.0
  0
LINE
  5
DF5
  8
240
  6
CONTINUOUS
 10
11.599999999999881
 20
31.50000000000006
 30
0.0
 11
14.486751345948759
 21
26.499999999999151
 31
0.0
  0
LINE
  5
DF6
  8
240
 10
-0.0000000000001705
 20
-22.224999999999941
 30
0.0
 11
0.9999999999998293
 21
-22.224999999999909
 31
0.0
  0
LINE
  5
DF7
  8
241
 10
0.9999999999998293
 20
-22.2249999999996
 30
0.0
 11
0.9999999999998293
 21
0.0
 31
0.0
  0
LINE
  5
DF8
  8
241
  6
CONTINUOUS
 10
14.486751345948219
 20
26.49999999999967
 30
0.0
 11
14.48675134594825
 21
-0.0000000000000142
 31
0.0
  0
LINE
  5
DF9
  8
240
  6
CONTINUOUS
 10
18.713248654051679
 20
26.499999999999801
 30
0.0
 11
14.486751345948219
 21
26.49999999999967
 31
0.0
1001
GRPNAME
1000
PASTMD1I
  0
LINE
  5
DFA
  8
241
  6
CONTINUOUS
 10
18.713248654051679
 20
26.499999999999801
 30
0.0
 11
18.713248654051789
 21
-0.0000000000000142
 31
0.0
  0
LINE
  5
DFB
  8
240
 10
-0.0000000000001705
 20
22.224999999999941
 30
0.0
 11
1.0000000000002269
 21
22.225000000001419
 31
0.0
  0
LINE
  5
DFC
  8
241
  6
CONTINUOUS
 10
-0.0000000000001705
 20
22.224999999999941
 30
0.0
 11
0.0
 21
0.0
 31
0.0
  0
LINE
  5
DFD
  8
241
 10
0.9999999999998293
 20
22.2249999999996
 30
0.0
 11
0.9999999999998293
 21
0.0
 31
0.0
  0
LINE
  5
DFE
  8
241
  6
CONTINUOUS
 10
21.599999999999909
 20
31.500000000000028
 30
0.0
 11
21.599999999999909
 21
0.0
 31
0.0
  0
LINE
  5
DFF
  8
241
  6
CONTINUOUS
 10
11.599999999999911
 20
0.0
 30
0.0
 11
11.59999999999993
 21
31.50000000000006
 31
0.0
  0
LINE
  5
E00
  8
240
  6
CONTINUOUS
 10
27.100000000003629
 20
-31.399999999999981
 30
0.0
 11
26.99999999999989
 21
-31.5
 31
0.0
  0
LINE
  5
E01
  8
241
 10
27.100000000003629
 20
-31.40000000000013
 30
0.0
 11
27.100000000003629
 21
0.0000000000000426
 31
0.0
  0
LINE
  5
E02
  8
240
  6
CONTINUOUS
 10
27.100000000003629
 20
31.399999999999981
 30
0.0
 11
26.99999999999989
 21
31.5
 31
0.0
  0
LINE
  5
E03
  8
241
 10
27.100000000003629
 20
31.400000000000151
 30
0.0
 11
27.100000000003629
 21
-0.0000000000000284
 31
0.0
  0
LINE
  5
E04
  8
240
  6
CONTINUOUS
 10
121.7999999999991
 20
-35.350000000000009
 30
0.0
 11
130.09999999999911
 21
-35.350000000000009
 31
0.0
  0
LINE
  5
E05
  8
240
  6
CONTINUOUS
 10
130.44999999998879
 20
-34.999999999999957
 30
0.0
 11
151.2626129027268
 21
-34.999999999999879
 31
0.0
  0
ARC
  5
E06
  8
240
  6
CONTINUOUS
 10
121.7999999999991
 20
-33.350000000000009
 30
0.0
 40
2.0
 50
180.0
 51
270.0
  0
LINE
  5
E07
  8
241
 10
111.19999999999941
 20
31.399999999999981
 30
0.0
 11
111.1999999999985
 21
-0.0000000000000142
 31
0.0
  0
LINE
  5
E08
  8
240
 10
164.99999999999889
 20
27.199169847161329
 30
0.0
 11
164.9999999999994
 21
0.0000000000000142
 31
0.0
  0
LINE
  5
E09
  8
240
 10
164.99999999999909
 20
-27.199169847161141
 30
0.0
 11
164.99999999999909
 21
-0.0000000000000142
 31
0.0
  0
LINE
  5
E0A
  8
241
  6
CONTINUOUS
 10
111.1999999999985
 20
-0.0000000000000142
 30
0.0
 11
111.1999999999986
 21
-31.40000000000013
 31
0.0
  0
ARC
  5
E0B
  8
240
 10
118.2999999999986
 20
-32.899999999999991
 30
0.0
 40
1.5
 50
359.99999999987381
 51
90.0
1001
ASK_MEN_XD
1005
0
1070
     1
1005
0
1070
     1
  0
LINE
  5
E0C
  8
241
 10
130.44999999998879
 20
-35.000000000000021
 30
0.0
 11
130.44999999998879
 21
-0.0000000000000142
 31
0.0
1001
GRPNAME
1000
PASTMD1C
  0
LINE
  5
E0D
  8
240
 10
130.44999999998879
 20
-34.999999999999957
 30
0.0
 11
130.09999999999911
 21
-35.350000000000037
 31
0.0
1001
GRPNAME
1000
PASTMD1C
  0
LINE
  5
E0E
  8
240
 10
162.3680805733018
 20
-30.957940330304769
 30
0.0
 11
151.2626129027272
 21
-34.999999999999929
 31
0.0
  0
ARC
  5
E0F
  8
240
 10
160.99999999999909
 20
-27.199169847161141
 30
0.0
 40
4.0
 50
290.00000000000011
 51
0.0
  0
LINE
  5
E10
  8
241
 10
151.2626129027268
 20
-34.999999999999879
 30
0.0
 11
151.26261290272669
 21
-0.0000000000000142
 31
0.0
  0
LINE
  5
E11
  8
240
 10
162.3680805733016
 20
30.957940330304901
 30
0.0
 11
151.26261290272609
 21
35.000000000000227
 31
0.0
  0
ARC
  5
E12
  8
240
 10
160.99999999999901
 20
27.199169847161269
 30
0.0
 40
4.0
 50
0.0
 51
69.999999999999915
  0
LINE
  5
E13
  8
241
  6
CONTINUOUS
 10
119.7999999999991
 20
-0.0000000000000142
 30
0.0
 11
119.7999999999991
 21
-32.899999999999991
 31
0.0
  0
LINE
  5
E14
  8
240
  6
CONTINUOUS
 10
119.8000000000013
 20
-32.900000000003303
 30
0.0
 11
119.7999999999991
 21
-33.350000000000009
 31
0.0
  0
LINE
  5
E15
  8
240
  6
CONTINUOUS
 10
121.7999999999991
 20
35.349999999999973
 30
0.0
 11
130.09999999999911
 21
35.349999999999973
 31
0.0
  0
ARC
  5
E16
  8
240
  6
CONTINUOUS
 10
121.7999999999991
 20
33.349999999999973
 30
0.0
 40
2.0
 50
90.0
 51
180.0
  0
ARC
  5
E17
  8
240
 10
118.2999999999986
 20
32.899999999999991
 30
0.0
 40
1.5
 50
270.0
 51
0.0
1001
ASK_MEN_XD
1005
0
1070
     1
1005
0
1070
     1
  0
LINE
  5
E18
  8
240
 10
130.44999999998879
 20
34.99999999999995
 30
0.0
 11
130.09999999999911
 21
35.350000000000023
 31
0.0
1001
GRPNAME
1000
PASTMD1C
  0
LINE
  5
E19
  8
240
  6
CONTINUOUS
 10
119.7999999999996
 20
32.900000000011261
 30
0.0
 11
119.7999999999991
 21
33.349999999999973
 31
0.0
  0
LINE
  5
E1A
  8
240
  6
CONTINUOUS
 10
130.44999999998879
 20
34.99999999999995
 30
0.0
 11
151.2626129027268
 21
34.999999999999829
 31
0.0
  0
LINE
  5
E1B
  8
241
 10
130.44999999998879
 20
35.0
 30
0.0
 11
130.44999999998879
 21
-0.0000000000000142
 31
0.0
1001
GRPNAME
1000
PASTMD1C
  0
LINE
  5
E1C
  8
241
 10
151.2626129027268
 20
34.999999999999829
 30
0.0
 11
151.26261290272669
 21
-0.0000000000000142
 31
0.0
  0
LINE
  5
E1D
  8
241
  6
CONTINUOUS
 10
119.7999999999991
 20
-0.0000000000000142
 30
0.0
 11
119.7999999999991
 21
32.899999999999991
 31
0.0
  0
LINE
  5
E1E
  8
241
  6
HIDDEN2
 10
162.5000000000006
 20
16.049999999998018
 30
0.0
 11
164.99999999999929
 21
16.049999999997961
 31
0.0
  0
LINE
  5
E1F
  8
241
  6
HIDDEN2
 10
162.50000000000031
 20
21.535837971092811
 30
0.0
 11
162.50000000000031
 21
0.0000000000000426
 31
0.0
  0
LINE
  5
E20
  8
241
  6
HIDDEN2
 10
82.866025403776547
 20
16.000000000000028
 30
0.0
 11
162.50000000000031
 21
16.00000000000006
 31
0.0
1001
GRPNAME
1000
PASTMD64
  0
LINE
  5
E21
  8
241
 10
99.199999999999875
 20
-0.0000000000005969
 30
0.0
 11
99.199999999999875
 21
-31.400000000000329
 31
0.0
  0
LINE
  5
E22
  8
241
 10
93.199999999999903
 20
-0.0000000000005969
 30
0.0
 11
93.199999999999903
 21
-31.400000000000428
 31
0.0
  0
LINE
  5
E23
  8
241
 10
91.199999999999918
 20
-0.0000000000005969
 30
0.0
 11
91.199999999999918
 21
-31.400000000000471
 31
0.0
  0
LINE
  5
E24
  8
241
 10
85.199999999999974
 20
-0.0000000000005969
 30
0.0
 11
85.200000000000017
 21
-31.400000000000279
 31
0.0
  0
LINE
  5
E25
  8
240
 10
93.700000000002376
 20
-30.900000000000301
 30
0.0
 11
98.700000000002746
 21
-30.900000000000741
 31
0.0
  0
LINE
  5
E26
  8
240
 10
98.700000000002746
 20
-30.900000000000741
 30
0.0
 11
99.199999999999875
 21
-31.400000000000389
 31
0.0
  0
LINE
  5
E27
  8
240
 10
93.700000000002376
 20
-30.900000000000301
 30
0.0
 11
93.200000000000117
 21
-31.400000000000471
 31
0.0
  0
LINE
  5
E28
  8
240
 10
91.199999999999918
 20
-31.400000000000482
 30
0.0
 11
93.199999999999903
 21
-31.400000000000428
 31
0.0
  0
LINE
  5
E29
  8
240
 10
118.2999999999986
 20
-31.399999999999991
 30
0.0
 11
99.199999999999847
 21
-31.399999999999881
 31
0.0
  0
LINE
  5
E2A
  8
240
 10
27.100000000003629
 20
-31.400000000000329
 30
0.0
 11
85.200000000000017
 21
-31.400000000000151
 31
0.0
  0
LINE
  5
E2B
  8
240
 10
85.700000000002447
 20
-30.900000000000389
 30
0.0
 11
90.700000000002746
 21
-30.90000000000083
 31
0.0
  0
LINE
  5
E2C
  8
240
 10
90.700000000002746
 20
-30.90000000000083
 30
0.0
 11
91.199999999999918
 21
-31.400000000000482
 31
0.0
  0
LINE
  5
E2D
  8
240
 10
85.700000000002447
 20
-30.900000000000389
 30
0.0
 11
85.200000000000188
 21
-31.40000000000056
 31
0.0
  0
LINE
  5
E2E
  8
241
 10
99.199999999999875
 20
0.0000000000005826
 30
0.0
 11
99.199999999999918
 21
31.400000000000318
 31
0.0
  0
LINE
  5
E2F
  8
241
 10
93.199999999999903
 20
0.0000000000005826
 30
0.0
 11
93.19999999999996
 21
31.400000000000428
 31
0.0
  0
LINE
  5
E30
  8
241
 10
91.199999999999918
 20
0.0000000000005826
 30
0.0
 11
91.199999999999946
 21
31.400000000000428
 31
0.0
  0
LINE
  5
E31
  8
241
 10
85.199999999999974
 20
0.0000000000005826
 30
0.0
 11
85.200000000000045
 21
31.400000000000261
 31
0.0
  0
LINE
  5
E32
  8
240
 10
93.700000000002404
 20
30.90000000000029
 30
0.0
 11
98.700000000002746
 21
30.90000000000072
 31
0.0
  0
LINE
  5
E33
  8
240
 10
98.700000000002746
 20
30.90000000000072
 30
0.0
 11
99.199999999999918
 21
31.400000000000379
 31
0.0
  0
LINE
  5
E34
  8
240
 10
93.700000000002404
 20
30.90000000000029
 30
0.0
 11
93.200000000000159
 21
31.400000000000428
 31
0.0
  0
LINE
  5
E35
  8
240
 10
91.199999999999946
 20
31.400000000000471
 30
0.0
 11
93.19999999999996
 21
31.400000000000428
 31
0.0
  0
LINE
  5
E36
  8
240
 10
118.2999999999986
 20
31.399999999999981
 30
0.0
 11
99.199999999999875
 21
31.39999999999986
 31
0.0
  0
LINE
  5
E37
  8
240
 10
27.100000000003661
 20
31.400000000000318
 30
0.0
 11
85.200000000000045
 21
31.400000000000151
 31
0.0
  0
LINE
  5
E38
  8
240
 10
85.700000000002476
 20
30.900000000000379
 30
0.0
 11
90.700000000002802
 21
30.90000000000083
 31
0.0
  0
LINE
  5
E39
  8
240
 10
90.700000000002802
 20
30.90000000000083
 30
0.0
 11
91.199999999999946
 21
31.400000000000471
 31
0.0
  0
LINE
  5
E3A
  8
240
 10
85.700000000002476
 20
30.900000000000379
 30
0.0
 11
85.200000000000216
 21
31.40000000000056
 31
0.0
  0
LINE
  5
E3B
  8
250
 10
130.59999999999911
 20
-35.350000000000037
 30
0.0
 11
193.9999999999994
 21
-35.350000000000072
 31
0.0
  0
LINE
  5
E3C
  8
250
 10
130.59999999999911
 20
35.350000000000023
 30
0.0
 11
193.9999999999994
 21
35.350000000000001
 31
0.0
  0
LINE
  5
E3D
  8
250
 10
192.9999999999994
 20
-33.120000000000061
 30
0.0
 11
192.9999999999994
 21
33.120000000000012
 31
0.0
  0
LINE
  5
E41
  8
250
 10
151.7626129027268
 20
-34.999999999999879
 30
0.0
 11
186.9999999999994
 21
-34.999999999999879
 31
0.0
  0
LINE
  5
E42
  8
250
 10
151.7626129027268
 20
34.999999999999829
 30
0.0
 11
186.9999999999994
 21
34.999999999999822
 31
0.0
  0
LINE
  5
E43
  8
250
 10
185.9999999999994
 20
-32.769999999999889
 30
0.0
 11
185.9999999999994
 21
32.769999999999833
 31
0.0
  0
LINE
  5
E47
  8
250
 10
163.00000000000031
 20
15.999999999999829
 30
0.0
 11
179.9999999999994
 21
15.999999999999821
 31
0.0
  0
LINE
  5
E48
  8
250
 10
178.9999999999994
 20
-13.770000000000159
 30
0.0
 11
178.9999999999994
 21
13.76999999999982
 31
0.0
  0
INSERT
  5
E49
  8
250
  6
CONTINUOUS
  2
矢印なし
 10
178.9999999999994
 20
-16.00000000000016
 30
0.0
 41
2.2299999999999991
 42
2.2299999999999991
 43
2.2299999999999991
 50
270.0
  0
TEXT
  5
E4C
  8
250
 10
-63.723037556800719
 20
-27.151483684754961
 30
0.0
 40
2.799999999999998
  1
BBT40
  7
YOKO
1001
ITEMNAME
1000
LNSP3
1001
ACAD
1000
MTEXTBEGIN
1070
    73
1070
     1
1070
    44
1040
1.0
1070
    74
1070
     0
1000
MTEXTEND
  0
POLYLINE
  5
E4E
  8
250
 66
     1
 10
0.0
 20
0.0
 30
0.0
1001
ACAD
1000
DSTYLE
1002
{
1070
    41
1040
2.0
1002
}
  0
VERTEX
  5
EE8
  8
250
 10
-42.352925238793503
 20
-17.92641587691153
 30
0.0
  0
VERTEX
  5
EE9
  8
250
 10
-48.256370890134079
 20
-28.151483684754961
 30
0.0
  0
SEQEND
  5
EEA
  8
250
  0
LINE
  5
E4F
  8
250
 10
75.000000000001194
 20
16.500000000000028
 30
0.0
 11
75.000000000001194
 21
49.999999999999929
 31
0.0
  0
LINE
  5
E50
  8
250
 10
164.99999999999889
 20
27.699169847161279
 30
0.0
 11
164.99999999999889
 21
49.999999999999929
 31
0.0
  0
LINE
  5
E51
  8
250
 10
77.000000000001194
 20
48.99999999999995
 30
0.0
 11
162.99999999999901
 21
48.99999999999995
 31
0.0
  0
LINE
  5
E55
  8
250
 10
-0.0000000000004973
 20
22.724999999999941
 30
0.0
 11
-0.0000000000004953
 21
56.999999999999929
 31
0.0
  0
LINE
  5
E56
  8
250
 10
164.99999999999889
 20
27.699169847161158
 30
0.0
 11
164.99999999999889
 21
56.999999999999929
 31
0.0
  0
LINE
  5
E57
  8
250
 10
1.999999999999504
 20
55.999999999999943
 30
0.0
 11
162.99999999999901
 21
55.999999999999943
 31
0.0
  0
TEXT
  5
E5B
  8
250
 10
109.37333333333341
 20
49.999999999999929
 30
0.0
 40
2.799999999999998
  1
（max.90）
1001
ACAD
1000
MTEXTBEGIN
1070
    73
1070
     1
1070
    44
1040
1.0
1070
    74
1070
     0
1000
MTEXTEND
  0
LINE
  5
E5C
  8
250
 10
162.99999999999889
 20
49.333333333333293
 30
0.0
 11
164.99999999999889
 21
48.99999999999995
 31
0.0
  0
LINE
  5
E5D
  8
250
 10
162.99999999999889
 20
48.666666666666607
 30
0.0
 11
164.99999999999889
 21
48.99999999999995
 31
0.0
  0
LINE
  5
E5E
  8
250
 10
164.99999999999889
 20
48.99999999999995
 30
0.0
 11
162.99999999999889
 21
48.99999999999995
 31
0.0
  0
LINE
  5
E5F
  8
250
 10
77.000000000001194
 20
48.666666666666607
 30
0.0
 11
75.000000000001194
 21
48.99999999999995
 31
0.0
  0
LINE
  5
E60
  8
250
 10
77.000000000001194
 20
49.333333333333293
 30
0.0
 11
75.000000000001194
 21
48.99999999999995
 31
0.0
  0
LINE
  5
E61
  8
250
 10
75.000000000001194
 20
48.99999999999995
 30
0.0
 11
77.000000000001194
 21
48.99999999999995
 31
0.0
  0
TEXT
  5
E62
  8
250
 10
78.299999999999258
 20
56.999999999999929
 30
0.0
 40
2.799999999999998
  1
165
1001
ACAD
1000
MTEXTBEGIN
1070
    73
1070
     1
1070
    44
1040
1.0
1070
    74
1070
     0
1000
MTEXTEND
  0
LINE
  5
E63
  8
250
 10
162.99999999999889
 20
56.333333333333272
 30
0.0
 11
164.99999999999889
 21
55.999999999999943
 31
0.0
  0
LINE
  5
E64
  8
250
 10
162.99999999999889
 20
55.6666666666666
 30
0.0
 11
164.99999999999889
 21
55.999999999999943
 31
0.0
  0
LINE
  5
E65
  8
250
 10
164.99999999999889
 20
55.999999999999943
 30
0.0
 11
162.99999999999889
 21
55.999999999999943
 31
0.0
  0
LINE
  5
E66
  8
250
 10
1.999999999999504
 20
55.6666666666666
 30
0.0
 11
-0.0000000000004953
 21
55.999999999999943
 31
0.0
  0
LINE
  5
E67
  8
250
 10
1.999999999999504
 20
56.333333333333272
 30
0.0
 11
-0.0000000000004953
 21
55.999999999999943
 31
0.0
  0
LINE
  5
E68
  8
250
 10
-0.0000000000004953
 20
55.999999999999943
 30
0.0
 11
1.999999999999504
 21
55.999999999999943
 31
0.0
  0
TEXT
  5
E69
  8
250
 10
191.9999999999994
 20
-5.9333333333333282
 30
0.0
 40
2.7999999999999989
  1
\U+2205
 50
90.0
1001
ACAD
1000
MTEXTBEGIN
1070
    73
1070
     1
1070
    44
1040
1.0
1070
    74
1070
     0
1000
MTEXTEND
  0
TEXT
  5
E6A
  8
250
 10
191.9999999999994
 20
-3.399999999999995
 30
0.0
 40
2.799999999999998
  1
70.7
 50
90.0
1001
ACAD
1000
MTEXTBEGIN
1070
    73
1070
     1
1070
    44
1040
1.0
1070
    74
1070
     0
1000
MTEXTEND
  0
LINE
  5
E6B
  8
250
 10
192.62833333333271
 20
33.120000000000012
 30
0.0
 11
192.9999999999994
 21
35.350000000000001
 31
0.0
  0
LINE
  5
E6C
  8
250
 10
193.37166666666599
 20
33.120000000000012
 30
0.0
 11
192.9999999999994
 21
35.350000000000001
 31
0.0
  0
LINE
  5
E6D
  8
250
 10
192.9999999999994
 20
35.350000000000001
 30
0.0
 11
192.9999999999994
 21
33.120000000000012
 31
0.0
  0
LINE
  5
E6E
  8
250
 10
193.37166666666599
 20
-33.120000000000083
 30
0.0
 11
192.9999999999994
 21
-35.350000000000072
 31
0.0
  0
LINE
  5
E6F
  8
250
 10
192.62833333333271
 20
-33.120000000000083
 30
0.0
 11
192.9999999999994
 21
-35.350000000000072
 31
0.0
  0
LINE
  5
E70
  8
250
 10
192.9999999999994
 20
-35.350000000000072
 30
0.0
 11
192.9999999999994
 21
-33.120000000000083
 31
0.0
  0
TEXT
  5
E71
  8
250
 10
184.9999999999994
 20
-3.9333333333333278
 30
0.0
 40
2.7999999999999989
  1
\U+2205
 50
90.0
1001
ACAD
1000
MTEXTBEGIN
1070
    73
1070
     1
1070
    44
1040
1.0
1070
    74
1070
     0
1000
MTEXTEND
  0
TEXT
  5
E72
  8
250
 10
184.9999999999994
 20
-1.399999999999995
 30
0.0
 40
2.799999999999998
  1
70
 50
90.0
1001
ACAD
1000
MTEXTBEGIN
1070
    73
1070
     1
1070
    44
1040
1.0
1070
    74
1070
     0
1000
MTEXTEND
  0
LINE
  5
E73
  8
250
 10
185.62833333333271
 20
32.769999999999818
 30
0.0
 11
185.9999999999994
 21
34.999999999999822
 31
0.0
  0
LINE
  5
E74
  8
250
 10
186.37166666666599
 20
32.769999999999818
 30
0.0
 11
185.9999999999994
 21
34.999999999999822
 31
0.0
  0
LINE
  5
E75
  8
250
 10
185.9999999999994
 20
34.999999999999822
 30
0.0
 11
185.9999999999994
 21
32.769999999999818
 31
0.0
  0
LINE
  5
E76
  8
250
 10
186.37166666666599
 20
-32.769999999999889
 30
0.0
 11
185.9999999999994
 21
-34.999999999999879
 31
0.0
  0
LINE
  5
E77
  8
250
 10
185.62833333333271
 20
-32.769999999999889
 30
0.0
 11
185.9999999999994
 21
-34.999999999999879
 31
0.0
  0
LINE
  5
E78
  8
250
 10
185.9999999999994
 20
-34.999999999999879
 30
0.0
 11
185.9999999999994
 21
-32.769999999999889
 31
0.0
  0
TEXT
  5
E79
  8
250
 10
177.9999999999994
 20
-3.9333333333334708
 30
0.0
 40
2.7999999999999989
  1
\U+2205
 50
90.0
1001
ACAD
1000
MTEXTBEGIN
1070
    73
1070
     1
1070
    44
1040
1.0
1070
    74
1070
     0
1000
MTEXTEND
  0
TEXT
  5
E7A
  8
250
 10
177.9999999999994
 20
-1.400000000000138
 30
0.0
 40
2.799999999999998
  1
32
 50
90.0
1001
ACAD
1000
MTEXTBEGIN
1070
    73
1070
     1
1070
    44
1040
1.0
1070
    74
1070
     0
1000
MTEXTEND
  0
LINE
  5
E7B
  8
250
 10
178.62833333333271
 20
13.76999999999982
 30
0.0
 11
178.9999999999994
 21
15.999999999999821
 31
0.0
  0
LINE
  5
E7C
  8
250
 10
179.3716666666661
 20
13.76999999999982
 30
0.0
 11
178.9999999999994
 21
15.999999999999821
 31
0.0
  0
LINE
  5
E7D
  8
250
 10
178.9999999999994
 20
15.999999999999821
 30
0.0
 11
178.9999999999994
 21
13.76999999999982
 31
0.0
  0
LINE
  5
E7E
  8
250
 10
-42.641600373388307
 20
-17.759749210244859
 30
0.0
 11
-41.352925238793503
 21
-16.194365069342648
 31
0.0
  0
LINE
  5
E7F
  8
250
 10
-42.064250104198692
 20
-18.093082543578191
 30
0.0
 11
-41.352925238793503
 21
-16.194365069342648
 31
0.0
  0
LINE
  5
E80
  8
250
 10
-41.352925238793503
 20
-16.194365069342648
 30
0.0
 11
-42.352925238793503
 21
-17.92641587691153
 31
0.0
  0
VIEWPORT
  5
22
 67
     1
  8
0
 10
261.51769911504419
 20
148.5
 30
0.0
 40
523.0353982300885
 41
297.0
 68
     1
 69
     1
1001
ACAD
1000
MVIEW
1002
{
1070
    16
1010
0.0
1020
0.0
1030
0.0
1010
0.0
1020
0.0
1030
1.0
1040
0.0
1040
297.0
1040
261.51769911504419
1040
148.5
1040
50.0
1040
0.0
1040
0.0
1070
     0
1070
   100
1070
     1
1070
     1
1070
     0
1070
     0
1070
     0
1070
     0
1040
0.0
1040
0.0
1040
0.0
1040
1.0
1040
1.0
1040
10.0
1040
10.0
1070
     0
1002
{
1002
}
1002
}
1001
GENIUS_GENOBJ-N-SDF_13
1002
{
1000
OWNER
1000
GEN
1002
}
1001
GENIUS_GENODEF_13
1002
{
1000
HIER
1070
     0
1002
}
1002
{
1000
MANEDIT
1070
     0
1002
}
1002
{
1000
NOSEL
1070
     0
1002
}
1002
{
1000
BEHIND
1070
     0
1002
}
1002
{
1000
OTHER
1070
     0
1002
}
1002
{
1000
REACTOR
1002
}
1001
GENIUS_GENSCREG_15
1000
PF
1040
1.0
1000
DF
1040
1.0
1000
MIN
1011
0.0
1021
0.0
1031
0.0
1021
0.0
1031
0.0
1000
MAX
1011
523.0353982300885
1021
0.0
1031
0.0
1021
297.0
1031
0.0
1000
FLAGS
1070
     4
  0
ENDSEC
  0
EOF
