  0
SECTION
  2
HEADER
  9
$ACADVER
  1
AC1009
  9
$INSBASE
 10
0.0
 20
0.0
 30
0.0
  9
$EXTMIN
 10
-66.422178821985085
 20
-31.514739090559889
 30
-0.0000000349181948
  9
$EXTMAX
 10
164.00915362578911
 20
68.001656488980984
 30
0.0000000814935747
  9
$LIMMIN
 10
0.0
 20
0.0
  9
$LIMMAX
 10
297.0
 20
210.0
  9
$ORTHOMODE
 70
     0
  9
$REGENMODE
 70
     1
  9
$FILLMODE
 70
     1
  9
$QTEXTMODE
 70
     0
  9
$MIRRTEXT
 70
     1
  9
$DRAGMODE
 70
     2
  9
$LTSCALE
 40
10.0
  9
$OSMODE
 70
    37
  9
$ATTMODE
 70
     1
  9
$TEXTSIZE
 40
3.0
  9
$TRACEWID
 40
1.0
  9
$TEXTSTYLE
  7
YOKO
  9
$CLAYER
  8
245
  9
$CELTYPE
  6
BYLAYER
  9
$CECOLOR
 62
   256
  9
$DIMSCALE
 40
1.0
  9
$DIMASZ
 40
2.0
  9
$DIMEXO
 40
0.5
  9
$DIMDLI
 40
2.5
  9
$DIMRND
 40
0.0
  9
$DIMDLE
 40
0.0
  9
$DIMEXE
 40
1.0
  9
$DIMTP
 40
0.0
  9
$DIMTM
 40
0.0
  9
$DIMTXT
 40
2.799999999999998
  9
$DIMCEN
 40
0.0
  9
$DIMTSZ
 40
0.0
  9
$DIMTOL
 70
     0
  9
$DIMLIM
 70
     0
  9
$DIMTIH
 70
     0
  9
$DIMTOH
 70
     0
  9
$DIMSE1
 70
     0
  9
$DIMSE2
 70
     0
  9
$DIMTAD
 70
     3
  9
$DIMZIN
 70
     8
  9
$DIMBLK
  1

  9
$DIMASO
 70
     1
  9
$DIMSHO
 70
     1
  9
$DIMPOST
  1

  9
$DIMAPOST
  1

  9
$DIMALT
 70
     0
  9
$DIMALTD
 70
     2
  9
$DIMALTF
 40
25.399999999999999
  9
$DIMLFAC
 40
1.0
  9
$DIMTOFL
 70
     1
  9
$DIMTVP
 40
0.0
  9
$DIMTIX
 70
     1
  9
$DIMSOXD
 70
     0
  9
$DIMSAH
 70
     1
  9
$DIMBLK1
  1
OPEN
  9
$DIMBLK2
  1
OPEN
  9
$DIMSTYLE
  2
BIGT
  9
$DIMCLRD
 70
   256
  9
$DIMCLRE
 70
   256
  9
$DIMCLRT
 70
    40
  9
$DIMTFAC
 40
1.0
  9
$DIMGAP
 40
1.0
  9
$LUNITS
 70
     2
  9
$LUPREC
 70
     3
  9
$SKETCHINC
 40
1.0
  9
$FILLETRAD
 40
0.0
  9
$AUNITS
 70
     0
  9
$AUPREC
 70
     3
  9
$MENU
  1
.
  9
$ELEVATION
 40
0.0
  9
$PELEVATION
 40
0.0
  9
$THICKNESS
 40
0.0
  9
$LIMCHECK
 70
     0
  9
$BLIPMODE
 70
     0
  9
$CHAMFERA
 40
10.0
  9
$CHAMFERB
 40
10.0
  9
$SKPOLY
 70
     0
  9
$TDCREATE
 40
2456316.6682224651
  9
$TDUPDATE
 40
2456875.4438669332
  9
$TDINDWG
 40
0.0546835417
  9
$TDUSRTIMER
 40
0.0546791667
  9
$USRTIMER
 70
     1
  9
$ANGBASE
 50
0.0
  9
$ANGDIR
 70
     0
  9
$PDMODE
 70
     1
  9
$PDSIZE
 40
-5.0
  9
$PLINEWID
 40
0.0
  9
$COORDS
 70
     1
  9
$SPLFRAME
 70
     0
  9
$SPLINETYPE
 70
     6
  9
$SPLINESEGS
 70
     8
  9
$ATTDIA
 70
     1
  9
$ATTREQ
 70
     1
  9
$HANDLING
 70
     1
  9
$HANDSEED
  5
1076
  9
$SURFTAB1
 70
     6
  9
$SURFTAB2
 70
     6
  9
$SURFTYPE
 70
     6
  9
$SURFU
 70
     6
  9
$SURFV
 70
     6
  9
$UCSNAME
  2

  9
$UCSORG
 10
0.0
 20
0.0
 30
0.0
  9
$UCSXDIR
 10
1.0
 20
0.0
 30
0.0
  9
$UCSYDIR
 10
0.0
 20
1.0
 30
0.0
  9
$PUCSNAME
  2

  9
$PUCSORG
 10
0.0
 20
0.0
 30
0.0
  9
$PUCSXDIR
 10
1.0
 20
0.0
 30
0.0
  9
$PUCSYDIR
 10
0.0
 20
1.0
 30
0.0
  9
$USERI1
 70
     1
  9
$USERI2
 70
     0
  9
$USERI3
 70
     0
  9
$USERI4
 70
     0
  9
$USERI5
 70
     0
  9
$USERR1
 40
0.0
  9
$USERR2
 40
0.0
  9
$USERR3
 40
0.0
  9
$USERR4
 40
0.0
  9
$USERR5
 40
0.0
  9
$WORLDVIEW
 70
     1
  9
$SHADEDGE
 70
     3
  9
$SHADEDIF
 70
    70
  9
$TILEMODE
 70
     1
  9
$MAXACTVP
 70
    16
  9
$PLIMCHECK
 70
     0
  9
$PEXTMIN
 10
1.0000000000000000E+020
 20
1.0000000000000000E+020
 30
1.0000000000000000E+020
  9
$PEXTMAX
 10
-1.0000000000000000E+020
 20
-1.0000000000000000E+020
 30
-1.0000000000000000E+020
  9
$PLIMMIN
 10
0.0
 20
0.0
  9
$PLIMMAX
 10
420.0
 20
297.0
  9
$UNITMODE
 70
     0
  9
$VISRETAIN
 70
     0
  9
$PLINEGEN
 70
     0
  9
$PSLTSCALE
 70
     1
  0
ENDSEC
  0
SECTION
  2
TABLES
  0
TABLE
  2
VPORT
 70
     1
  0
VPORT
  2
*ACTIVE
 70
     0
 10
0.0
 20
0.0
 11
1.0
 21
1.0
 12
48.793487401902041
 22
18.243458699210549
 13
0.0
 23
0.0
 14
7.0
 24
7.0
 15
7.0
 25
7.0
 16
0.0
 26
0.0
 36
1.0
 17
0.0
 27
0.0
 37
0.0
 40
185.6892807443308
 41
1.247144340602284
 42
50.0
 43
0.0
 44
0.0
 50
0.0
 51
0.0
 71
     0
 72
 20000
 73
     1
 74
     0
 75
     0
 76
     0
 77
     0
 78
     0
  0
ENDTAB
  0
TABLE
  2
LTYPE
 70
    13
  0
LTYPE
  2
CONTINUOUS
 70
     0
  3
Solid line
 72
    65
 73
     0
 40
0.0
  0
LTYPE
  2
CENTER2
 70
     0
  3
___ _ ___ _ ___ _ ___ _ ___ _ ___ _ ___ _ ___ _
 72
    65
 73
     4
 40
1.125
 49
0.75
 49
-0.125
 49
0.125
 49
-0.125
  0
LTYPE
  2
HIDDEN2
 70
     0
  3
_ _ _ _ _ _ _ _ _ _ _ _ _ _ _ _ _ _ _ _ _ _ _ _
 72
    65
 73
     2
 40
0.1875
 49
0.125
 49
-0.0625
  0
LTYPE
  2
PHANTOM2
 70
     0
  3
___ _ _ ___ _ _ ___ _ _ ___ _ _ ___ _ _ ___ _ _
 72
    65
 73
     6
 40
1.25
 49
0.625
 49
-0.125
 49
0.125
 49
-0.125
 49
0.125
 49
-0.125
  0
LTYPE
  2
AMCONSTR
 70
     0
  3
_______________________
 72
    65
 73
     2
 40
9999.0
 49
9999.0
 49
0.0
  0
LTYPE
  2
AM_ISO02W050
 70
     0
  3
__ __ __ __ __ __ __ __ __ __ __ __ __ __ __
 72
    65
 73
     2
 40
7.5
 49
6.0
 49
-1.5
  0
LTYPE
  2
ACJISTGB
 70
     0
  3
__ . . __ . .
 72
    65
 73
     6
 40
9.0
 49
4.0
 49
-1.0
 49
1.0
 49
-1.0
 49
1.0
 49
-1.0
  0
LTYPE
  2
ACJISTGL
 70
     0
  3
_ _ _ _ _
 72
    65
 73
     2
 40
3.0
 49
2.0
 49
-1.0
  0
LTYPE
  2
ACISOWELD
 70
     0
  3
_ _ _ _ _
 72
    65
 73
     2
 40
2.0
 49
2.0
 49
-1.0
  0
LTYPE
  2
ACISOTGB
 70
     0
  3
__ . . __ . .
 72
    65
 73
     6
 40
9.0
 49
4.0
 49
-1.0
 49
1.0
 49
-1.0
 49
1.0
 49
-1.0
  0
LTYPE
  2
ACISOTGL
 70
     0
  3
_ _ _ _ _
 72
    65
 73
     2
 40
3.0
 49
2.0
 49
-1.0
  0
ENDTAB
  0
TABLE
  2
LAYER
 70
     6
  0
LAYER
  2
0
 70
     0
 62
     7
  6
CONTINUOUS
  0
LAYER
  2
240
 70
     0
 62
     4
  6
CONTINUOUS
  0
LAYER
  2
241
 70
     0
 62
   211
  6
CONTINUOUS
  0
LAYER
  2
245
 70
     0
 62
     2
  6
CENTER2
  0
LAYER
  2
250
 70
     0
 62
     3
  6
CONTINUOUS
  0
LAYER
  2
DEFPOINTS
 70
     0
 62
     7
  6
CONTINUOUS
  0
ENDTAB
  0
TABLE
  2
STYLE
 70
     6
  0
STYLE
  2
STANDARD
 70
     0
 40
0.0
 41
1.0
 50
0.0
 71
     0
 42
3.0
  3
romans.shx
  4
BIGFONT.SHX
  0
STYLE
  2
YOKO
 70
     0
 40
0.0
 41
1.0
 50
0.0
 71
     0
 42
3.0
  3
romans.shx
  4
extfont.shx
  0
STYLE
  2
ACJISTS
 70
     0
 40
1.0
 41
1.0
 50
0.0
 71
     0
 42
3.0
  3
amgdt.shx
  4
extfont.shx
  0
STYLE
  2
ACJISGDT
 70
     0
 40
0.0
 41
1.0
 50
0.0
 71
     0
 42
3.0
  3
amgdt.shx
  4
extfont.shx
  0
STYLE
  2
ACISOTS
 70
     0
 40
1.0
 41
1.0
 50
0.0
 71
     0
 42
3.0
  3
amgdt.shx
  4
extfont.shx
  0
STYLE
  2
ACISOGDT
 70
     0
 40
0.0
 41
1.0
 50
0.0
 71
     0
 42
3.0
  3
amgdt.shx
  4
extfont.shx
  0
ENDTAB
  0
TABLE
  2
VIEW
 70
     0
  0
ENDTAB
  0
TABLE
  2
UCS
 70
     0
  0
ENDTAB
  0
TABLE
  2
APPID
 70
    37
  0
APPID
  2
ACAD
 70
     0
  0
APPID
  2
GLOBAL
 70
     0
  0
APPID
  2
DETAIL
 70
     0
  0
APPID
  2
GRPNAME
 70
     0
  0
APPID
  2
GPARA
 70
     0
  0
APPID
  2
DCO15
 70
     0
  0
APPID
  2
ITEMNAME
 70
     0
  0
APPID
  2
GRADE_0
 70
     0
  0
APPID
  2
ASK_MEN_XD
 70
     0
  0
APPID
  2
LAYER_SCALE
 70
     0
  0
APPID
  2
ACAD_NAV_VCDISPLAY
 70
     0
  0
APPID
  2
MCAD_NO_VIS
 70
     0
  0
APPID
  2
ACAD_TEMP_GRAPHIC
 70
     0
  0
APPID
  2
ACATTRIBSERVICES
 70
     0
  0
APPID
  2
GENIUS_GENSCREG_15
 70
     0
  0
APPID
  2
GENIUS_GENODEF_13
 70
     0
  0
APPID
  2
GENIUS_GENOBJ-N-SDF_13
 70
     0
  0
APPID
  2
GENIUS_GENREC_14
 70
     0
  0
APPID
  2
GENIUS_GENOBJ-N-REC_13
 70
     0
  0
APPID
  2
GENIUS_GENDIMSH_14
 70
     0
  0
APPID
  2
GENIUS_GENOBJ-N-DIM_13
 70
     0
  0
APPID
  2
GENIUS_GENDIM_13
 70
     0
  0
APPID
  2
GENIUS_GENDTOL_13
 70
     0
  0
APPID
  2
GENIUS_GENOLIS_13
 70
     0
  0
APPID
  2
GENIUS_GENOENT_13
 70
     0
  0
APPID
  2
GENIUS_GENOBJ-F-FEM_13
 70
     0
  0
APPID
  2
GENIUS_GENOREF_13
 70
     0
  0
APPID
  2
GENIUS_GEFFEM_13
 70
     0
  0
APPID
  2
GENIUS_GEFFEMP_13
 70
     0
  0
APPID
  2
AD_DRAW
 70
     0
  0
APPID
  2
DESIGNERASSEMBLIES
 70
     0
  0
APPID
  2
ACADM_DIM_EDIT
 70
     0
  0
APPID
  2
AMDT_DM_ADJ
 70
     0
  0
APPID
  2
GENIUS_GENOBJ-N-FIL_13
 70
     0
  0
APPID
  2
GENIUS_GENFIL_13
 70
     0
  0
APPID
  2
GENIUS_GENOBJ-N-CHA_13
 70
     0
  0
APPID
  2
ACAD_MLEADERVER
 70
     0
  0
ENDTAB
  0
TABLE
  2
DIMSTYLE
 70
    23
  0
DIMSTYLE
  2
BIGT
 70
     0
  3

  4

  5
OPEN
  6

  7

 40
1.0
 41
2.2299999999999991
 42
0.5
 43
7.0
 44
1.0
 45
0.0
 46
0.0
 47
0.0
 48
0.01
140
2.7999999999999989
141
0.0
142
0.0
143
25.399999999999999
144
1.0
145
0.0
146
1.0
147
1.0
 71
     0
 72
     0
 73
     0
 74
     0
 75
     0
 76
     0
 77
     3
 78
     9
170
     0
171
     2
172
     1
173
     0
174
     1
175
     0
176
   256
177
   256
178
    40
  0
DIMSTYLE
  2
BIGT$0
 70
     0
  3

  4

  5
OPEN
  6

  7

 40
1.0
 41
2.2299999999999991
 42
0.5
 43
7.0
 44
1.0
 45
0.0
 46
0.0
 47
0.0
 48
0.01
140
2.7999999999999989
141
0.0
142
0.0
143
25.399999999999999
144
1.0
145
0.0
146
1.0
147
1.0
 71
     0
 72
     0
 73
     0
 74
     0
 75
     0
 76
     0
 77
     3
 78
     9
170
     0
171
     2
172
     1
173
     0
174
     1
175
     0
176
   256
177
   256
178
    40
  0
DIMSTYLE
  2
BIGT$2
 70
     0
  3

  4

  5
OPEN
  6

  7

 40
1.0
 41
2.2299999999999991
 42
0.5
 43
7.0
 44
1.0
 45
0.0
 46
0.0
 47
0.0
 48
0.01
140
2.7999999999999989
141
0.0
142
0.0
143
25.399999999999999
144
1.0
145
0.0
146
1.0
147
1.0
 71
     0
 72
     0
 73
     0
 74
     0
 75
     0
 76
     0
 77
     3
 78
     9
170
     0
171
     2
172
     1
173
     0
174
     0
175
     0
176
   256
177
   256
178
    40
  0
DIMSTYLE
  2
BIGT$3
 70
     0
  3

  4

  5
OPEN
  6

  7

 40
1.0
 41
2.2299999999999991
 42
0.5
 43
2.5
 44
1.0
 45
0.0
 46
0.0
 47
0.0
 48
0.01
140
2.7999999999999989
141
0.0
142
0.0
143
25.399999999999999
144
1.0
145
0.0
146
1.0
147
1.0
 71
     0
 72
     0
 73
     0
 74
     0
 75
     0
 76
     0
 77
     3
 78
     9
170
     0
171
     2
172
     1
173
     0
174
     0
175
     0
176
   256
177
   256
178
    40
  0
DIMSTYLE
  2
BIGT$4
 70
     0
  3

  4

  5
OPEN
  6

  7

 40
1.0
 41
2.2299999999999991
 42
0.5
 43
2.5
 44
1.0
 45
0.0
 46
0.0
 47
0.0
 48
0.01
140
2.7999999999999989
141
0.0
142
0.0
143
25.399999999999999
144
1.0
145
0.0
146
1.0
147
1.0
 71
     0
 72
     0
 73
     0
 74
     0
 75
     0
 76
     0
 77
     3
 78
     9
170
     0
171
     2
172
     1
173
     0
174
     0
175
     0
176
   256
177
   256
178
    40
  0
DIMSTYLE
  2
BIGT$6
 70
     0
  3

  4

  5
OPEN
  6

  7

 40
1.0
 41
2.2299999999999991
 42
0.5
 43
2.5
 44
1.0
 45
0.0
 46
0.0
 47
0.0
 48
0.01
140
2.7999999999999989
141
0.0
142
0.0
143
25.399999999999999
144
1.0
145
0.0
146
1.0
147
1.0
 71
     0
 72
     0
 73
     0
 74
     0
 75
     0
 76
     0
 77
     3
 78
     9
170
     0
171
     2
172
     1
173
     0
174
     0
175
     0
176
   256
177
   256
178
    40
  0
DIMSTYLE
  2
BIGT$7
 70
     0
  3

  4

  5
OPEN
  6

  7

 40
0.0
 41
2.2299999999999991
 42
0.5
 43
7.0
 44
1.0
 45
0.0
 46
0.0
 47
0.0
 48
0.01
140
2.7999999999999989
141
0.0
142
0.0
143
25.399999999999999
144
1.0
145
0.0
146
1.0
147
1.0
 71
     0
 72
     0
 73
     0
 74
     0
 75
     0
 76
     0
 77
     3
 78
     9
170
     0
171
     2
172
     0
173
     0
174
     0
175
     0
176
   256
177
   256
178
    40
  0
DIMSTYLE
  2
BIGT$SF
 70
     0
  3

  4

  5
OPEN
  6

  7

 40
1.0
 41
2.2299999999999991
 42
0.5
 43
7.0
 44
1.0
 45
0.0
 46
0.0
 47
0.0
 48
0.0
140
2.7999999999999989
141
0.0
142
0.0
143
25.399999999999999
144
1.0
145
0.0
146
1.0
147
1.0
 71
     0
 72
     0
 73
     0
 74
     0
 75
     0
 76
     0
 77
     3
 78
     9
170
     0
171
     2
172
     1
173
     0
174
     0
175
     0
176
   256
177
   256
178
    40
  0
DIMSTYLE
  2
BIGT$SH
 70
     0
  3

  4

  5
OPEN
  6

  7

 40
1.0
 41
2.2299999999999991
 42
0.5
 43
7.0
 44
1.0
 45
0.0
 46
0.0
 47
0.0
 48
0.0
140
2.7999999999999989
141
0.0
142
0.0
143
25.399999999999999
144
1.0
145
0.0
146
1.0
147
1.0
 71
     0
 72
     0
 73
     0
 74
     0
 75
     0
 76
     0
 77
     3
 78
     9
170
     0
171
     2
172
     1
173
     0
174
     0
175
     0
176
   256
177
   256
178
    40
  0
DIMSTYLE
  2
AM_ISO
 70
     0
  3

  4
"
  5

  6

  7

 40
1.0
 41
2.5
 42
1.0
 43
10.0
 44
1.0
 45
0.0
 46
0.0
 47
0.1
 48
0.1
140
3.5
141
0.0
142
0.0
143
0.0393701
144
1.0
145
0.0
146
0.71
147
1.5
 71
     0
 72
     0
 73
     0
 74
     0
 75
     0
 76
     0
 77
     1
 78
     8
170
     0
171
     2
172
     1
173
     0
174
     0
175
     0
176
   256
177
   256
178
     2
  0
DIMSTYLE
  2
AM_ISO$3
 70
     0
  3

  4
"
  5

  6

  7

 40
1.0
 41
2.5
 42
1.0
 43
10.0
 44
1.0
 45
0.0
 46
0.0
 47
0.1
 48
0.1
140
3.5
141
0.0
142
0.0
143
0.0393701
144
1.0
145
0.0
146
0.71
147
1.5
 71
     0
 72
     0
 73
     0
 74
     1
 75
     0
 76
     0
 77
     1
 78
     8
170
     0
171
     2
172
     0
173
     0
174
     0
175
     0
176
   256
177
   256
178
     2
  0
DIMSTYLE
  2
AM_ISO$4
 70
     0
  3

  4
"
  5

  6

  7

 40
1.0
 41
2.5
 42
1.0
 43
10.0
 44
1.0
 45
0.0
 46
0.0
 47
0.1
 48
0.1
140
3.5
141
0.0
142
0.0
143
0.0393701
144
1.0
145
0.0
146
0.71
147
1.5
 71
     0
 72
     0
 73
     0
 74
     1
 75
     0
 76
     0
 77
     1
 78
     8
170
     0
171
     2
172
     0
173
     0
174
     0
175
     0
176
   256
177
   256
178
     2
  0
DIMSTYLE
  2
AM_ISO$6
 70
     0
  3

  4
"
  5

  6

  7

 40
1.0
 41
2.5
 42
1.0
 43
10.0
 44
1.0
 45
0.0
 46
0.0
 47
0.1
 48
0.1
140
3.5
141
0.0
142
0.0
143
0.0393701
144
1.0
145
0.0
146
0.71
147
1.5
 71
     0
 72
     0
 73
     0
 74
     0
 75
     0
 76
     0
 77
     0
 78
     8
170
     0
171
     2
172
     1
173
     0
174
     0
175
     0
176
   256
177
   256
178
     2
  0
DIMSTYLE
  2
AM_ISO$7
 70
     0
  3

  4
"
  5

  6

  7

 40
1.0
 41
2.5
 42
1.0
 43
10.0
 44
1.0
 45
0.0
 46
0.0
 47
0.1
 48
0.1
140
5.0
141
0.0
142
0.0
143
0.0393701
144
1.0
145
0.0
146
0.71
147
1.5
 71
     0
 72
     0
 73
     0
 74
     0
 75
     0
 76
     0
 77
     1
 78
     8
170
     0
171
     2
172
     1
173
     0
174
     0
175
     0
176
   256
177
   256
178
     2
  0
DIMSTYLE
  2
AM_ISO$SF
 70
     0
  3

  4
"
  5

  6

  7

 40
1.0
 41
2.5
 42
1.0
 43
10.0
 44
1.0
 45
0.0
 46
0.0
 47
0.1
 48
0.1
140
3.5
141
0.0
142
0.0
143
0.0393701
144
1.0
145
0.0
146
0.71
147
1.5
 71
     0
 72
     0
 73
     0
 74
     0
 75
     1
 76
     1
 77
     1
 78
     8
170
     0
171
     2
172
     1
173
     0
174
     0
175
     0
176
   256
177
   256
178
     2
  0
DIMSTYLE
  2
AM_ISO$SH
 70
     0
  3

  4
"
  5

  6
GENAXEH
  7

 40
1.0
 41
2.5
 42
1.0
 43
10.0
 44
1.0
 45
0.0
 46
0.0
 47
0.1
 48
0.1
140
3.5
141
0.0
142
0.0
143
0.0393701
144
2.0
145
0.0
146
0.71
147
1.5
 71
     0
 72
     0
 73
     0
 74
     0
 75
     1
 76
     1
 77
     1
 78
     8
170
     0
171
     2
172
     1
173
     1
174
     0
175
     0
176
   256
177
   256
178
     2
  0
DIMSTYLE
  2
TECHNICAL_OSAKA
 70
     0
  3

  4
"
  5
OPEN30
  6

  7

 40
1.0
 41
2.5
 42
1.0
 43
10.0
 44
1.0
 45
0.0
 46
0.0
 47
0.1
 48
0.1
140
2.7999999999999989
141
0.0
142
0.0
143
0.0393701
144
1.0
145
0.0
146
0.71
147
1.5
 71
     0
 72
     0
 73
     0
 74
     0
 75
     0
 76
     0
 77
     3
 78
     8
170
     0
171
     2
172
     1
173
     0
174
     0
175
     0
176
   256
177
   256
178
    40
  0
DIMSTYLE
  2
TECHNICAL_OSAKA$3
 70
     0
  3

  4
"
  5
OPEN30
  6

  7

 40
1.0
 41
2.5
 42
1.0
 43
10.0
 44
1.0
 45
0.0
 46
0.0
 47
0.1
 48
0.1
140
2.7999999999999989
141
0.0
142
0.0
143
0.0393701
144
1.0
145
0.0
146
0.71
147
1.5
 71
     0
 72
     0
 73
     0
 74
     1
 75
     0
 76
     0
 77
     3
 78
     8
170
     0
171
     2
172
     0
173
     0
174
     0
175
     0
176
   256
177
   256
178
    40
  0
DIMSTYLE
  2
TECHNICAL_OSAKA$4
 70
     0
  3

  4
"
  5
OPEN30
  6

  7

 40
1.0
 41
2.5
 42
1.0
 43
10.0
 44
1.0
 45
0.0
 46
0.0
 47
0.1
 48
0.1
140
2.7999999999999989
141
0.0
142
0.0
143
0.0393701
144
1.0
145
0.0
146
0.71
147
1.5
 71
     0
 72
     0
 73
     0
 74
     1
 75
     0
 76
     0
 77
     3
 78
     8
170
     0
171
     2
172
     0
173
     0
174
     0
175
     0
176
   256
177
   256
178
    40
  0
DIMSTYLE
  2
TECHNICAL_OSAKA$6
 70
     0
  3

  4
"
  5
OPEN30
  6

  7

 40
1.0
 41
2.5
 42
1.0
 43
10.0
 44
1.0
 45
0.0
 46
0.0
 47
0.1
 48
0.1
140
2.7999999999999989
141
0.0
142
0.0
143
0.0393701
144
1.0
145
0.0
146
0.71
147
1.5
 71
     0
 72
     0
 73
     0
 74
     0
 75
     0
 76
     0
 77
     0
 78
     8
170
     0
171
     2
172
     1
173
     0
174
     0
175
     0
176
   256
177
   256
178
    40
  0
DIMSTYLE
  2
TECHNICAL_OSAKA$7
 70
     0
  3

  4
"
  5
OPEN30
  6

  7

 40
1.0
 41
2.5
 42
1.0
 43
10.0
 44
1.0
 45
0.0
 46
0.0
 47
0.1
 48
0.1
140
2.7999999999999989
141
0.0
142
0.0
143
0.0393701
144
1.0
145
0.0
146
0.71
147
1.5
 71
     0
 72
     0
 73
     0
 74
     0
 75
     0
 76
     0
 77
     3
 78
     8
170
     0
171
     2
172
     1
173
     0
174
     0
175
     0
176
   256
177
   256
178
    40
  0
DIMSTYLE
  2
TECHNICAL_OSAKA$SF
 70
     0
  3

  4
"
  5
OPEN30
  6
OPEN30
  7
OPEN30
 40
1.0
 41
2.5
 42
1.0
 43
10.0
 44
1.0
 45
0.0
 46
0.0
 47
0.1
 48
0.1
140
3.5
141
0.0
142
0.0
143
0.0393701
144
1.0
145
0.0
146
0.71
147
1.5
 71
     0
 72
     0
 73
     0
 74
     0
 75
     1
 76
     1
 77
     3
 78
     8
170
     0
171
     2
172
     1
173
     0
174
     0
175
     0
176
   256
177
   256
178
    40
  0
DIMSTYLE
  2
TECHNICAL_OSAKA$SH
 70
     0
  3

  4
"
  5
OPEN30
  6
GENAXEH
  7
OPEN30
 40
1.0
 41
2.5
 42
1.0
 43
10.0
 44
1.0
 45
0.0
 46
0.0
 47
0.1
 48
0.1
140
3.5
141
0.0
142
0.0
143
0.0393701
144
2.0
145
0.0
146
0.71
147
1.5
 71
     0
 72
     0
 73
     0
 74
     0
 75
     1
 76
     1
 77
     3
 78
     8
170
     0
171
     2
172
     1
173
     1
174
     0
175
     0
176
   256
177
   256
178
    40
  0
ENDTAB
  0
ENDSEC
  0
SECTION
  2
BLOCKS
  0
BLOCK
  8
0
  2
$MODEL_SPACE
 70
     0
 10
0.0
 20
0.0
 30
0.0
  3
$MODEL_SPACE
  1

  0
ENDBLK
  5
1C
  8
0
  0
BLOCK
 67
     1
  8
0
  2
$PAPER_SPACE
 70
     0
 10
0.0
 20
0.0
 30
0.0
  3
$PAPER_SPACE
  1

  0
ENDBLK
  5
19
 67
     1
  8
0
  0
BLOCK
  8
0
  2
_OPEN
 70
     0
 10
0.0
 20
0.0
 30
0.0
  3
_OPEN
  1

  0
LINE
  5
EBE
  8
0
  6
BYBLOCK
 62
     0
 10
-1.0
 20
0.1666666666666666
 30
0.0
 11
0.0
 21
0.0
 31
0.0
  0
LINE
  5
EBF
  8
0
  6
BYBLOCK
 62
     0
 10
-1.0
 20
-0.1666666666666666
 30
0.0
 11
0.0
 21
0.0
 31
0.0
  0
LINE
  5
EC0
  8
0
  6
BYBLOCK
 62
     0
 10
0.0
 20
0.0
 30
0.0
 11
-1.0
 21
0.0
 31
0.0
  0
ENDBLK
  5
EC1
  8
0
  0
BLOCK
  8
0
  2
矢印なし
 70
     0
 10
0.0
 20
0.0
 30
0.0
  3
矢印なし
  1

  0
ENDBLK
  5
6E5
  8
0
  0
BLOCK
  8
0
  2
GENAXEH
 70
     0
 10
0.0
 20
0.0
 30
0.0
  3
GENAXEH
  1

  0
LINE
  5
EF9
  8
0
 10
-1.0
 20
0.0
 30
0.0
 11
1.0
 21
0.0
 31
0.0
  0
ENDBLK
  5
EFA
  8
0
  0
BLOCK
  8
0
  2
_OPEN30
 70
     0
 10
0.0
 20
0.0
 30
0.0
  3
_OPEN30
  1

  0
LINE
  5
F35
  8
0
  6
BYBLOCK
 62
     0
 10
-1.0
 20
0.26794919
 30
0.0
 11
0.0
 21
0.0
 31
0.0
  0
LINE
  5
F36
  8
0
  6
BYBLOCK
 62
     0
 10
0.0
 20
0.0
 30
0.0
 11
-1.0
 21
-0.26794919
 31
0.0
  0
LINE
  5
F37
  8
0
  6
BYBLOCK
 62
     0
 10
0.0
 20
0.0
 30
0.0
 11
-1.0
 21
0.0
 31
0.0
  0
ENDBLK
  5
F38
  8
0
  0
ENDSEC
  0
SECTION
  2
ENTITIES
  0
INSERT
  5
6E6
  8
245
  2
矢印なし
 10
175.62382696643769
 20
90.551235716905978
 30
0.0
  0
TEXT
  5
853
  8
241
  6
CONTINUOUS
 10
-65.400000000000063
 20
62.999999999999979
 30
0.0
 40
5.0
  1
BBT40-MEGA25D-135A
  7
YOKO
 11
-65.400000000000063
 21
62.999999999999979
 31
0.0
 73
     1
  0
LINE
  5
A29
  8
250
 10
-48.256370890134079
 20
-28.151483684754979
 30
0.0
 11
-65.989704223467413
 21
-28.151483684754979
 31
0.0
1001
ITEMNAME
1000
LNSP2
  0
LINE
  5
F66
  8
245
  6
CENTER2
 10
16.599999999999941
 20
31.500000000000131
 30
0.0
 11
16.599999999999909
 21
-31.500000000000309
 31
0.0
  0
LINE
  5
F67
  8
241
  6
CONTINUOUS
 10
21.599999999999909
 20
-31.5
 30
0.0
 11
21.599999999999909
 21
-0.0000000000000142
 31
0.0
  0
LINE
  5
F68
  8
241
  6
CONTINUOUS
 10
11.599999999999911
 20
-0.0000000000000142
 30
0.0
 11
11.59999999999993
 21
-31.500000000000039
 31
0.0
  0
LINE
  5
F69
  8
241
  6
CONTINUOUS
 10
-0.0000000000001705
 20
-22.224999999999952
 30
0.0
 11
0.0
 21
-0.0000000000000142
 31
0.0
  0
LINE
  5
F6A
  8
240
  6
CONTINUOUS
 10
0.9999999999998864
 20
-30.500000000000021
 30
0.0
 11
0.9999999999998293
 21
-22.22499999999993
 31
0.0
  0
ARC
  5
F6B
  8
240
  6
CONTINUOUS
 10
1.9999999999998841
 20
-30.500000000000021
 30
0.0
 40
1.0
 50
180.0
 51
270.0
  0
LINE
  5
F6C
  8
240
  6
CONTINUOUS
 10
-65.400000000000048
 20
11.303908955248639
 30
0.0
 11
-65.400000000000077
 21
-11.30390895524874
 31
0.0
  0
ARC
  5
F6D
  8
240
  6
CONTINUOUS
 10
-63.800000000000061
 20
-11.30390895524874
 30
0.0
 40
1.6000000000000001
 50
180.0
 51
261.70285503016299
  0
LINE
  5
F6E
  8
240
  6
CONTINUOUS
 10
-0.0000000000001137
 20
-22.225000000000009
 30
0.0
 11
-64.030891028914851
 21
-12.887161724949991
 31
0.0
  0
LINE
  5
F6F
  8
240
  6
CONTINUOUS
 10
21.599999999999909
 20
-31.5
 30
0.0
 11
26.999999999999829
 21
-31.500000000000188
 31
0.0
  0
LINE
  5
F70
  8
241
  6
HIDDEN2
 10
22.99999999999989
 20
-22.500000000000011
 30
0.0
 11
22.99999999999989
 21
-31.500000000000021
 31
0.0
  0
LINE
  5
F71
  8
240
  6
CONTINUOUS
 10
1.9999999999998841
 20
-31.500000000000021
 30
0.0
 11
11.59999999999985
 21
-31.50000000000022
 31
0.0
  0
LINE
  5
F72
  8
241
  6
HIDDEN2
 10
22.99999999999989
 20
-22.500000000000011
 30
0.0
 11
0.9999999999998864
 21
-22.500000000000011
 31
0.0
  0
LINE
  5
F73
  8
245
  6
CENTER2
 10
-66.400000000000063
 20
0.0000000000000142
 30
0.0
 11
135.99999999999679
 21
-0.0000000000000284
 31
0.0
  0
LINE
  5
F74
  8
240
  6
CONTINUOUS
 10
-0.0000000000001137
 20
22.22499999999998
 30
0.0
 11
-64.030891028914823
 21
12.887161724949889
 31
0.0
  0
ARC
  5
F75
  8
240
  6
CONTINUOUS
 10
-63.800000000000061
 20
11.303908955248639
 30
0.0
 40
1.6000000000000001
 50
98.297144969836921
 51
180.0
  0
LINE
  5
F76
  8
240
  6
CONTINUOUS
 10
21.599999999999909
 20
31.500000000000021
 30
0.0
 11
26.999999999991161
 21
31.50000000000022
 31
0.0
  0
LINE
  5
F77
  8
241
  6
HIDDEN2
 10
22.99999999999989
 20
22.499999999999989
 30
0.0
 11
1.299999999999897
 21
22.499999999999989
 31
0.0
  0
LINE
  5
F78
  8
240
  6
CONTINUOUS
 10
1.999999999999829
 20
31.500000000000021
 30
0.0
 11
11.59999999999993
 21
31.500000000000039
 31
0.0
  0
ARC
  5
F79
  8
240
  6
CONTINUOUS
 10
1.999999999999829
 20
30.500000000000021
 30
0.0
 40
1.0
 50
90.0
 51
180.0000000000023
  0
LINE
  5
F7A
  8
240
  6
CONTINUOUS
 10
1.0000000000002269
 20
22.225000000001401
 30
0.0
 11
0.9999999999998293
 21
30.500000000000021
 31
0.0
  0
LINE
  5
F7B
  8
241
  6
HIDDEN2
 10
22.99999999999989
 20
22.499999999999989
 30
0.0
 11
22.99999999999989
 21
31.500000000000021
 31
0.0
  0
LINE
  5
F7C
  8
241
  6
CONTINUOUS
 10
14.486751345948219
 20
-26.499999999999691
 30
0.0
 11
14.48675134594825
 21
0.0
 31
0.0
  0
LINE
  5
F7D
  8
240
  6
CONTINUOUS
 10
14.486751345948219
 20
-26.499999999999691
 30
0.0
 11
11.59999999999985
 21
-31.50000000000022
 31
0.0
  0
LINE
  5
F7E
  8
240
  6
CONTINUOUS
 10
18.713248654051679
 20
-26.499999999999801
 30
0.0
 11
14.486751345948219
 21
-26.499999999999691
 31
0.0
1001
GRPNAME
1000
PASTMD1I
  0
LINE
  5
F7F
  8
241
  6
CONTINUOUS
 10
18.713248654051679
 20
-26.499999999999801
 30
0.0
 11
18.713248654051789
 21
0.0
 31
0.0
  0
LINE
  5
F80
  8
240
  6
CONTINUOUS
 10
18.713248654051679
 20
-26.499999999999801
 30
0.0
 11
21.600000000000001
 21
-31.500000000000011
 31
0.0
  0
LINE
  5
F81
  8
240
  6
CONTINUOUS
 10
21.600000000000279
 20
31.500000000000021
 30
0.0
 11
18.713248654050972
 21
26.49999999999925
 31
0.0
  0
LINE
  5
F82
  8
240
  6
CONTINUOUS
 10
11.599999999999881
 20
31.500000000000039
 30
0.0
 11
14.486751345948759
 21
26.49999999999913
 31
0.0
  0
LINE
  5
F83
  8
240
 10
-0.0000000000001705
 20
-22.224999999999952
 30
0.0
 11
0.9999999999998293
 21
-22.22499999999993
 31
0.0
  0
LINE
  5
F84
  8
241
 10
0.9999999999998293
 20
-22.224999999999611
 30
0.0
 11
0.9999999999998293
 21
-0.0000000000000142
 31
0.0
  0
LINE
  5
F85
  8
241
  6
CONTINUOUS
 10
14.486751345948219
 20
26.499999999999648
 30
0.0
 11
14.48675134594825
 21
-0.0000000000000284
 31
0.0
  0
LINE
  5
F86
  8
240
  6
CONTINUOUS
 10
18.713248654051679
 20
26.49999999999979
 30
0.0
 11
14.486751345948219
 21
26.499999999999648
 31
0.0
1001
GRPNAME
1000
PASTMD1I
  0
LINE
  5
F87
  8
241
  6
CONTINUOUS
 10
18.713248654051679
 20
26.49999999999979
 30
0.0
 11
18.713248654051789
 21
-0.0000000000000284
 31
0.0
  0
LINE
  5
F88
  8
240
 10
-0.0000000000001705
 20
22.22499999999993
 30
0.0
 11
1.0000000000002269
 21
22.225000000001401
 31
0.0
  0
LINE
  5
F89
  8
241
  6
CONTINUOUS
 10
-0.0000000000001705
 20
22.22499999999993
 30
0.0
 11
0.0
 21
-0.0000000000000142
 31
0.0
  0
LINE
  5
F8A
  8
241
 10
0.9999999999998293
 20
22.224999999999579
 30
0.0
 11
0.9999999999998293
 21
-0.0000000000000142
 31
0.0
  0
LINE
  5
F8B
  8
241
  6
CONTINUOUS
 10
21.599999999999909
 20
31.500000000000021
 30
0.0
 11
21.599999999999909
 21
-0.0000000000000142
 31
0.0
  0
LINE
  5
F8C
  8
241
  6
CONTINUOUS
 10
11.599999999999911
 20
-0.0000000000000142
 30
0.0
 11
11.59999999999993
 21
31.500000000000039
 31
0.0
  0
LINE
  5
F8D
  8
241
  6
CONTINUOUS
 10
26.999999999999929
 20
0.0000000000000568
 30
0.0
 11
26.999999999999829
 21
-31.49999999999952
 31
0.0
  0
LINE
  5
F8E
  8
241
  6
HIDDEN2
 10
57.86602540377632
 20
12.50000000000014
 30
0.0
 11
132.4999999999973
 21
12.500000000000179
 31
0.0
1001
GRPNAME
1000
PASTMD3T
  0
LINE
  5
F8F
  8
241
 10
77.999999999999972
 20
-31.349999999999842
 30
0.0
 11
77.999999999997513
 21
0.0
 31
0.0
  0
LINE
  5
F90
  8
241
 10
72.000000000000085
 20
-31.349999999999358
 30
0.0
 11
71.999999999997584
 21
0.0
 31
0.0
  0
LINE
  5
F91
  8
241
 10
69.999999999999901
 20
-31.349999999999429
 30
0.0
 11
69.99999999999784
 21
0.0
 31
0.0
  0
LINE
  5
F92
  8
241
 10
63.99999999999995
 20
-31.3499999999995
 30
0.0
 11
63.999999999997712
 21
0.0
 31
0.0
  0
LINE
  5
F93
  8
240
 10
72.500000000000952
 20
-30.849999999999611
 30
0.0
 11
77.499999999995154
 21
-30.849999999999671
 31
0.0
  0
LINE
  5
F94
  8
240
 10
72.500000000000952
 20
-30.849999999999611
 30
0.0
 11
72.000000000000085
 21
-31.349999999999842
 31
0.0
  0
LINE
  5
F95
  8
240
 10
77.999999999999972
 20
-31.349999999999842
 30
0.0
 11
77.499999999995154
 21
-30.849999999999671
 31
0.0
  0
LINE
  5
F96
  8
240
 10
27.150000000017911
 20
-31.350000000000001
 30
0.0
 11
64.000000000000028
 21
-31.350000000000001
 31
0.0
  0
LINE
  5
F97
  8
240
 10
69.999999999999901
 20
-31.349999999999309
 30
0.0
 11
72.000000000000142
 21
-31.34999999999933
 31
0.0
  0
LINE
  5
F98
  8
240
 10
27.150000000007768
 20
31.350000000000119
 30
0.0
 11
64.000000000019085
 21
31.349999999999952
 31
0.0
  0
LINE
  5
F99
  8
240
 10
27.150000000017911
 20
-31.350000000000001
 30
0.0
 11
26.999999999999549
 21
-31.499999999999591
 31
0.0
  0
LINE
  5
F9A
  8
241
  6
CONTINUOUS
 10
26.999999999999929
 20
-0.0000000000000995
 30
0.0
 11
26.999999999999861
 21
31.499999999999471
 31
0.0
  0
LINE
  5
F9B
  8
240
 10
27.150000000007768
 20
31.350000000000119
 30
0.0
 11
26.99999999999957
 21
31.499999999999531
 31
0.0
  0
LINE
  5
F9C
  8
241
  6
CONTINUOUS
 10
89.999999999997556
 20
-0.0000000000000284
 30
0.0
 11
89.999999999997556
 21
-31.349999999999572
 31
0.0
  0
LINE
  5
F9D
  8
240
 10
134.9999999999969
 20
-0.0000000000000284
 30
0.0
 11
134.9999999999969
 21
-24.698019036063108
 31
0.0
  0
LINE
  5
F9E
  8
240
 10
94.499999999999602
 20
-31.350000000000112
 30
0.0
 11
78.0
 21
-31.3499999999982
 31
0.0
  0
LINE
  5
F9F
  8
240
 10
132.77645713530441
 20
-27.595796514930331
 30
0.0
 11
123.99045011766771
 21
-29.950000000000301
 31
0.0
  0
ARC
  5
FA0
  8
240
 10
131.9999999999969
 20
-24.698019036063108
 30
0.0
 40
3.0
 50
284.9999999999996
 51
0.0
  0
LINE
  5
FA1
  8
241
 10
123.9904501176682
 20
-29.950000000000099
 30
0.0
 11
123.9904501176683
 21
-0.0000000000000284
 31
0.0
  0
LINE
  5
FA2
  8
241
 10
94.849999999991056
 20
-31.000000000000121
 30
0.0
 11
94.849999999991056
 21
-0.0000000000000568
 31
0.0
  0
LINE
  5
FA3
  8
240
 10
94.849999999991056
 20
-31.000000000000082
 30
0.0
 11
111.78134665204961
 21
-30.999999999999861
 31
0.0
  0
LINE
  5
FA4
  8
240
 10
94.849999999991056
 20
-31.000000000000082
 30
0.0
 11
94.499999999999602
 21
-31.350000000000112
 31
0.0
1001
GRPNAME
1000
PASTMD1P
  0
LINE
  5
FA5
  8
240
 10
123.9904501176682
 20
-29.950000000000099
 30
0.0
 11
113.5999999999983
 21
-29.950000000000191
 31
0.0
  0
LINE
  5
FA6
  8
241
 10
113.5999999999969
 20
-0.0000000000000284
 30
0.0
 11
113.5999999999968
 21
-29.95000000000022
 31
0.0
  0
LINE
  5
FA7
  8
240
 10
113.5999999999983
 20
-29.950000000000191
 30
0.0
 11
111.78134665204711
 21
-30.999999999999861
 31
0.0
  0
LINE
  5
FA8
  8
241
 10
111.78134665204961
 20
-30.999999999999861
 30
0.0
 11
111.78134665204971
 21
-0.0000000000000284
 31
0.0
  0
LINE
  5
FA9
  8
241
  6
CONTINUOUS
 10
89.999999999997556
 20
-0.0000000000000284
 30
0.0
 11
89.999999999997556
 21
31.3499999999995
 31
0.0
  0
LINE
  5
FAA
  8
240
 10
134.9999999999969
 20
-0.0000000000000284
 30
0.0
 11
134.9999999999969
 21
24.69801903606303
 31
0.0
  0
LINE
  5
FAB
  8
240
 10
94.500000000000952
 20
31.349999999999749
 30
0.0
 11
77.999999999980105
 21
31.349999999999671
 31
0.0
  0
LINE
  5
FAC
  8
240
 10
132.77645713530441
 20
27.595796514930271
 30
0.0
 11
123.99045011766771
 21
29.950000000000259
 31
0.0
  0
ARC
  5
FAD
  8
240
 10
131.9999999999969
 20
24.69801903606303
 30
0.0
 40
3.0
 50
0.0
 51
75.000000000000412
  0
LINE
  5
FAE
  8
241
 10
123.9904501176682
 20
29.950000000000038
 30
0.0
 11
123.9904501176683
 21
-0.0000000000000284
 31
0.0
  0
LINE
  5
FAF
  8
241
 10
94.849999999991056
 20
31.000000000000039
 30
0.0
 11
94.849999999991056
 21
0.0
 31
0.0
  0
LINE
  5
FB0
  8
240
 10
94.849999999991056
 20
31.000000000000039
 30
0.0
 11
111.78134665204961
 21
30.999999999999819
 31
0.0
  0
LINE
  5
FB1
  8
240
 10
94.849999999991056
 20
31.000000000000039
 30
0.0
 11
94.500000000000952
 21
31.349999999999749
 31
0.0
1001
GRPNAME
1000
PASTMD1P
  0
LINE
  5
FB2
  8
240
 10
123.9904501176682
 20
29.950000000000038
 30
0.0
 11
113.5999999999983
 21
29.950000000000149
 31
0.0
  0
LINE
  5
FB3
  8
241
 10
113.5999999999969
 20
-0.0000000000000284
 30
0.0
 11
113.5999999999968
 21
29.950000000000149
 31
0.0
  0
LINE
  5
FB4
  8
240
 10
113.5999999999983
 20
29.950000000000149
 30
0.0
 11
111.78134665204711
 21
30.999999999999819
 31
0.0
  0
LINE
  5
FB5
  8
241
 10
111.78134665204961
 20
30.999999999999819
 30
0.0
 11
111.78134665204971
 21
-0.0000000000000284
 31
0.0
  0
LINE
  5
FB6
  8
241
  6
HIDDEN2
 10
132.49999999999741
 20
12.7499999999973
 30
0.0
 11
134.9999999999967
 21
12.74999999999855
 31
0.0
  0
LINE
  5
FB7
  8
241
  6
HIDDEN2
 10
132.4999999999973
 20
17.55583797109281
 30
0.0
 11
132.4999999999973
 21
-0.0000000000000284
 31
0.0
  0
LINE
  5
FB8
  8
240
 10
64.500000000000881
 20
-30.849999999999199
 30
0.0
 11
69.499999999995083
 21
-30.849999999999259
 31
0.0
  0
LINE
  5
FB9
  8
240
 10
64.500000000000881
 20
-30.849999999999199
 30
0.0
 11
64.000000000000028
 21
-31.349999999999429
 31
0.0
  0
LINE
  5
FBA
  8
240
 10
69.999999999999901
 20
-31.349999999999429
 30
0.0
 11
69.499999999995083
 21
-30.849999999999259
 31
0.0
  0
LINE
  5
FBB
  8
240
 10
72.500000000000981
 20
30.84999999999955
 30
0.0
 11
77.499999999995197
 21
30.849999999999611
 31
0.0
  0
LINE
  5
FBC
  8
240
 10
72.500000000000981
 20
30.84999999999955
 30
0.0
 11
72.000000000000142
 21
31.349999999999781
 31
0.0
  0
LINE
  5
FBD
  8
240
 10
78.0
 20
31.349999999999781
 30
0.0
 11
77.499999999995197
 21
30.849999999999611
 31
0.0
  0
LINE
  5
FBE
  8
240
 10
69.999999999999915
 20
31.34999999999927
 30
0.0
 11
72.000000000000171
 21
31.34999999999927
 31
0.0
  0
LINE
  5
FBF
  8
240
 10
64.500000000000909
 20
30.849999999999159
 30
0.0
 11
69.499999999995111
 21
30.849999999999209
 31
0.0
  0
LINE
  5
FC0
  8
240
 10
64.500000000000909
 20
30.849999999999159
 30
0.0
 11
64.000000000000043
 21
31.34999999999938
 31
0.0
  0
LINE
  5
FC1
  8
240
 10
69.999999999999915
 20
31.34999999999938
 30
0.0
 11
69.499999999995111
 21
30.849999999999209
 31
0.0
  0
LINE
  5
FC2
  8
241
 10
78.0
 20
31.349999999999781
 30
0.0
 11
77.999999999997513
 21
-0.0000000000000426
 31
0.0
  0
LINE
  5
FC3
  8
241
 10
72.000000000000142
 20
31.34999999999933
 30
0.0
 11
71.999999999997584
 21
-0.0000000000000426
 31
0.0
  0
LINE
  5
FC4
  8
241
 10
69.999999999999915
 20
31.34999999999938
 30
0.0
 11
69.99999999999784
 21
-0.0000000000000426
 31
0.0
  0
LINE
  5
FC5
  8
241
 10
63.999999999999972
 20
31.349999999999451
 30
0.0
 11
63.999999999997712
 21
-0.0000000000000426
 31
0.0
  0
LINE
  5
FC6
  8
250
 10
-0.0000000000001137
 20
22.72499999999998
 30
0.0
 11
-0.000000000000112
 21
50.0
 31
0.0
  0
LINE
  5
FC7
  8
250
 10
134.9999999999969
 20
25.198019036063041
 30
0.0
 11
134.9999999999969
 21
50.0
 31
0.0
  0
LINE
  5
FC8
  8
250
 10
1.999999999999887
 20
48.999999999999979
 30
0.0
 11
132.9999999999969
 21
48.999999999999979
 31
0.0
  0
LINE
  5
FCC
  8
250
 10
49.999999999999929
 20
13.49999999999994
 30
0.0
 11
49.999999999999929
 21
42.999999999999979
 31
0.0
  0
LINE
  5
FCD
  8
250
 10
134.9999999999969
 20
25.198019036063041
 30
0.0
 11
134.9999999999969
 21
42.999999999999979
 31
0.0
  0
LINE
  5
FCE
  8
250
 10
51.999999999999929
 20
41.999999999999979
 30
0.0
 11
132.9999999999969
 21
41.999999999999979
 31
0.0
  0
LINE
  5
FD2
  8
250
 10
94.999999999997371
 20
-31.349999999999909
 30
0.0
 11
163.9999999999969
 21
-31.34999999999993
 31
0.0
  0
LINE
  5
FD3
  8
250
 10
94.999999999997371
 20
31.349999999999842
 30
0.0
 11
163.9999999999969
 21
31.34999999999982
 31
0.0
  0
LINE
  5
FD4
  8
250
 10
162.9999999999969
 20
-29.11999999999993
 30
0.0
 11
162.9999999999969
 21
29.11999999999982
 31
0.0
  0
LINE
  5
FD8
  8
250
 10
112.2813466520472
 20
-30.999999999999861
 30
0.0
 11
156.9999999999969
 21
-30.999999999999869
 31
0.0
  0
LINE
  5
FD9
  8
250
 10
112.2813466520472
 20
30.999999999999819
 30
0.0
 11
156.9999999999969
 21
30.999999999999801
 31
0.0
  0
LINE
  5
FDA
  8
250
 10
155.9999999999969
 20
-28.769999999999872
 30
0.0
 11
155.9999999999969
 21
28.769999999999801
 31
0.0
  0
LINE
  5
FDE
  8
250
 10
132.9999999999971
 20
12.499999999999879
 30
0.0
 11
149.9999999999969
 21
12.499999999999879
 31
0.0
  0
LINE
  5
FDF
  8
250
 10
148.9999999999969
 20
-10.26999999999995
 30
0.0
 11
148.9999999999969
 21
10.269999999999881
 31
0.0
  0
INSERT
  5
FE0
  8
250
  6
CONTINUOUS
  2
矢印なし
 10
148.9999999999969
 20
-12.49999999999995
 30
0.0
 41
2.2299999999999991
 42
2.2299999999999991
 43
2.2299999999999991
 50
270.0
  0
POLYLINE
  5
FE4
  8
250
 66
     1
 10
0.0
 20
0.0
 30
0.0
1001
ACAD
1000
DSTYLE
1002
{
1070
    41
1040
2.0
1002
}
  0
VERTEX
  5
1073
  8
250
 10
-42.352925238793503
 20
-17.926415876911541
 30
0.0
  0
VERTEX
  5
1074
  8
250
 10
-48.256370890134079
 20
-28.151483684754979
 30
0.0
  0
SEQEND
  5
1075
  8
250
  0
TEXT
  5
FE5
  8
250
 10
-63.723037556800719
 20
-27.151483684754979
 30
0.0
 40
2.799999999999998
  1
BBT40
  7
YOKO
1001
ITEMNAME
1000
LNSP3
1001
ACAD
1000
MTEXTBEGIN
1070
    73
1070
     1
1070
    44
1040
1.0
1070
    74
1070
     0
1000
MTEXTEND
  0
TEXT
  5
FE6
  8
250
 10
63.299999999998413
 20
49.999999999999993
 30
0.0
 40
2.799999999999998
  1
135
1001
ACAD
1000
MTEXTBEGIN
1070
    73
1070
     1
1070
    44
1040
1.0
1070
    74
1070
     0
1000
MTEXTEND
  0
LINE
  5
FE7
  8
250
 10
132.9999999999969
 20
49.333333333333307
 30
0.0
 11
134.9999999999969
 21
48.999999999999979
 31
0.0
  0
LINE
  5
FE8
  8
250
 10
132.9999999999969
 20
48.666666666666643
 30
0.0
 11
134.9999999999969
 21
48.999999999999979
 31
0.0
  0
LINE
  5
FE9
  8
250
 10
134.9999999999969
 20
48.999999999999979
 30
0.0
 11
132.9999999999969
 21
48.999999999999979
 31
0.0
  0
LINE
  5
FEA
  8
250
 10
1.9999999999998881
 20
48.666666666666643
 30
0.0
 11
-0.000000000000112
 21
48.999999999999979
 31
0.0
  0
LINE
  5
FEB
  8
250
 10
1.9999999999998881
 20
49.333333333333307
 30
0.0
 11
-0.000000000000112
 21
48.999999999999979
 31
0.0
  0
LINE
  5
FEC
  8
250
 10
-0.000000000000112
 20
48.999999999999979
 30
0.0
 11
1.9999999999998881
 21
48.999999999999979
 31
0.0
  0
TEXT
  5
FED
  8
250
 10
81.873333333331729
 20
42.999999999999979
 30
0.0
 40
2.799999999999998
  1
（max.85）
1001
ACAD
1000
MTEXTBEGIN
1070
    73
1070
     1
1070
    44
1040
1.0
1070
    74
1070
     0
1000
MTEXTEND
  0
LINE
  5
FEE
  8
250
 10
132.9999999999969
 20
42.333333333333307
 30
0.0
 11
134.9999999999969
 21
41.999999999999979
 31
0.0
  0
LINE
  5
FEF
  8
250
 10
132.9999999999969
 20
41.666666666666643
 30
0.0
 11
134.9999999999969
 21
41.999999999999979
 31
0.0
  0
LINE
  5
FF0
  8
250
 10
134.9999999999969
 20
41.999999999999979
 30
0.0
 11
132.9999999999969
 21
41.999999999999979
 31
0.0
  0
LINE
  5
FF1
  8
250
 10
51.999999999999929
 20
41.666666666666643
 30
0.0
 11
49.999999999999929
 21
41.999999999999979
 31
0.0
  0
LINE
  5
FF2
  8
250
 10
51.999999999999929
 20
42.333333333333307
 30
0.0
 11
49.999999999999929
 21
41.999999999999979
 31
0.0
  0
LINE
  5
FF3
  8
250
 10
49.999999999999929
 20
41.999999999999979
 30
0.0
 11
51.999999999999929
 21
41.999999999999979
 31
0.0
  0
TEXT
  5
FF4
  8
250
 10
161.9999999999969
 20
-5.9333333333333558
 30
0.0
 40
2.7999999999999989
  1
\U+2205
 50
90.0
1001
ACAD
1000
MTEXTBEGIN
1070
    73
1070
     1
1070
    44
1040
1.0
1070
    74
1070
     0
1000
MTEXTEND
  0
TEXT
  5
FF5
  8
250
 10
161.9999999999969
 20
-3.4000000000000239
 30
0.0
 40
2.799999999999998
  1
62.7
 50
90.0
1001
ACAD
1000
MTEXTBEGIN
1070
    73
1070
     1
1070
    44
1040
1.0
1070
    74
1070
     0
1000
MTEXTEND
  0
LINE
  5
FF6
  8
250
 10
162.6283333333302
 20
29.11999999999982
 30
0.0
 11
162.9999999999969
 21
31.34999999999982
 31
0.0
  0
LINE
  5
FF7
  8
250
 10
163.3716666666636
 20
29.11999999999982
 30
0.0
 11
162.9999999999969
 21
31.34999999999982
 31
0.0
  0
LINE
  5
FF8
  8
250
 10
162.9999999999969
 20
31.34999999999982
 30
0.0
 11
162.9999999999969
 21
29.11999999999982
 31
0.0
  0
LINE
  5
FF9
  8
250
 10
163.3716666666636
 20
-29.11999999999993
 30
0.0
 11
162.9999999999969
 21
-31.34999999999993
 31
0.0
  0
LINE
  5
FFA
  8
250
 10
162.6283333333302
 20
-29.11999999999993
 30
0.0
 11
162.9999999999969
 21
-31.34999999999993
 31
0.0
  0
LINE
  5
FFB
  8
250
 10
162.9999999999969
 20
-31.34999999999993
 30
0.0
 11
162.9999999999969
 21
-29.11999999999993
 31
0.0
  0
TEXT
  5
FFC
  8
250
 10
154.9999999999969
 20
-3.9333333333333411
 30
0.0
 40
2.7999999999999989
  1
\U+2205
 50
90.0
1001
ACAD
1000
MTEXTBEGIN
1070
    73
1070
     1
1070
    44
1040
1.0
1070
    74
1070
     0
1000
MTEXTEND
  0
TEXT
  5
FFD
  8
250
 10
154.9999999999969
 20
-1.4000000000000079
 30
0.0
 40
2.799999999999998
  1
62
 50
90.0
1001
ACAD
1000
MTEXTBEGIN
1070
    73
1070
     1
1070
    44
1040
1.0
1070
    74
1070
     0
1000
MTEXTEND
  0
LINE
  5
FFE
  8
250
 10
155.6283333333302
 20
28.769999999999801
 30
0.0
 11
155.9999999999969
 21
30.999999999999801
 31
0.0
  0
LINE
  5
FFF
  8
250
 10
156.3716666666636
 20
28.769999999999801
 30
0.0
 11
155.9999999999969
 21
30.999999999999801
 31
0.0
  0
LINE
  5
1000
  8
250
 10
155.9999999999969
 20
30.999999999999801
 30
0.0
 11
155.9999999999969
 21
28.769999999999801
 31
0.0
  0
LINE
  5
1001
  8
250
 10
156.3716666666636
 20
-28.769999999999872
 30
0.0
 11
155.9999999999969
 21
-30.999999999999869
 31
0.0
  0
LINE
  5
1002
  8
250
 10
155.6283333333302
 20
-28.769999999999872
 30
0.0
 11
155.9999999999969
 21
-30.999999999999869
 31
0.0
  0
LINE
  5
1003
  8
250
 10
155.9999999999969
 20
-30.999999999999869
 30
0.0
 11
155.9999999999969
 21
-28.769999999999872
 31
0.0
  0
TEXT
  5
1004
  8
250
 10
147.9999999999969
 20
-3.9333333333333389
 30
0.0
 40
2.7999999999999989
  1
\U+2205
 50
90.0
1001
ACAD
1000
MTEXTBEGIN
1070
    73
1070
     1
1070
    44
1040
1.0
1070
    74
1070
     0
1000
MTEXTEND
  0
TEXT
  5
1005
  8
250
 10
147.9999999999969
 20
-1.400000000000007
 30
0.0
 40
2.799999999999998
  1
25
 50
90.0
1001
ACAD
1000
MTEXTBEGIN
1070
    73
1070
     1
1070
    44
1040
1.0
1070
    74
1070
     0
1000
MTEXTEND
  0
LINE
  5
1006
  8
250
 10
148.6283333333302
 20
10.269999999999881
 30
0.0
 11
148.9999999999969
 21
12.499999999999879
 31
0.0
  0
LINE
  5
1007
  8
250
 10
149.37166666666349
 20
10.269999999999881
 30
0.0
 11
148.9999999999969
 21
12.499999999999879
 31
0.0
  0
LINE
  5
1008
  8
250
 10
148.9999999999969
 20
12.499999999999879
 30
0.0
 11
148.9999999999969
 21
10.269999999999881
 31
0.0
  0
LINE
  5
1009
  8
250
 10
-42.641600373388307
 20
-17.75974921024487
 30
0.0
 11
-41.352925238793503
 21
-16.194365069342659
 31
0.0
  0
LINE
  5
100A
  8
250
 10
-42.064250104198692
 20
-18.093082543578198
 30
0.0
 11
-41.352925238793503
 21
-16.194365069342659
 31
0.0
  0
LINE
  5
100B
  8
250
 10
-41.352925238793503
 20
-16.194365069342659
 30
0.0
 11
-42.352925238793503
 21
-17.926415876911541
 31
0.0
  0
VIEWPORT
  5
22
 67
     1
  8
0
 10
261.51769911504419
 20
148.5
 30
0.0
 40
523.0353982300885
 41
297.0
 68
     1
 69
     1
1001
ACAD
1000
MVIEW
1002
{
1070
    16
1010
0.0
1020
0.0
1030
0.0
1010
0.0
1020
0.0
1030
1.0
1040
0.0
1040
297.0
1040
261.51769911504419
1040
148.5
1040
50.0
1040
0.0
1040
0.0
1070
     0
1070
   100
1070
     1
1070
     1
1070
     0
1070
     0
1070
     0
1070
     0
1040
0.0
1040
0.0
1040
0.0
1040
1.0
1040
1.0
1040
10.0
1040
10.0
1070
     0
1002
{
1002
}
1002
}
1001
GENIUS_GENODEF_13
1002
{
1000
HIER
1070
     0
1002
}
1002
{
1000
MANEDIT
1070
     0
1002
}
1002
{
1000
NOSEL
1070
     0
1002
}
1002
{
1000
BEHIND
1070
     0
1002
}
1002
{
1000
OTHER
1070
     0
1002
}
1002
{
1000
REACTOR
1002
}
1001
GENIUS_GENOBJ-N-SDF_13
1002
{
1000
OWNER
1000
GEN
1002
}
1001
GENIUS_GENSCREG_15
1000
PF
1040
1.0
1000
DF
1040
1.0
1000
MIN
1011
0.0
1021
0.0
1031
0.0
1021
0.0
1031
0.0
1000
MAX
1011
523.0353982300885
1021
0.0
1031
0.0
1021
297.0
1031
0.0
1000
FLAGS
1070
     4
  0
ENDSEC
  0
EOF
