  0
SECTION
  2
HEADER
  9
$ACADVER
  1
AC1009
  9
$INSBASE
 10
0.0
 20
0.0
 30
0.0
  9
$EXTMIN
 10
-66.422178821985085
 20
-31.514739090559889
 30
-0.0000000349181948
  9
$EXTMAX
 10
224.0083600188222
 20
68.001656488980984
 30
0.0000000814935747
  9
$LIMMIN
 10
0.0
 20
0.0
  9
$LIMMAX
 10
297.0
 20
210.0
  9
$ORTHOMODE
 70
     0
  9
$REGENMODE
 70
     1
  9
$FILLMODE
 70
     1
  9
$QTEXTMODE
 70
     0
  9
$MIRRTEXT
 70
     1
  9
$DRAGMODE
 70
     2
  9
$LTSCALE
 40
10.0
  9
$OSMODE
 70
    37
  9
$ATTMODE
 70
     1
  9
$TEXTSIZE
 40
3.0
  9
$TRACEWID
 40
1.0
  9
$TEXTSTYLE
  7
YOKO
  9
$CLAYER
  8
245
  9
$CELTYPE
  6
BYLAYER
  9
$CECOLOR
 62
   256
  9
$DIMSCALE
 40
1.0
  9
$DIMASZ
 40
2.0
  9
$DIMEXO
 40
0.5
  9
$DIMDLI
 40
2.5
  9
$DIMRND
 40
0.0
  9
$DIMDLE
 40
0.0
  9
$DIMEXE
 40
1.0
  9
$DIMTP
 40
0.0
  9
$DIMTM
 40
0.0
  9
$DIMTXT
 40
2.799999999999998
  9
$DIMCEN
 40
0.0
  9
$DIMTSZ
 40
0.0
  9
$DIMTOL
 70
     0
  9
$DIMLIM
 70
     0
  9
$DIMTIH
 70
     0
  9
$DIMTOH
 70
     0
  9
$DIMSE1
 70
     0
  9
$DIMSE2
 70
     0
  9
$DIMTAD
 70
     3
  9
$DIMZIN
 70
     8
  9
$DIMBLK
  1

  9
$DIMASO
 70
     1
  9
$DIMSHO
 70
     1
  9
$DIMPOST
  1

  9
$DIMAPOST
  1

  9
$DIMALT
 70
     0
  9
$DIMALTD
 70
     2
  9
$DIMALTF
 40
25.399999999999999
  9
$DIMLFAC
 40
1.0
  9
$DIMTOFL
 70
     1
  9
$DIMTVP
 40
0.0
  9
$DIMTIX
 70
     1
  9
$DIMSOXD
 70
     0
  9
$DIMSAH
 70
     1
  9
$DIMBLK1
  1
OPEN
  9
$DIMBLK2
  1
OPEN
  9
$DIMSTYLE
  2
BIGT
  9
$DIMCLRD
 70
   256
  9
$DIMCLRE
 70
   256
  9
$DIMCLRT
 70
    40
  9
$DIMTFAC
 40
1.0
  9
$DIMGAP
 40
1.0
  9
$LUNITS
 70
     2
  9
$LUPREC
 70
     3
  9
$SKETCHINC
 40
1.0
  9
$FILLETRAD
 40
0.0
  9
$AUNITS
 70
     0
  9
$AUPREC
 70
     3
  9
$MENU
  1
.
  9
$ELEVATION
 40
0.0
  9
$PELEVATION
 40
0.0
  9
$THICKNESS
 40
0.0
  9
$LIMCHECK
 70
     0
  9
$BLIPMODE
 70
     0
  9
$CHAMFERA
 40
10.0
  9
$CHAMFERB
 40
10.0
  9
$SKPOLY
 70
     0
  9
$TDCREATE
 40
2456316.5971967131
  9
$TDUPDATE
 40
2456875.4325550352
  9
$TDINDWG
 40
0.016970706
  9
$TDUSRTIMER
 40
0.0169632755
  9
$USRTIMER
 70
     1
  9
$ANGBASE
 50
0.0
  9
$ANGDIR
 70
     0
  9
$PDMODE
 70
     1
  9
$PDSIZE
 40
-5.0
  9
$PLINEWID
 40
0.0
  9
$COORDS
 70
     1
  9
$SPLFRAME
 70
     0
  9
$SPLINETYPE
 70
     6
  9
$SPLINESEGS
 70
     8
  9
$ATTDIA
 70
     1
  9
$ATTREQ
 70
     1
  9
$HANDLING
 70
     1
  9
$HANDSEED
  5
10CC
  9
$SURFTAB1
 70
     6
  9
$SURFTAB2
 70
     6
  9
$SURFTYPE
 70
     6
  9
$SURFU
 70
     6
  9
$SURFV
 70
     6
  9
$UCSNAME
  2

  9
$UCSORG
 10
0.0
 20
0.0
 30
0.0
  9
$UCSXDIR
 10
1.0
 20
0.0
 30
0.0
  9
$UCSYDIR
 10
0.0
 20
1.0
 30
0.0
  9
$PUCSNAME
  2

  9
$PUCSORG
 10
0.0
 20
0.0
 30
0.0
  9
$PUCSXDIR
 10
1.0
 20
0.0
 30
0.0
  9
$PUCSYDIR
 10
0.0
 20
1.0
 30
0.0
  9
$USERI1
 70
     1
  9
$USERI2
 70
     0
  9
$USERI3
 70
     0
  9
$USERI4
 70
     0
  9
$USERI5
 70
     0
  9
$USERR1
 40
0.0
  9
$USERR2
 40
0.0
  9
$USERR3
 40
0.0
  9
$USERR4
 40
0.0
  9
$USERR5
 40
0.0
  9
$WORLDVIEW
 70
     1
  9
$SHADEDGE
 70
     3
  9
$SHADEDIF
 70
    70
  9
$TILEMODE
 70
     1
  9
$MAXACTVP
 70
    16
  9
$PLIMCHECK
 70
     0
  9
$PEXTMIN
 10
1.0000000000000000E+020
 20
1.0000000000000000E+020
 30
1.0000000000000000E+020
  9
$PEXTMAX
 10
-1.0000000000000000E+020
 20
-1.0000000000000000E+020
 30
-1.0000000000000000E+020
  9
$PLIMMIN
 10
0.0
 20
0.0
  9
$PLIMMAX
 10
420.0
 20
297.0
  9
$UNITMODE
 70
     0
  9
$VISRETAIN
 70
     0
  9
$PLINEGEN
 70
     0
  9
$PSLTSCALE
 70
     1
  0
ENDSEC
  0
SECTION
  2
TABLES
  0
TABLE
  2
VPORT
 70
     1
  0
VPORT
  2
*ACTIVE
 70
     0
 10
0.0
 20
0.0
 11
1.0
 21
1.0
 12
78.793090598418587
 22
18.243458699210532
 13
0.0
 23
0.0
 14
7.0
 24
7.0
 15
7.0
 25
7.0
 16
0.0
 26
0.0
 36
1.0
 17
0.0
 27
0.0
 37
0.0
 40
234.0386495649883
 41
1.247144340602284
 42
50.0
 43
0.0
 44
0.0
 50
0.0
 51
0.0
 71
     0
 72
 20000
 73
     1
 74
     0
 75
     0
 76
     0
 77
     0
 78
     0
  0
ENDTAB
  0
TABLE
  2
LTYPE
 70
    13
  0
LTYPE
  2
CONTINUOUS
 70
     0
  3
Solid line
 72
    65
 73
     0
 40
0.0
  0
LTYPE
  2
CENTER2
 70
     0
  3
___ _ ___ _ ___ _ ___ _ ___ _ ___ _ ___ _ ___ _
 72
    65
 73
     4
 40
1.125
 49
0.75
 49
-0.125
 49
0.125
 49
-0.125
  0
LTYPE
  2
HIDDEN2
 70
     0
  3
_ _ _ _ _ _ _ _ _ _ _ _ _ _ _ _ _ _ _ _ _ _ _ _
 72
    65
 73
     2
 40
0.1875
 49
0.125
 49
-0.0625
  0
LTYPE
  2
PHANTOM2
 70
     0
  3
___ _ _ ___ _ _ ___ _ _ ___ _ _ ___ _ _ ___ _ _
 72
    65
 73
     6
 40
1.25
 49
0.625
 49
-0.125
 49
0.125
 49
-0.125
 49
0.125
 49
-0.125
  0
LTYPE
  2
AMCONSTR
 70
     0
  3
_______________________
 72
    65
 73
     2
 40
9999.0
 49
9999.0
 49
0.0
  0
LTYPE
  2
AM_ISO02W050
 70
     0
  3
__ __ __ __ __ __ __ __ __ __ __ __ __ __ __
 72
    65
 73
     2
 40
7.5
 49
6.0
 49
-1.5
  0
LTYPE
  2
ACJISTGB
 70
     0
  3
__ . . __ . .
 72
    65
 73
     6
 40
9.0
 49
4.0
 49
-1.0
 49
1.0
 49
-1.0
 49
1.0
 49
-1.0
  0
LTYPE
  2
ACJISTGL
 70
     0
  3
_ _ _ _ _
 72
    65
 73
     2
 40
3.0
 49
2.0
 49
-1.0
  0
LTYPE
  2
ACISOWELD
 70
     0
  3
_ _ _ _ _
 72
    65
 73
     2
 40
2.0
 49
2.0
 49
-1.0
  0
LTYPE
  2
ACISOTGB
 70
     0
  3
__ . . __ . .
 72
    65
 73
     6
 40
9.0
 49
4.0
 49
-1.0
 49
1.0
 49
-1.0
 49
1.0
 49
-1.0
  0
LTYPE
  2
ACISOTGL
 70
     0
  3
_ _ _ _ _
 72
    65
 73
     2
 40
3.0
 49
2.0
 49
-1.0
  0
ENDTAB
  0
TABLE
  2
LAYER
 70
     8
  0
LAYER
  2
0
 70
     0
 62
     7
  6
CONTINUOUS
  0
LAYER
  2
240
 70
     0
 62
     4
  6
CONTINUOUS
  0
LAYER
  2
241
 70
     0
 62
   211
  6
CONTINUOUS
  0
LAYER
  2
245
 70
     0
 62
     2
  6
CENTER2
  0
LAYER
  2
250
 70
     0
 62
     3
  6
CONTINUOUS
  0
LAYER
  2
GRADE
 70
     5
 62
    -7
  6
CONTINUOUS
  0
LAYER
  2
DEFPOINTS
 70
     0
 62
     7
  6
CONTINUOUS
  0
ENDTAB
  0
TABLE
  2
STYLE
 70
     6
  0
STYLE
  2
STANDARD
 70
     0
 40
0.0
 41
1.0
 50
0.0
 71
     0
 42
3.0
  3
romans.shx
  4
BIGFONT.SHX
  0
STYLE
  2
YOKO
 70
     0
 40
0.0
 41
1.0
 50
0.0
 71
     0
 42
3.0
  3
romans.shx
  4
extfont.shx
  0
STYLE
  2
ACJISTS
 70
     0
 40
1.0
 41
1.0
 50
0.0
 71
     0
 42
3.0
  3
amgdt.shx
  4
extfont.shx
  0
STYLE
  2
ACJISGDT
 70
     0
 40
0.0
 41
1.0
 50
0.0
 71
     0
 42
3.0
  3
amgdt.shx
  4
extfont.shx
  0
STYLE
  2
ACISOTS
 70
     0
 40
1.0
 41
1.0
 50
0.0
 71
     0
 42
3.0
  3
amgdt.shx
  4
extfont.shx
  0
STYLE
  2
ACISOGDT
 70
     0
 40
0.0
 41
1.0
 50
0.0
 71
     0
 42
3.0
  3
amgdt.shx
  4
extfont.shx
  0
ENDTAB
  0
TABLE
  2
VIEW
 70
     0
  0
ENDTAB
  0
TABLE
  2
UCS
 70
     0
  0
ENDTAB
  0
TABLE
  2
APPID
 70
    38
  0
APPID
  2
ACAD
 70
     0
  0
APPID
  2
GLOBAL
 70
     0
  0
APPID
  2
DETAIL
 70
     0
  0
APPID
  2
GRPNAME
 70
     0
  0
APPID
  2
GPARA
 70
     0
  0
APPID
  2
DCO15
 70
     0
  0
APPID
  2
ITEMNAME
 70
     0
  0
APPID
  2
GRADE_0
 70
     0
  0
APPID
  2
ASK_MEN_XD
 70
     0
  0
APPID
  2
ACAD_PSEXT
 70
     0
  0
APPID
  2
LAYER_SCALE
 70
     0
  0
APPID
  2
MCAD_NO_VIS
 70
     0
  0
APPID
  2
ACAD_TEMP_GRAPHIC
 70
     0
  0
APPID
  2
ACATTRIBSERVICES
 70
     0
  0
APPID
  2
GENIUS_GENSCREG_15
 70
     0
  0
APPID
  2
GENIUS_GENODEF_13
 70
     0
  0
APPID
  2
GENIUS_GENOBJ-N-SDF_13
 70
     0
  0
APPID
  2
GENIUS_GENREC_14
 70
     0
  0
APPID
  2
GENIUS_GENOBJ-N-REC_13
 70
     0
  0
APPID
  2
GENIUS_GENDIMSH_14
 70
     0
  0
APPID
  2
GENIUS_GENOBJ-N-DIM_13
 70
     0
  0
APPID
  2
GENIUS_GENDIM_13
 70
     0
  0
APPID
  2
GENIUS_GENDTOL_13
 70
     0
  0
APPID
  2
GENIUS_GENOLIS_13
 70
     0
  0
APPID
  2
GENIUS_GENOENT_13
 70
     0
  0
APPID
  2
GENIUS_GENOBJ-F-FEM_13
 70
     0
  0
APPID
  2
GENIUS_GENOREF_13
 70
     0
  0
APPID
  2
GENIUS_GEFFEM_13
 70
     0
  0
APPID
  2
GENIUS_GEFFEMP_13
 70
     0
  0
APPID
  2
AD_DRAW
 70
     0
  0
APPID
  2
DESIGNERASSEMBLIES
 70
     0
  0
APPID
  2
ACADM_DIM_EDIT
 70
     0
  0
APPID
  2
AMDT_DM_ADJ
 70
     0
  0
APPID
  2
GENIUS_GENOBJ-N-FIL_13
 70
     0
  0
APPID
  2
GENIUS_GENFIL_13
 70
     0
  0
APPID
  2
GENIUS_GENOBJ-N-CHA_13
 70
     0
  0
APPID
  2
ACAD_NAV_VCDISPLAY
 70
     0
  0
APPID
  2
ACAD_MLEADERVER
 70
     0
  0
ENDTAB
  0
TABLE
  2
DIMSTYLE
 70
    23
  0
DIMSTYLE
  2
BIGT
 70
     0
  3

  4

  5
OPEN
  6

  7

 40
1.0
 41
2.2299999999999991
 42
0.5
 43
7.0
 44
1.0
 45
0.0
 46
0.0
 47
0.0
 48
0.01
140
2.7999999999999989
141
0.0
142
0.0
143
25.399999999999999
144
1.0
145
0.0
146
1.0
147
1.0
 71
     0
 72
     0
 73
     0
 74
     0
 75
     0
 76
     0
 77
     3
 78
     9
170
     0
171
     2
172
     1
173
     0
174
     1
175
     0
176
   256
177
   256
178
    40
  0
DIMSTYLE
  2
BIGT$0
 70
     0
  3

  4

  5
OPEN
  6

  7

 40
1.0
 41
2.2299999999999991
 42
0.5
 43
7.0
 44
1.0
 45
0.0
 46
0.0
 47
0.0
 48
0.01
140
2.7999999999999989
141
0.0
142
0.0
143
25.399999999999999
144
1.0
145
0.0
146
1.0
147
1.0
 71
     0
 72
     0
 73
     0
 74
     0
 75
     0
 76
     0
 77
     3
 78
     9
170
     0
171
     2
172
     1
173
     0
174
     1
175
     0
176
   256
177
   256
178
    40
  0
DIMSTYLE
  2
BIGT$2
 70
     0
  3

  4

  5
OPEN
  6

  7

 40
1.0
 41
2.2299999999999991
 42
0.5
 43
7.0
 44
1.0
 45
0.0
 46
0.0
 47
0.0
 48
0.01
140
2.7999999999999989
141
0.0
142
0.0
143
25.399999999999999
144
1.0
145
0.0
146
1.0
147
1.0
 71
     0
 72
     0
 73
     0
 74
     0
 75
     0
 76
     0
 77
     3
 78
     9
170
     0
171
     2
172
     1
173
     0
174
     0
175
     0
176
   256
177
   256
178
    40
  0
DIMSTYLE
  2
BIGT$3
 70
     0
  3

  4

  5
OPEN
  6

  7

 40
1.0
 41
2.2299999999999991
 42
0.5
 43
2.5
 44
1.0
 45
0.0
 46
0.0
 47
0.0
 48
0.01
140
2.7999999999999989
141
0.0
142
0.0
143
25.399999999999999
144
1.0
145
0.0
146
1.0
147
1.0
 71
     0
 72
     0
 73
     0
 74
     0
 75
     0
 76
     0
 77
     3
 78
     9
170
     0
171
     2
172
     1
173
     0
174
     0
175
     0
176
   256
177
   256
178
    40
  0
DIMSTYLE
  2
BIGT$4
 70
     0
  3

  4

  5
OPEN
  6

  7

 40
1.0
 41
2.2299999999999991
 42
0.5
 43
2.5
 44
1.0
 45
0.0
 46
0.0
 47
0.0
 48
0.01
140
2.7999999999999989
141
0.0
142
0.0
143
25.399999999999999
144
1.0
145
0.0
146
1.0
147
1.0
 71
     0
 72
     0
 73
     0
 74
     0
 75
     0
 76
     0
 77
     3
 78
     9
170
     0
171
     2
172
     1
173
     0
174
     0
175
     0
176
   256
177
   256
178
    40
  0
DIMSTYLE
  2
BIGT$6
 70
     0
  3

  4

  5
OPEN
  6

  7

 40
1.0
 41
2.2299999999999991
 42
0.5
 43
2.5
 44
1.0
 45
0.0
 46
0.0
 47
0.0
 48
0.01
140
2.7999999999999989
141
0.0
142
0.0
143
25.399999999999999
144
1.0
145
0.0
146
1.0
147
1.0
 71
     0
 72
     0
 73
     0
 74
     0
 75
     0
 76
     0
 77
     3
 78
     9
170
     0
171
     2
172
     1
173
     0
174
     0
175
     0
176
   256
177
   256
178
    40
  0
DIMSTYLE
  2
BIGT$7
 70
     0
  3

  4

  5
OPEN
  6

  7

 40
0.0
 41
2.2299999999999991
 42
0.5
 43
7.0
 44
1.0
 45
0.0
 46
0.0
 47
0.0
 48
0.01
140
2.7999999999999989
141
0.0
142
0.0
143
25.399999999999999
144
1.0
145
0.0
146
1.0
147
1.0
 71
     0
 72
     0
 73
     0
 74
     0
 75
     0
 76
     0
 77
     3
 78
     9
170
     0
171
     2
172
     0
173
     0
174
     0
175
     0
176
   256
177
   256
178
    40
  0
DIMSTYLE
  2
BIGT$SF
 70
     0
  3

  4

  5
OPEN
  6

  7

 40
1.0
 41
2.2299999999999991
 42
0.5
 43
7.0
 44
1.0
 45
0.0
 46
0.0
 47
0.0
 48
0.0
140
2.7999999999999989
141
0.0
142
0.0
143
25.399999999999999
144
1.0
145
0.0
146
1.0
147
1.0
 71
     0
 72
     0
 73
     0
 74
     0
 75
     0
 76
     0
 77
     3
 78
     9
170
     0
171
     2
172
     1
173
     0
174
     0
175
     0
176
   256
177
   256
178
    40
  0
DIMSTYLE
  2
BIGT$SH
 70
     0
  3

  4

  5
OPEN
  6

  7

 40
1.0
 41
2.2299999999999991
 42
0.5
 43
7.0
 44
1.0
 45
0.0
 46
0.0
 47
0.0
 48
0.0
140
2.7999999999999989
141
0.0
142
0.0
143
25.399999999999999
144
1.0
145
0.0
146
1.0
147
1.0
 71
     0
 72
     0
 73
     0
 74
     0
 75
     0
 76
     0
 77
     3
 78
     9
170
     0
171
     2
172
     1
173
     0
174
     0
175
     0
176
   256
177
   256
178
    40
  0
DIMSTYLE
  2
AM_ISO
 70
     0
  3

  4
"
  5

  6

  7

 40
1.0
 41
2.5
 42
1.0
 43
10.0
 44
1.0
 45
0.0
 46
0.0
 47
0.1
 48
0.1
140
3.5
141
0.0
142
0.0
143
0.0393701
144
1.0
145
0.0
146
0.71
147
1.5
 71
     0
 72
     0
 73
     0
 74
     0
 75
     0
 76
     0
 77
     1
 78
     8
170
     0
171
     2
172
     1
173
     0
174
     0
175
     0
176
   256
177
   256
178
     2
  0
DIMSTYLE
  2
AM_ISO$3
 70
     0
  3

  4
"
  5

  6

  7

 40
1.0
 41
2.5
 42
1.0
 43
10.0
 44
1.0
 45
0.0
 46
0.0
 47
0.1
 48
0.1
140
3.5
141
0.0
142
0.0
143
0.0393701
144
1.0
145
0.0
146
0.71
147
1.5
 71
     0
 72
     0
 73
     0
 74
     1
 75
     0
 76
     0
 77
     1
 78
     8
170
     0
171
     2
172
     0
173
     0
174
     0
175
     0
176
   256
177
   256
178
     2
  0
DIMSTYLE
  2
AM_ISO$4
 70
     0
  3

  4
"
  5

  6

  7

 40
1.0
 41
2.5
 42
1.0
 43
10.0
 44
1.0
 45
0.0
 46
0.0
 47
0.1
 48
0.1
140
3.5
141
0.0
142
0.0
143
0.0393701
144
1.0
145
0.0
146
0.71
147
1.5
 71
     0
 72
     0
 73
     0
 74
     1
 75
     0
 76
     0
 77
     1
 78
     8
170
     0
171
     2
172
     0
173
     0
174
     0
175
     0
176
   256
177
   256
178
     2
  0
DIMSTYLE
  2
AM_ISO$6
 70
     0
  3

  4
"
  5

  6

  7

 40
1.0
 41
2.5
 42
1.0
 43
10.0
 44
1.0
 45
0.0
 46
0.0
 47
0.1
 48
0.1
140
3.5
141
0.0
142
0.0
143
0.0393701
144
1.0
145
0.0
146
0.71
147
1.5
 71
     0
 72
     0
 73
     0
 74
     0
 75
     0
 76
     0
 77
     0
 78
     8
170
     0
171
     2
172
     1
173
     0
174
     0
175
     0
176
   256
177
   256
178
     2
  0
DIMSTYLE
  2
AM_ISO$7
 70
     0
  3

  4
"
  5

  6

  7

 40
1.0
 41
2.5
 42
1.0
 43
10.0
 44
1.0
 45
0.0
 46
0.0
 47
0.1
 48
0.1
140
5.0
141
0.0
142
0.0
143
0.0393701
144
1.0
145
0.0
146
0.71
147
1.5
 71
     0
 72
     0
 73
     0
 74
     0
 75
     0
 76
     0
 77
     1
 78
     8
170
     0
171
     2
172
     1
173
     0
174
     0
175
     0
176
   256
177
   256
178
     2
  0
DIMSTYLE
  2
AM_ISO$SF
 70
     0
  3

  4
"
  5

  6

  7

 40
1.0
 41
2.5
 42
1.0
 43
10.0
 44
1.0
 45
0.0
 46
0.0
 47
0.1
 48
0.1
140
3.5
141
0.0
142
0.0
143
0.0393701
144
1.0
145
0.0
146
0.71
147
1.5
 71
     0
 72
     0
 73
     0
 74
     0
 75
     1
 76
     1
 77
     1
 78
     8
170
     0
171
     2
172
     1
173
     0
174
     0
175
     0
176
   256
177
   256
178
     2
  0
DIMSTYLE
  2
AM_ISO$SH
 70
     0
  3

  4
"
  5

  6
GENAXEH
  7

 40
1.0
 41
2.5
 42
1.0
 43
10.0
 44
1.0
 45
0.0
 46
0.0
 47
0.1
 48
0.1
140
3.5
141
0.0
142
0.0
143
0.0393701
144
2.0
145
0.0
146
0.71
147
1.5
 71
     0
 72
     0
 73
     0
 74
     0
 75
     1
 76
     1
 77
     1
 78
     8
170
     0
171
     2
172
     1
173
     1
174
     0
175
     0
176
   256
177
   256
178
     2
  0
DIMSTYLE
  2
TECHNICAL_OSAKA
 70
     0
  3

  4
"
  5
OPEN30
  6

  7

 40
1.0
 41
2.5
 42
1.0
 43
10.0
 44
1.0
 45
0.0
 46
0.0
 47
0.1
 48
0.1
140
2.7999999999999989
141
0.0
142
0.0
143
0.0393701
144
1.0
145
0.0
146
0.71
147
1.5
 71
     0
 72
     0
 73
     0
 74
     0
 75
     0
 76
     0
 77
     3
 78
     8
170
     0
171
     2
172
     1
173
     0
174
     0
175
     0
176
   256
177
   256
178
    40
  0
DIMSTYLE
  2
TECHNICAL_OSAKA$3
 70
     0
  3

  4
"
  5
OPEN30
  6

  7

 40
1.0
 41
2.5
 42
1.0
 43
10.0
 44
1.0
 45
0.0
 46
0.0
 47
0.1
 48
0.1
140
2.7999999999999989
141
0.0
142
0.0
143
0.0393701
144
1.0
145
0.0
146
0.71
147
1.5
 71
     0
 72
     0
 73
     0
 74
     1
 75
     0
 76
     0
 77
     3
 78
     8
170
     0
171
     2
172
     0
173
     0
174
     0
175
     0
176
   256
177
   256
178
    40
  0
DIMSTYLE
  2
TECHNICAL_OSAKA$4
 70
     0
  3

  4
"
  5
OPEN30
  6

  7

 40
1.0
 41
2.5
 42
1.0
 43
10.0
 44
1.0
 45
0.0
 46
0.0
 47
0.1
 48
0.1
140
2.7999999999999989
141
0.0
142
0.0
143
0.0393701
144
1.0
145
0.0
146
0.71
147
1.5
 71
     0
 72
     0
 73
     0
 74
     1
 75
     0
 76
     0
 77
     3
 78
     8
170
     0
171
     2
172
     0
173
     0
174
     0
175
     0
176
   256
177
   256
178
    40
  0
DIMSTYLE
  2
TECHNICAL_OSAKA$6
 70
     0
  3

  4
"
  5
OPEN30
  6

  7

 40
1.0
 41
2.5
 42
1.0
 43
10.0
 44
1.0
 45
0.0
 46
0.0
 47
0.1
 48
0.1
140
2.7999999999999989
141
0.0
142
0.0
143
0.0393701
144
1.0
145
0.0
146
0.71
147
1.5
 71
     0
 72
     0
 73
     0
 74
     0
 75
     0
 76
     0
 77
     0
 78
     8
170
     0
171
     2
172
     1
173
     0
174
     0
175
     0
176
   256
177
   256
178
    40
  0
DIMSTYLE
  2
TECHNICAL_OSAKA$7
 70
     0
  3

  4
"
  5
OPEN30
  6

  7

 40
1.0
 41
2.5
 42
1.0
 43
10.0
 44
1.0
 45
0.0
 46
0.0
 47
0.1
 48
0.1
140
2.7999999999999989
141
0.0
142
0.0
143
0.0393701
144
1.0
145
0.0
146
0.71
147
1.5
 71
     0
 72
     0
 73
     0
 74
     0
 75
     0
 76
     0
 77
     3
 78
     8
170
     0
171
     2
172
     1
173
     0
174
     0
175
     0
176
   256
177
   256
178
    40
  0
DIMSTYLE
  2
TECHNICAL_OSAKA$SF
 70
     0
  3

  4
"
  5
OPEN30
  6
OPEN30
  7
OPEN30
 40
1.0
 41
2.5
 42
1.0
 43
10.0
 44
1.0
 45
0.0
 46
0.0
 47
0.1
 48
0.1
140
3.5
141
0.0
142
0.0
143
0.0393701
144
1.0
145
0.0
146
0.71
147
1.5
 71
     0
 72
     0
 73
     0
 74
     0
 75
     1
 76
     1
 77
     3
 78
     8
170
     0
171
     2
172
     1
173
     0
174
     0
175
     0
176
   256
177
   256
178
    40
  0
DIMSTYLE
  2
TECHNICAL_OSAKA$SH
 70
     0
  3

  4
"
  5
OPEN30
  6
GENAXEH
  7
OPEN30
 40
1.0
 41
2.5
 42
1.0
 43
10.0
 44
1.0
 45
0.0
 46
0.0
 47
0.1
 48
0.1
140
3.5
141
0.0
142
0.0
143
0.0393701
144
2.0
145
0.0
146
0.71
147
1.5
 71
     0
 72
     0
 73
     0
 74
     0
 75
     1
 76
     1
 77
     3
 78
     8
170
     0
171
     2
172
     1
173
     1
174
     0
175
     0
176
   256
177
   256
178
    40
  0
ENDTAB
  0
ENDSEC
  0
SECTION
  2
BLOCKS
  0
BLOCK
  8
0
  2
$MODEL_SPACE
 70
     0
 10
0.0
 20
0.0
 30
0.0
  3
$MODEL_SPACE
  1

  0
ENDBLK
  5
1C
  8
0
  0
BLOCK
 67
     1
  8
0
  2
$PAPER_SPACE
 70
     0
 10
0.0
 20
0.0
 30
0.0
  3
$PAPER_SPACE
  1

  0
ENDBLK
  5
19
 67
     1
  8
0
  0
BLOCK
  8
0
  2
_OPEN
 70
     0
 10
0.0
 20
0.0
 30
0.0
  3
_OPEN
  1

  0
LINE
  5
EFB
  8
0
  6
BYBLOCK
 62
     0
 10
-1.0
 20
0.1666666666666666
 30
0.0
 11
0.0
 21
0.0
 31
0.0
  0
LINE
  5
EFC
  8
0
  6
BYBLOCK
 62
     0
 10
-1.0
 20
-0.1666666666666666
 30
0.0
 11
0.0
 21
0.0
 31
0.0
  0
LINE
  5
EFD
  8
0
  6
BYBLOCK
 62
     0
 10
0.0
 20
0.0
 30
0.0
 11
-1.0
 21
0.0
 31
0.0
  0
ENDBLK
  5
EFE
  8
0
  0
BLOCK
  8
0
  2
矢印なし
 70
     0
 10
0.0
 20
0.0
 30
0.0
  3
矢印なし
  1

  0
ENDBLK
  5
6E5
  8
0
  0
BLOCK
  8
0
  2
GENAXEH
 70
     0
 10
0.0
 20
0.0
 30
0.0
  3
GENAXEH
  1

  0
LINE
  5
F36
  8
0
 10
-1.0
 20
0.0
 30
0.0
 11
1.0
 21
0.0
 31
0.0
  0
ENDBLK
  5
F37
  8
0
  0
BLOCK
  8
0
  2
_OPEN30
 70
     0
 10
0.0
 20
0.0
 30
0.0
  3
_OPEN30
  1

  0
LINE
  5
F72
  8
0
  6
BYBLOCK
 62
     0
 10
-1.0
 20
0.26794919
 30
0.0
 11
0.0
 21
0.0
 31
0.0
  0
LINE
  5
F73
  8
0
  6
BYBLOCK
 62
     0
 10
0.0
 20
0.0
 30
0.0
 11
-1.0
 21
-0.26794919
 31
0.0
  0
LINE
  5
F74
  8
0
  6
BYBLOCK
 62
     0
 10
0.0
 20
0.0
 30
0.0
 11
-1.0
 21
0.0
 31
0.0
  0
ENDBLK
  5
F75
  8
0
  0
ENDSEC
  0
SECTION
  2
ENTITIES
  0
INSERT
  5
6E6
  8
245
  2
矢印なし
 10
175.62382696643769
 20
90.551235716905978
 30
0.0
  0
POLYLINE
  5
798
  8
GRADE
 66
     1
 10
0.0
 20
0.0
 30
0.0
 70
     1
  0
VERTEX
  5
10A6
  8
GRADE
 10
0.0
 20
0.0
 30
0.0
  0
VERTEX
  5
10A7
  8
GRADE
 10
297.0
 20
0.0
 30
0.0
  0
VERTEX
  5
10A8
  8
GRADE
 10
297.0
 20
210.0
 30
0.0
  0
VERTEX
  5
10A9
  8
GRADE
 10
0.0
 20
210.0
 30
0.0
  0
SEQEND
  5
10AA
  8
GRADE
  0
POLYLINE
  5
799
  8
GRADE
 66
     1
 10
0.0
 20
0.0
 30
0.0
 70
     1
  0
VERTEX
  5
10AB
  8
GRADE
 10
5.0
 20
5.0
 30
0.0
  0
VERTEX
  5
10AC
  8
GRADE
 10
292.0
 20
5.0
 30
0.0
  0
VERTEX
  5
10AD
  8
GRADE
 10
292.0
 20
205.0
 30
0.0
  0
VERTEX
  5
10AE
  8
GRADE
 10
5.0
 20
205.0
 30
0.0
  0
SEQEND
  5
10AF
  8
GRADE
  0
TEXT
  5
80D
  8
241
  6
CONTINUOUS
 10
-65.400000000000063
 20
62.999999999999979
 30
0.0
 40
5.0
  1
BBT40-MEGA16D-200A
  7
YOKO
 11
-65.400000000000063
 21
62.999999999999979
 31
0.0
 73
     1
  0
LINE
  5
8F6
  8
250
 10
-48.256370890134122
 20
-28.151483684754979
 30
0.0
 11
-65.989704223467456
 21
-28.151483684754979
 31
0.0
1001
ITEMNAME
1000
LNSP2
  0
LINE
  5
FA4
  8
245
  6
CENTER2
 10
16.599999999999941
 20
31.500000000000099
 30
0.0
 11
16.599999999999909
 21
-31.500000000000309
 31
0.0
  0
LINE
  5
FA5
  8
241
  6
CONTINUOUS
 10
21.599999999999909
 20
-31.5
 30
0.0
 11
21.599999999999909
 21
-0.0000000000000142
 31
0.0
  0
LINE
  5
FA6
  8
241
  6
CONTINUOUS
 10
11.599999999999911
 20
-0.0000000000000142
 30
0.0
 11
11.59999999999993
 21
-31.500000000000028
 31
0.0
  0
LINE
  5
FA7
  8
241
  6
CONTINUOUS
 10
-0.0000000000001705
 20
-22.224999999999952
 30
0.0
 11
0.0
 21
-0.0000000000000142
 31
0.0
  0
LINE
  5
FA8
  8
240
  6
CONTINUOUS
 10
0.9999999999998864
 20
-30.500000000000021
 30
0.0
 11
0.9999999999998293
 21
-22.22499999999993
 31
0.0
  0
ARC
  5
FA9
  8
240
  6
CONTINUOUS
 10
1.9999999999998841
 20
-30.500000000000021
 30
0.0
 40
1.0
 50
180.0
 51
270.0
  0
LINE
  5
FAA
  8
240
  6
CONTINUOUS
 10
-65.400000000000048
 20
11.303908955248639
 30
0.0
 11
-65.400000000000077
 21
-11.30390895524874
 31
0.0
  0
ARC
  5
FAB
  8
240
  6
CONTINUOUS
 10
-63.800000000000061
 20
-11.30390895524874
 30
0.0
 40
1.6000000000000001
 50
180.0
 51
261.70285503016299
  0
LINE
  5
FAC
  8
240
  6
CONTINUOUS
 10
-0.0000000000001137
 20
-22.225000000000009
 30
0.0
 11
-64.030891028914851
 21
-12.887161724949991
 31
0.0
  0
LINE
  5
FAD
  8
240
  6
CONTINUOUS
 10
21.599999999999909
 20
-31.5
 30
0.0
 11
26.999999999999829
 21
-31.500000000000188
 31
0.0
  0
LINE
  5
FAE
  8
241
  6
HIDDEN2
 10
22.99999999999989
 20
-22.500000000000011
 30
0.0
 11
22.99999999999989
 21
-31.500000000000021
 31
0.0
  0
LINE
  5
FAF
  8
240
  6
CONTINUOUS
 10
1.9999999999998841
 20
-31.500000000000021
 30
0.0
 11
11.59999999999985
 21
-31.50000000000022
 31
0.0
  0
LINE
  5
FB0
  8
241
  6
HIDDEN2
 10
22.99999999999989
 20
-22.500000000000011
 30
0.0
 11
0.9999999999998864
 21
-22.500000000000011
 31
0.0
  0
LINE
  5
FB1
  8
245
  6
CENTER2
 10
-66.400000000000063
 20
0.0000000000000142
 30
0.0
 11
201.00000000000071
 21
-0.0000000000000568
 31
0.0
  0
LINE
  5
FB2
  8
240
  6
CONTINUOUS
 10
-0.0000000000001137
 20
22.22499999999998
 30
0.0
 11
-64.030891028914823
 21
12.88716172494988
 31
0.0
  0
ARC
  5
FB3
  8
240
  6
CONTINUOUS
 10
-63.800000000000061
 20
11.303908955248639
 30
0.0
 40
1.6000000000000001
 50
98.297144969836921
 51
180.0
  0
LINE
  5
FB4
  8
240
  6
CONTINUOUS
 10
21.599999999999909
 20
31.500000000000021
 30
0.0
 11
26.999999999991161
 21
31.50000000000022
 31
0.0
  0
LINE
  5
FB5
  8
241
  6
HIDDEN2
 10
22.99999999999989
 20
22.499999999999989
 30
0.0
 11
1.299999999999897
 21
22.499999999999989
 31
0.0
  0
LINE
  5
FB6
  8
240
  6
CONTINUOUS
 10
1.999999999999829
 20
31.500000000000021
 30
0.0
 11
11.59999999999993
 21
31.500000000000039
 31
0.0
  0
ARC
  5
FB7
  8
240
  6
CONTINUOUS
 10
1.999999999999829
 20
30.500000000000021
 30
0.0
 40
1.0
 50
90.0
 51
180.0000000000023
  0
LINE
  5
FB8
  8
240
  6
CONTINUOUS
 10
1.000000000000224
 20
22.225000000001401
 30
0.0
 11
0.9999999999998293
 21
30.500000000000021
 31
0.0
  0
LINE
  5
FB9
  8
241
  6
HIDDEN2
 10
22.99999999999989
 20
22.499999999999989
 30
0.0
 11
22.99999999999989
 21
31.500000000000021
 31
0.0
  0
LINE
  5
FBA
  8
240
  6
CONTINUOUS
 10
26.999999999999829
 20
-31.500000000000188
 30
0.0
 11
27.000000000000831
 21
-30.49999989896488
 31
0.0
  0
LINE
  5
FBB
  8
240
  6
CONTINUOUS
 10
26.999999999991161
 20
31.50000000000022
 30
0.0
 11
26.99999999999838
 21
30.49999984971733
 31
0.0
  0
LINE
  5
FBC
  8
241
  6
CONTINUOUS
 10
14.486751345948219
 20
-26.499999999999691
 30
0.0
 11
14.48675134594825
 21
0.0
 31
0.0
  0
LINE
  5
FBD
  8
240
  6
CONTINUOUS
 10
14.486751345948219
 20
-26.499999999999691
 30
0.0
 11
11.59999999999985
 21
-31.50000000000022
 31
0.0
  0
LINE
  5
FBE
  8
240
  6
CONTINUOUS
 10
18.713248654051679
 20
-26.499999999999801
 30
0.0
 11
14.486751345948219
 21
-26.499999999999691
 31
0.0
1001
GRPNAME
1000
PASTMD1I
  0
LINE
  5
FBF
  8
241
  6
CONTINUOUS
 10
18.713248654051679
 20
-26.499999999999801
 30
0.0
 11
18.713248654051789
 21
0.0
 31
0.0
  0
LINE
  5
FC0
  8
240
  6
CONTINUOUS
 10
18.713248654051679
 20
-26.499999999999801
 30
0.0
 11
21.600000000000001
 21
-31.500000000000011
 31
0.0
  0
LINE
  5
FC1
  8
240
  6
CONTINUOUS
 10
21.600000000000279
 20
31.500000000000021
 30
0.0
 11
18.713248654050972
 21
26.49999999999925
 31
0.0
  0
LINE
  5
FC2
  8
240
  6
CONTINUOUS
 10
11.599999999999881
 20
31.500000000000039
 30
0.0
 11
14.486751345948759
 21
26.49999999999913
 31
0.0
  0
LINE
  5
FC3
  8
240
 10
-0.0000000000001705
 20
-22.224999999999952
 30
0.0
 11
0.9999999999998293
 21
-22.22499999999993
 31
0.0
  0
LINE
  5
FC4
  8
241
 10
0.9999999999998293
 20
-22.224999999999611
 30
0.0
 11
0.9999999999998293
 21
-0.0000000000000142
 31
0.0
  0
LINE
  5
FC5
  8
241
 10
26.99999999999989
 20
-0.0000000000000142
 30
0.0
 11
26.999999999999861
 21
-30.499999898964901
 31
0.0
  0
LINE
  5
FC6
  8
241
  6
CONTINUOUS
 10
14.486751345948219
 20
26.499999999999648
 30
0.0
 11
14.48675134594825
 21
-0.0000000000000284
 31
0.0
  0
LINE
  5
FC7
  8
240
  6
CONTINUOUS
 10
18.713248654051679
 20
26.49999999999979
 30
0.0
 11
14.486751345948219
 21
26.499999999999648
 31
0.0
1001
GRPNAME
1000
PASTMD1I
  0
LINE
  5
FC8
  8
241
  6
CONTINUOUS
 10
18.713248654051679
 20
26.49999999999979
 30
0.0
 11
18.713248654051789
 21
-0.0000000000000284
 31
0.0
  0
LINE
  5
FC9
  8
240
 10
-0.0000000000001705
 20
22.22499999999993
 30
0.0
 11
1.000000000000224
 21
22.225000000001401
 31
0.0
  0
LINE
  5
FCA
  8
241
  6
CONTINUOUS
 10
-0.0000000000001705
 20
22.22499999999993
 30
0.0
 11
0.0
 21
-0.0000000000000142
 31
0.0
  0
LINE
  5
FCB
  8
241
 10
0.9999999999998293
 20
22.224999999999579
 30
0.0
 11
0.9999999999998293
 21
-0.0000000000000142
 31
0.0
  0
LINE
  5
FCC
  8
241
  6
CONTINUOUS
 10
21.599999999999909
 20
31.500000000000021
 30
0.0
 11
21.599999999999909
 21
-0.0000000000000142
 31
0.0
  0
LINE
  5
FCD
  8
241
  6
CONTINUOUS
 10
11.599999999999911
 20
-0.0000000000000142
 30
0.0
 11
11.59999999999993
 21
31.500000000000039
 31
0.0
  0
LINE
  5
FCE
  8
241
 10
26.99999999999989
 20
-0.0000000000000142
 30
0.0
 11
26.999999999999659
 21
30.499999849717241
 31
0.0
  0
LINE
  5
FCF
  8
241
  6
HIDDEN2
 10
140.8660254037847
 20
7.9999999999999272
 30
0.0
 11
197.5000000000004
 21
8.0000000000000426
 31
0.0
  0
LINE
  5
FD0
  8
240
 10
161.30000000000049
 20
-26.299999999999951
 30
0.0
 11
161.30000000000049
 21
-26.499999999999972
 31
0.0
  0
LINE
  5
FD1
  8
241
 10
154.29999999999751
 20
-0.0000000000000426
 30
0.0
 11
154.30000000000081
 21
-26.708488453408521
 31
0.0
  0
LINE
  5
FD2
  8
241
 10
148.2999999999974
 20
-0.0000000000000426
 30
0.0
 11
148.30000000000041
 21
-26.88719284204419
 31
0.0
  0
LINE
  5
FD3
  8
241
 10
146.2999999999974
 20
-0.0000000000000426
 30
0.0
 11
146.30000000000021
 21
-26.946760971589491
 31
0.0
  0
LINE
  5
FD4
  8
241
 10
140.29999999999771
 20
-0.0000000000000426
 30
0.0
 11
140.3000000000001
 21
-27.12546536022532
 31
0.0
  0
LINE
  5
FD5
  8
240
 10
149.2122790516064
 20
-26.359799740213091
 30
0.0
 11
153.38267234704239
 21
-26.23558847617447
 31
0.0
  0
LINE
  5
FD6
  8
240
 10
148.53494313339451
 20
-26.652249708649961
 30
0.0
 11
148.2999999999999
 21
-26.887192842044421
 31
0.0
  0
LINE
  5
FD7
  8
240
 10
154.30000000000089
 20
-26.708488453408609
 30
0.0
 11
154.11954999120371
 21
-26.52803844461134
 31
0.0
  0
LINE
  5
FD8
  8
240
 10
161.30000000000049
 20
-26.499999999999972
 30
0.0
 11
154.30000000000089
 21
-26.708488453408609
 31
0.0
  0
LINE
  5
FD9
  8
240
 10
148.2999999999999
 20
-26.887192842044421
 30
0.0
 11
146.300000000002
 21
-26.946760971590059
 31
0.0
  0
LINE
  5
FDA
  8
240
 10
140.3000000000001
 20
-27.12546536022532
 30
0.0
 11
26.999999999999861
 21
-30.499999898964901
 31
0.0
  0
ARC
  5
FDB
  8
240
 10
153.4124432100171
 20
-27.23514522579789
 30
0.0
 40
1.0
 50
45.0
 51
91.705996869614296
  0
ARC
  5
FDC
  8
240
 10
149.24204991458109
 20
-27.359356489836522
 30
0.0
 40
1.0
 50
91.705996869614296
 51
135.0
  0
LINE
  5
FDD
  8
240
 10
140.81557772379281
 20
-26.60988763643665
 30
0.0
 11
145.81424600499329
 21
-26.46100697657252
 31
0.0
  0
LINE
  5
FDE
  8
240
 10
140.81557772379281
 20
-26.60988763643665
 30
0.0
 11
140.29999999999919
 21
-27.125465360225292
 31
0.0
  0
LINE
  5
FDF
  8
240
 10
146.300000000002
 20
-26.946760971590059
 30
0.0
 11
145.81424600499329
 21
-26.46100697657252
 31
0.0
  0
LINE
  5
FE0
  8
240
 10
140.30000000793879
 20
27.125465352288291
 30
0.0
 11
26.999999999999659
 21
30.499999849717241
 31
0.0
  0
LINE
  5
FE1
  8
240
 10
199.99999999999179
 20
16.399377385371949
 30
0.0
 11
200.0000000000008
 21
0.0
 31
0.0
  0
LINE
  5
FE2
  8
240
 10
193.13130645135351
 20
21.00000000000005
 30
0.0
 11
179.84999999998669
 21
20.999999999999758
 31
0.0
  0
LINE
  5
FE3
  8
240
 10
198.02606042996871
 20
19.218455247728102
 30
0.0
 11
193.13130645135371
 21
21.000000000000011
 31
0.0
  0
ARC
  5
FE4
  8
240
 10
196.99999999999179
 20
16.399377385370411
 30
0.0
 40
3.0
 50
0.000000000029312
 51
69.999999999999915
1001
ASK_MEN_XD
1005
FE1
1070
     1
1005
FE3
1070
     1
  0
LINE
  5
FE5
  8
240
 10
174.07132034354879
 20
22.228679656440519
 30
0.0
 11
170.8786796564296
 21
25.421320343559771
 31
0.0
  0
ARC
  5
FE6
  8
240
 10
176.19264068710851
 20
24.350000000000119
 30
0.0
 40
3.0
 50
225.0
 51
269.99999999999682
1001
ASK_MEN_XD
1005
FE8
1070
     1
1005
FE5
1070
     1
  0
LINE
  5
FE7
  8
240
 10
179.84999999998669
 20
20.999999999999758
 30
0.0
 11
179.4999999999894
 21
21.350000000000009
 31
0.0
1001
GRPNAME
1000
PASTMD1P
  0
LINE
  5
FE8
  8
240
 10
179.49999999998931
 20
21.350000000000009
 30
0.0
 11
176.19264068710839
 21
21.350000000000119
 31
0.0
  0
ARC
  5
FE9
  8
240
 10
168.75735931286999
 20
23.300000000000232
 30
0.0
 40
3.0
 50
45.0
 51
90.0
1001
ASK_MEN_XD
1005
0
1070
     1
1005
0
1070
     1
  0
LINE
  5
FEA
  8
240
 10
168.75735931286999
 20
26.300000000000221
 30
0.0
 11
161.30000000000149
 21
26.299999999999262
 31
0.0
  0
LINE
  5
FEB
  8
240
 10
193.13130645135351
 20
-21.0
 30
0.0
 11
179.84999999999661
 21
-20.999999999999972
 31
0.0
  0
LINE
  5
FEC
  8
241
 10
161.2999999999999
 20
-0.0000000000000284
 30
0.0
 11
161.30000000000149
 21
-26.29999999999999
 31
0.0
  0
LINE
  5
FED
  8
240
 10
198.02606042996871
 20
-19.218455247728059
 30
0.0
 11
193.13130645135371
 21
-20.99999999999995
 31
0.0
  0
ARC
  5
FEE
  8
240
 10
196.99999999999179
 20
-16.399377385370371
 30
0.0
 40
3.0
 50
290.00000000000011
 51
359.99999999997061
1001
ASK_MEN_XD
1005
FE1
1070
     1
1005
FE3
1070
     1
  0
LINE
  5
FEF
  8
240
 10
174.0713203435489
 20
-22.22867965644042
 30
0.0
 11
170.8786796564296
 21
-25.421320343559731
 31
0.0
  0
LINE
  5
FF0
  8
240
 10
179.84999999999661
 20
-20.999999999999972
 30
0.0
 11
179.4999999999894
 21
-21.349999999999991
 31
0.0
1001
GRPNAME
1000
PASTMD1P
  0
LINE
  5
FF1
  8
240
 10
179.4999999999894
 20
-21.350000000000051
 30
0.0
 11
176.19264068710851
 21
-21.350000000000051
 31
0.0
  0
ARC
  5
FF2
  8
240
 10
176.19264068710851
 20
-24.350000000000051
 30
0.0
 40
3.0
 50
90.0
 51
135.0
1001
ASK_MEN_XD
1005
FEF
1070
     1
1005
FF1
1070
     1
  0
ARC
  5
FF3
  8
240
 10
168.75735931287011
 20
-23.30000000000021
 30
0.0
 40
3.0
 50
269.99999999999682
 51
315.0
1001
ASK_MEN_XD
1005
0
1070
     1
1005
0
1070
     1
  0
LINE
  5
FF4
  8
240
 10
168.75735931286999
 20
-26.300000000000178
 30
0.0
 11
161.30000000000049
 21
-26.299999999999951
 31
0.0
  0
LINE
  5
FF5
  8
240
 10
199.99999999999179
 20
-16.399377385371899
 30
0.0
 11
200.0000000000008
 21
0.0000000000000568
 31
0.0
  0
LINE
  5
FF6
  8
241
 10
169.99999999998909
 20
0.0
 30
0.0
 11
169.99999999998909
 21
-26.03053916337365
 31
0.0
  0
LINE
  5
FF7
  8
241
 10
174.9499999999893
 20
-21.619460836626669
 30
0.0
 11
174.94999999998871
 21
0.0000000000000284
 31
0.0
  0
LINE
  5
FF8
  8
241
 10
179.84999999999661
 20
-20.999999999999918
 30
0.0
 11
179.84999999999661
 21
0.0000000000000568
 31
0.0
  0
LINE
  5
FF9
  8
241
 10
193.13130645135371
 20
-20.99999999999995
 30
0.0
 11
193.13130645135371
 21
0.0000000000000284
 31
0.0
  0
LINE
  5
FFA
  8
241
 10
169.99999999998909
 20
0.0000000000000568
 30
0.0
 11
169.99999999998909
 21
26.030539163373689
 31
0.0
  0
LINE
  5
FFB
  8
241
 10
174.9499999999893
 20
21.619460836626711
 30
0.0
 11
174.94999999998871
 21
0.0000000000000284
 31
0.0
  0
LINE
  5
FFC
  8
241
 10
179.84999999999661
 20
20.999999999999989
 30
0.0
 11
179.84999999999661
 21
0.0
 31
0.0
  0
LINE
  5
FFD
  8
241
 10
193.13130645135371
 20
21.000000000000011
 30
0.0
 11
193.13130645135371
 21
0.0000000000000568
 31
0.0
  0
LINE
  5
FFE
  8
241
  6
HIDDEN2
 10
197.5000000000008
 20
8.0499999999992724
 30
0.0
 11
199.99999999999639
 21
8.0499999999984642
 31
0.0
  0
LINE
  5
FFF
  8
241
  6
HIDDEN2
 10
197.5000000000008
 20
12.065837971092821
 30
0.0
 11
197.50000000000071
 21
-0.0000000000000711
 31
0.0
  0
LINE
  5
1000
  8
240
 10
161.30000000000049
 20
26.29999999999988
 30
0.0
 11
161.30000000000049
 21
26.499999999999869
 31
0.0
  0
LINE
  5
1001
  8
240
 10
149.2122790516064
 20
26.35979974021302
 30
0.0
 11
153.38267234704239
 21
26.235588476174382
 31
0.0
  0
LINE
  5
1002
  8
240
 10
148.53494313339451
 20
26.65224970864988
 30
0.0
 11
148.2999999999999
 21
26.88719284204431
 31
0.0
  0
LINE
  5
1003
  8
240
 10
154.30000000000089
 20
26.708488453408521
 30
0.0
 11
154.11954999120371
 21
26.528038444611251
 31
0.0
  0
LINE
  5
1004
  8
240
 10
161.30000000000049
 20
26.499999999999869
 30
0.0
 11
154.30000000000089
 21
26.708488453408521
 31
0.0
  0
LINE
  5
1005
  8
240
 10
148.2999999999999
 20
26.88719284204431
 30
0.0
 11
146.300000000002
 21
26.946760971589971
 31
0.0
  0
ARC
  5
1006
  8
240
 10
153.4124432100171
 20
27.235145225797812
 30
0.0
 40
1.0
 50
268.2940031303857
 51
314.99999999999949
  0
ARC
  5
1007
  8
240
 10
149.24204991458109
 20
27.359356489836429
 30
0.0
 40
1.0
 50
225.0000000000006
 51
268.2940031303857
  0
LINE
  5
1008
  8
240
 10
140.81557772379281
 20
26.6098876364366
 30
0.0
 11
145.81424600499329
 21
26.461006976572431
 31
0.0
  0
LINE
  5
1009
  8
240
 10
140.81557772379281
 20
26.6098876364366
 30
0.0
 11
140.29999999999919
 21
27.12546536022522
 31
0.0
  0
LINE
  5
100A
  8
240
 10
146.300000000002
 20
26.946760971589971
 30
0.0
 11
145.81424600499329
 21
26.461006976572431
 31
0.0
  0
LINE
  5
100B
  8
241
 10
154.29999999999751
 20
-0.0000000000000426
 30
0.0
 11
154.30000000000081
 21
26.708488453408439
 31
0.0
  0
LINE
  5
100C
  8
241
 10
148.2999999999974
 20
-0.0000000000000426
 30
0.0
 11
148.30000000000041
 21
26.88719284204409
 31
0.0
  0
LINE
  5
100D
  8
241
 10
146.2999999999974
 20
-0.0000000000000426
 30
0.0
 11
146.30000000000021
 21
26.946760971589399
 31
0.0
  0
LINE
  5
100E
  8
241
 10
140.29999999999771
 20
-0.0000000000000284
 30
0.0
 11
140.3000000000001
 21
27.125465360225249
 31
0.0
  0
LINE
  5
100F
  8
241
 10
161.2999999999999
 20
-0.0000000000000568
 30
0.0
 11
161.30000000000149
 21
26.29999999999988
 31
0.0
  0
LINE
  5
1010
  8
250
 10
128.9999999999965
 20
8.4999999999998863
 30
0.0
 11
128.9999999999965
 21
42.999999999999922
 31
0.0
  0
LINE
  5
1011
  8
250
 10
199.99999999999179
 20
16.899377385371999
 30
0.0
 11
199.99999999999179
 21
42.999999999999922
 31
0.0
  0
LINE
  5
1012
  8
250
 10
130.9999999999965
 20
41.999999999999929
 30
0.0
 11
197.99999999999179
 21
41.999999999999929
 31
0.0
  0
LINE
  5
1016
  8
250
 10
169.25735931286999
 20
-26.300000000000239
 30
0.0
 11
223.99999999999849
 21
-26.30000000000026
 31
0.0
  0
LINE
  5
1017
  8
250
 10
169.25735931286999
 20
26.300000000000171
 30
0.0
 11
223.99999999999849
 21
26.30000000000015
 31
0.0
  0
LINE
  5
1018
  8
250
 10
222.99999999999849
 20
-24.300000000000249
 30
0.0
 11
222.99999999999849
 21
24.300000000000161
 31
0.0
  0
LINE
  5
101C
  8
250
 10
193.63130645135371
 20
-21.00000000000005
 30
0.0
 11
216.99999999999849
 21
-21.00000000000006
 31
0.0
  0
LINE
  5
101D
  8
250
 10
193.63130645135371
 20
21.000000000000039
 30
0.0
 11
216.99999999999849
 21
21.000000000000039
 31
0.0
  0
LINE
  5
101E
  8
250
 10
215.99999999999849
 20
-19.00000000000005
 30
0.0
 11
215.99999999999849
 21
19.000000000000028
 31
0.0
  0
LINE
  5
1022
  8
250
 10
197.99999999999829
 20
8.0
 30
0.0
 11
209.99999999999849
 21
7.9999999999999973
 31
0.0
  0
LINE
  5
1023
  8
250
 10
208.99999999999849
 20
-6.0000000000001421
 30
0.0
 11
208.99999999999849
 21
5.9999999999999973
 31
0.0
  0
INSERT
  5
1024
  8
250
  6
CONTINUOUS
  2
矢印なし
 10
208.99999999999849
 20
-8.0000000000001439
 30
0.0
 41
2.0
 42
2.0
 43
2.0
 50
270.0
  0
LINE
  5
1027
  8
250
 10
-0.0000000000004973
 20
22.72499999999992
 30
0.0
 11
-0.0000000000004957
 21
49.999999999999922
 31
0.0
  0
LINE
  5
1028
  8
250
 10
199.99999999999179
 20
16.899377385371888
 30
0.0
 11
199.99999999999179
 21
49.999999999999922
 31
0.0
  0
LINE
  5
1029
  8
250
 10
1.9999999999995031
 20
48.99999999999995
 30
0.0
 11
197.99999999999179
 21
48.99999999999995
 31
0.0
  0
TEXT
  5
102D
  8
250
 10
-63.72303755680079
 20
-27.151483684754979
 30
0.0
 40
2.799999999999998
  1
BBT40
  7
YOKO
1001
ITEMNAME
1000
LNSP3
1001
ACAD
1000
MTEXTBEGIN
1070
    73
1070
     1
1070
    44
1040
1.0
1070
    74
1070
     0
1000
MTEXTEND
  0
POLYLINE
  5
102F
  8
250
 66
     1
 10
0.0
 20
0.0
 30
0.0
1001
ACAD
1000
DSTYLE
1002
{
1070
    41
1040
2.0
1002
}
  0
VERTEX
  5
10C9
  8
250
 10
-42.352925238793517
 20
-17.926415876911541
 30
0.0
  0
VERTEX
  5
10CA
  8
250
 10
-48.256370890134122
 20
-28.151483684754979
 30
0.0
  0
SEQEND
  5
10CB
  8
250
  0
TEXT
  5
1030
  8
250
 10
153.87333333332739
 20
42.999999999999929
 30
0.0
 40
2.799999999999998
  1
（max.71）
1001
ACAD
1000
MTEXTBEGIN
1070
    73
1070
     1
1070
    44
1040
1.0
1070
    74
1070
     0
1000
MTEXTEND
  0
LINE
  5
1031
  8
250
 10
197.99999999999179
 20
42.333333333333258
 30
0.0
 11
199.99999999999179
 21
41.999999999999929
 31
0.0
  0
LINE
  5
1032
  8
250
 10
197.99999999999179
 20
41.666666666666593
 30
0.0
 11
199.99999999999179
 21
41.999999999999929
 31
0.0
  0
LINE
  5
1033
  8
250
 10
199.99999999999179
 20
41.999999999999929
 30
0.0
 11
197.99999999999179
 21
41.999999999999929
 31
0.0
  0
LINE
  5
1034
  8
250
 10
130.9999999999965
 20
41.666666666666593
 30
0.0
 11
128.9999999999965
 21
41.999999999999929
 31
0.0
  0
LINE
  5
1035
  8
250
 10
130.9999999999965
 20
42.333333333333258
 30
0.0
 11
128.9999999999965
 21
41.999999999999929
 31
0.0
  0
LINE
  5
1036
  8
250
 10
128.9999999999965
 20
41.999999999999929
 30
0.0
 11
130.9999999999965
 21
41.999999999999929
 31
0.0
  0
TEXT
  5
1037
  8
250
 10
95.999999999995666
 20
49.999999999999929
 30
0.0
 40
2.799999999999998
  1
200
1001
ACAD
1000
MTEXTBEGIN
1070
    73
1070
     1
1070
    44
1040
1.0
1070
    74
1070
     0
1000
MTEXTEND
  0
LINE
  5
1038
  8
250
 10
197.99999999999179
 20
49.333333333333293
 30
0.0
 11
199.99999999999179
 21
48.99999999999995
 31
0.0
  0
LINE
  5
1039
  8
250
 10
197.99999999999179
 20
48.666666666666607
 30
0.0
 11
199.99999999999179
 21
48.99999999999995
 31
0.0
  0
LINE
  5
103A
  8
250
 10
199.99999999999179
 20
48.99999999999995
 30
0.0
 11
197.99999999999179
 21
48.99999999999995
 31
0.0
  0
LINE
  5
103B
  8
250
 10
1.999999999999504
 20
48.666666666666607
 30
0.0
 11
-0.0000000000004957
 21
48.99999999999995
 31
0.0
  0
LINE
  5
103C
  8
250
 10
1.999999999999504
 20
49.333333333333293
 30
0.0
 11
-0.0000000000004957
 21
48.99999999999995
 31
0.0
  0
LINE
  5
103D
  8
250
 10
-0.0000000000004957
 20
48.99999999999995
 30
0.0
 11
1.999999999999504
 21
48.99999999999995
 31
0.0
  0
TEXT
  5
103E
  8
250
 10
221.99999999999849
 20
-5.9333333333333416
 30
0.0
 40
2.7999999999999989
  1
\U+2205
 50
90.0
1001
ACAD
1000
MTEXTBEGIN
1070
    73
1070
     1
1070
    44
1040
1.0
1070
    74
1070
     0
1000
MTEXTEND
  0
TEXT
  5
103F
  8
250
 10
221.99999999999849
 20
-3.4000000000000101
 30
0.0
 40
2.799999999999998
  1
52.6
 50
90.0
1001
ACAD
1000
MTEXTBEGIN
1070
    73
1070
     1
1070
    44
1040
1.0
1070
    74
1070
     0
1000
MTEXTEND
  0
LINE
  5
1040
  8
250
 10
222.66666666666521
 20
24.30000000000015
 30
0.0
 11
222.99999999999849
 21
26.30000000000015
 31
0.0
  0
LINE
  5
1041
  8
250
 10
223.33333333333189
 20
24.30000000000015
 30
0.0
 11
222.99999999999849
 21
26.30000000000015
 31
0.0
  0
LINE
  5
1042
  8
250
 10
222.99999999999849
 20
26.30000000000015
 30
0.0
 11
222.99999999999849
 21
24.30000000000015
 31
0.0
  0
LINE
  5
1043
  8
250
 10
223.33333333333189
 20
-24.30000000000026
 30
0.0
 11
222.99999999999849
 21
-26.30000000000026
 31
0.0
  0
LINE
  5
1044
  8
250
 10
222.66666666666521
 20
-24.30000000000026
 30
0.0
 11
222.99999999999849
 21
-26.30000000000026
 31
0.0
  0
LINE
  5
1045
  8
250
 10
222.99999999999849
 20
-26.30000000000026
 30
0.0
 11
222.99999999999849
 21
-24.30000000000026
 31
0.0
  0
TEXT
  5
1046
  8
250
 10
214.99999999999849
 20
-3.933333333333306
 30
0.0
 40
2.7999999999999989
  1
\U+2205
 50
90.0
1001
ACAD
1000
MTEXTBEGIN
1070
    73
1070
     1
1070
    44
1040
1.0
1070
    74
1070
     0
1000
MTEXTEND
  0
TEXT
  5
1047
  8
250
 10
214.99999999999849
 20
-1.399999999999973
 30
0.0
 40
2.799999999999998
  1
42
 50
90.0
1001
ACAD
1000
MTEXTBEGIN
1070
    73
1070
     1
1070
    44
1040
1.0
1070
    74
1070
     0
1000
MTEXTEND
  0
LINE
  5
1048
  8
250
 10
215.66666666666521
 20
19.000000000000039
 30
0.0
 11
215.99999999999849
 21
21.000000000000039
 31
0.0
  0
LINE
  5
1049
  8
250
 10
216.33333333333189
 20
19.000000000000039
 30
0.0
 11
215.99999999999849
 21
21.000000000000039
 31
0.0
  0
LINE
  5
104A
  8
250
 10
215.99999999999849
 20
21.000000000000039
 30
0.0
 11
215.99999999999849
 21
19.000000000000039
 31
0.0
  0
LINE
  5
104B
  8
250
 10
216.33333333333189
 20
-19.00000000000006
 30
0.0
 11
215.99999999999849
 21
-21.00000000000006
 31
0.0
  0
LINE
  5
104C
  8
250
 10
215.66666666666521
 20
-19.00000000000006
 30
0.0
 11
215.99999999999849
 21
-21.00000000000006
 31
0.0
  0
LINE
  5
104D
  8
250
 10
215.99999999999849
 20
-21.00000000000006
 30
0.0
 11
215.99999999999849
 21
-19.00000000000006
 31
0.0
  0
TEXT
  5
104E
  8
250
 10
207.99999999999849
 20
-3.9333333333333691
 30
0.0
 40
2.7999999999999989
  1
\U+2205
 50
90.0
1001
ACAD
1000
MTEXTBEGIN
1070
    73
1070
     1
1070
    44
1040
1.0
1070
    74
1070
     0
1000
MTEXTEND
  0
TEXT
  5
104F
  8
250
 10
207.99999999999849
 20
-1.400000000000037
 30
0.0
 40
2.799999999999998
  1
16
 50
90.0
1001
ACAD
1000
MTEXTBEGIN
1070
    73
1070
     1
1070
    44
1040
1.0
1070
    74
1070
     0
1000
MTEXTEND
  0
LINE
  5
1050
  8
250
 10
208.66666666666521
 20
5.9999999999999973
 30
0.0
 11
208.99999999999849
 21
7.9999999999999973
 31
0.0
  0
LINE
  5
1051
  8
250
 10
209.33333333333189
 20
5.9999999999999973
 30
0.0
 11
208.99999999999849
 21
7.9999999999999973
 31
0.0
  0
LINE
  5
1052
  8
250
 10
208.99999999999849
 20
7.9999999999999973
 30
0.0
 11
208.99999999999849
 21
5.9999999999999973
 31
0.0
  0
LINE
  5
1053
  8
250
 10
-42.641600373388329
 20
-17.75974921024487
 30
0.0
 11
-41.352925238793517
 21
-16.194365069342659
 31
0.0
  0
LINE
  5
1054
  8
250
 10
-42.064250104198713
 20
-18.093082543578198
 30
0.0
 11
-41.352925238793517
 21
-16.194365069342659
 31
0.0
  0
LINE
  5
1055
  8
250
 10
-41.352925238793517
 20
-16.194365069342659
 30
0.0
 11
-42.352925238793517
 21
-17.926415876911541
 31
0.0
  0
VIEWPORT
  5
22
 67
     1
  8
0
 10
261.51769911504419
 20
148.5
 30
0.0
 40
523.0353982300885
 41
297.0
 68
     1
 69
     1
1001
ACAD
1000
MVIEW
1002
{
1070
    16
1010
0.0
1020
0.0
1030
0.0
1010
0.0
1020
0.0
1030
1.0
1040
0.0
1040
297.0
1040
261.51769911504419
1040
148.5
1040
50.0
1040
0.0
1040
0.0
1070
     0
1070
   100
1070
     1
1070
     1
1070
     0
1070
     0
1070
     0
1070
     0
1040
0.0
1040
0.0
1040
0.0
1040
1.0
1040
1.0
1040
10.0
1040
10.0
1070
     0
1002
{
1002
}
1002
}
1001
GENIUS_GENODEF_13
1002
{
1000
HIER
1070
     0
1002
}
1002
{
1000
MANEDIT
1070
     0
1002
}
1002
{
1000
NOSEL
1070
     0
1002
}
1002
{
1000
BEHIND
1070
     0
1002
}
1002
{
1000
OTHER
1070
     0
1002
}
1002
{
1000
REACTOR
1002
}
1001
GENIUS_GENOBJ-N-SDF_13
1002
{
1000
OWNER
1000
GEN
1002
}
1001
GENIUS_GENSCREG_15
1000
PF
1040
1.0
1000
DF
1040
1.0
1000
MIN
1011
0.0
1021
0.0
1031
0.0
1021
0.0
1031
0.0
1000
MAX
1011
523.0353982300885
1021
0.0
1031
0.0
1021
297.0
1031
0.0
1000
FLAGS
1070
     4
  0
ENDSEC
  0
EOF
