  0
SECTION
  2
HEADER
  9
$ACADVER
  1
AC1009
  9
$INSBASE
 10
0.0
 20
0.0
 30
0.0
  9
$EXTMIN
 10
-66.422178821985085
 20
-31.514739090559889
 30
-0.0000000349181948
  9
$EXTMAX
 10
189.01806497815321
 20
68.001656488980984
 30
0.0000000814935747
  9
$LIMMIN
 10
0.0
 20
0.0
  9
$LIMMAX
 10
297.0
 20
210.0
  9
$ORTHOMODE
 70
     0
  9
$REGENMODE
 70
     1
  9
$FILLMODE
 70
     1
  9
$QTEXTMODE
 70
     0
  9
$MIRRTEXT
 70
     1
  9
$DRAGMODE
 70
     2
  9
$LTSCALE
 40
10.0
  9
$OSMODE
 70
    37
  9
$ATTMODE
 70
     1
  9
$TEXTSIZE
 40
3.0
  9
$TRACEWID
 40
1.0
  9
$TEXTSTYLE
  7
YOKO
  9
$CLAYER
  8
252
  9
$CELTYPE
  6
BYLAYER
  9
$CECOLOR
 62
   256
  9
$DIMSCALE
 40
1.0
  9
$DIMASZ
 40
2.0
  9
$DIMEXO
 40
0.5
  9
$DIMDLI
 40
2.5
  9
$DIMRND
 40
0.0
  9
$DIMDLE
 40
0.0
  9
$DIMEXE
 40
1.0
  9
$DIMTP
 40
0.0
  9
$DIMTM
 40
0.0
  9
$DIMTXT
 40
2.799999999999998
  9
$DIMCEN
 40
0.0
  9
$DIMTSZ
 40
0.0
  9
$DIMTOL
 70
     0
  9
$DIMLIM
 70
     0
  9
$DIMTIH
 70
     0
  9
$DIMTOH
 70
     0
  9
$DIMSE1
 70
     0
  9
$DIMSE2
 70
     0
  9
$DIMTAD
 70
     3
  9
$DIMZIN
 70
     8
  9
$DIMBLK
  1

  9
$DIMASO
 70
     1
  9
$DIMSHO
 70
     1
  9
$DIMPOST
  1

  9
$DIMAPOST
  1

  9
$DIMALT
 70
     0
  9
$DIMALTD
 70
     2
  9
$DIMALTF
 40
25.399999999999999
  9
$DIMLFAC
 40
1.0
  9
$DIMTOFL
 70
     1
  9
$DIMTVP
 40
0.0
  9
$DIMTIX
 70
     1
  9
$DIMSOXD
 70
     0
  9
$DIMSAH
 70
     1
  9
$DIMBLK1
  1
OPEN
  9
$DIMBLK2
  1
OPEN
  9
$DIMSTYLE
  2
BIGT
  9
$DIMCLRD
 70
   256
  9
$DIMCLRE
 70
   256
  9
$DIMCLRT
 70
    40
  9
$DIMTFAC
 40
1.0
  9
$DIMGAP
 40
1.0
  9
$LUNITS
 70
     2
  9
$LUPREC
 70
     3
  9
$SKETCHINC
 40
1.0
  9
$FILLETRAD
 40
0.0
  9
$AUNITS
 70
     0
  9
$AUPREC
 70
     3
  9
$MENU
  1
.
  9
$ELEVATION
 40
0.0
  9
$PELEVATION
 40
0.0
  9
$THICKNESS
 40
0.0
  9
$LIMCHECK
 70
     0
  9
$BLIPMODE
 70
     0
  9
$CHAMFERA
 40
10.0
  9
$CHAMFERB
 40
10.0
  9
$SKPOLY
 70
     0
  9
$TDCREATE
 40
2456316.5913586812
  9
$TDUPDATE
 40
2456875.4319484839
  9
$TDINDWG
 40
0.0122226157
  9
$TDUSRTIMER
 40
0.0122153472
  9
$USRTIMER
 70
     1
  9
$ANGBASE
 50
0.0
  9
$ANGDIR
 70
     0
  9
$PDMODE
 70
     1
  9
$PDSIZE
 40
-5.0
  9
$PLINEWID
 40
0.0
  9
$COORDS
 70
     1
  9
$SPLFRAME
 70
     0
  9
$SPLINETYPE
 70
     6
  9
$SPLINESEGS
 70
     8
  9
$ATTDIA
 70
     1
  9
$ATTREQ
 70
     1
  9
$HANDLING
 70
     1
  9
$HANDSEED
  5
112B
  9
$SURFTAB1
 70
     6
  9
$SURFTAB2
 70
     6
  9
$SURFTYPE
 70
     6
  9
$SURFU
 70
     6
  9
$SURFV
 70
     6
  9
$UCSNAME
  2

  9
$UCSORG
 10
0.0
 20
0.0
 30
0.0
  9
$UCSXDIR
 10
1.0
 20
0.0
 30
0.0
  9
$UCSYDIR
 10
0.0
 20
1.0
 30
0.0
  9
$PUCSNAME
  2

  9
$PUCSORG
 10
0.0
 20
0.0
 30
0.0
  9
$PUCSXDIR
 10
1.0
 20
0.0
 30
0.0
  9
$PUCSYDIR
 10
0.0
 20
1.0
 30
0.0
  9
$USERI1
 70
     1
  9
$USERI2
 70
     0
  9
$USERI3
 70
     0
  9
$USERI4
 70
     0
  9
$USERI5
 70
     0
  9
$USERR1
 40
0.0
  9
$USERR2
 40
0.0
  9
$USERR3
 40
0.0
  9
$USERR4
 40
0.0
  9
$USERR5
 40
0.0
  9
$WORLDVIEW
 70
     1
  9
$SHADEDGE
 70
     3
  9
$SHADEDIF
 70
    70
  9
$TILEMODE
 70
     1
  9
$MAXACTVP
 70
    16
  9
$PLIMCHECK
 70
     0
  9
$PEXTMIN
 10
1.0000000000000000E+020
 20
1.0000000000000000E+020
 30
1.0000000000000000E+020
  9
$PEXTMAX
 10
-1.0000000000000000E+020
 20
-1.0000000000000000E+020
 30
-1.0000000000000000E+020
  9
$PLIMMIN
 10
0.0
 20
0.0
  9
$PLIMMAX
 10
420.0
 20
297.0
  9
$UNITMODE
 70
     0
  9
$VISRETAIN
 70
     0
  9
$PLINEGEN
 70
     0
  9
$PSLTSCALE
 70
     1
  0
ENDSEC
  0
SECTION
  2
TABLES
  0
TABLE
  2
VPORT
 70
     1
  0
VPORT
  2
*ACTIVE
 70
     0
 10
0.0
 20
0.0
 11
1.0
 21
1.0
 12
61.29794307808406
 22
18.24345869921056
 13
0.0
 23
0.0
 14
7.0
 24
7.0
 15
7.0
 25
7.0
 16
0.0
 26
0.0
 36
1.0
 17
0.0
 27
0.0
 37
0.0
 40
205.8422986168969
 41
1.247144340602284
 42
50.0
 43
0.0
 44
0.0
 50
0.0
 51
0.0
 71
     0
 72
 20000
 73
     1
 74
     0
 75
     0
 76
     0
 77
     0
 78
     0
  0
ENDTAB
  0
TABLE
  2
LTYPE
 70
    13
  0
LTYPE
  2
CONTINUOUS
 70
     0
  3
Solid line
 72
    65
 73
     0
 40
0.0
  0
LTYPE
  2
CENTER2
 70
     0
  3
___ _ ___ _ ___ _ ___ _ ___ _ ___ _ ___ _ ___ _
 72
    65
 73
     4
 40
1.125
 49
0.75
 49
-0.125
 49
0.125
 49
-0.125
  0
LTYPE
  2
HIDDEN2
 70
     0
  3
_ _ _ _ _ _ _ _ _ _ _ _ _ _ _ _ _ _ _ _ _ _ _ _
 72
    65
 73
     2
 40
0.1875
 49
0.125
 49
-0.0625
  0
LTYPE
  2
PHANTOM2
 70
     0
  3
___ _ _ ___ _ _ ___ _ _ ___ _ _ ___ _ _ ___ _ _
 72
    65
 73
     6
 40
1.25
 49
0.625
 49
-0.125
 49
0.125
 49
-0.125
 49
0.125
 49
-0.125
  0
LTYPE
  2
AMCONSTR
 70
     0
  3
_______________________
 72
    65
 73
     2
 40
9999.0
 49
9999.0
 49
0.0
  0
LTYPE
  2
AM_ISO02W050
 70
     0
  3
__ __ __ __ __ __ __ __ __ __ __ __ __ __ __
 72
    65
 73
     2
 40
7.5
 49
6.0
 49
-1.5
  0
LTYPE
  2
ACJISTGB
 70
     0
  3
__ . . __ . .
 72
    65
 73
     6
 40
9.0
 49
4.0
 49
-1.0
 49
1.0
 49
-1.0
 49
1.0
 49
-1.0
  0
LTYPE
  2
ACJISTGL
 70
     0
  3
_ _ _ _ _
 72
    65
 73
     2
 40
3.0
 49
2.0
 49
-1.0
  0
LTYPE
  2
ACISOWELD
 70
     0
  3
_ _ _ _ _
 72
    65
 73
     2
 40
2.0
 49
2.0
 49
-1.0
  0
LTYPE
  2
ACISOTGB
 70
     0
  3
__ . . __ . .
 72
    65
 73
     6
 40
9.0
 49
4.0
 49
-1.0
 49
1.0
 49
-1.0
 49
1.0
 49
-1.0
  0
LTYPE
  2
ACISOTGL
 70
     0
  3
_ _ _ _ _
 72
    65
 73
     2
 40
3.0
 49
2.0
 49
-1.0
  0
ENDTAB
  0
TABLE
  2
LAYER
 70
     7
  0
LAYER
  2
0
 70
     0
 62
     7
  6
CONTINUOUS
  0
LAYER
  2
240
 70
     0
 62
     4
  6
CONTINUOUS
  0
LAYER
  2
241
 70
     0
 62
   211
  6
CONTINUOUS
  0
LAYER
  2
245
 70
     0
 62
     2
  6
CENTER2
  0
LAYER
  2
250
 70
     0
 62
     3
  6
CONTINUOUS
  0
LAYER
  2
DEFPOINTS
 70
     0
 62
     7
  6
CONTINUOUS
  0
LAYER
  2
252
 70
     0
 62
     3
  6
CONTINUOUS
  0
ENDTAB
  0
TABLE
  2
STYLE
 70
     6
  0
STYLE
  2
STANDARD
 70
     0
 40
0.0
 41
1.0
 50
0.0
 71
     0
 42
3.0
  3
romans.shx
  4
BIGFONT.SHX
  0
STYLE
  2
YOKO
 70
     0
 40
0.0
 41
1.0
 50
0.0
 71
     0
 42
3.0
  3
romans.shx
  4
extfont.shx
  0
STYLE
  2
ACJISTS
 70
     0
 40
1.0
 41
1.0
 50
0.0
 71
     0
 42
3.0
  3
amgdt.shx
  4
extfont.shx
  0
STYLE
  2
ACJISGDT
 70
     0
 40
0.0
 41
1.0
 50
0.0
 71
     0
 42
3.0
  3
amgdt.shx
  4
extfont.shx
  0
STYLE
  2
ACISOTS
 70
     0
 40
1.0
 41
1.0
 50
0.0
 71
     0
 42
3.0
  3
amgdt.shx
  4
extfont.shx
  0
STYLE
  2
ACISOGDT
 70
     0
 40
0.0
 41
1.0
 50
0.0
 71
     0
 42
3.0
  3
amgdt.shx
  4
extfont.shx
  0
ENDTAB
  0
TABLE
  2
VIEW
 70
     0
  0
ENDTAB
  0
TABLE
  2
UCS
 70
     0
  0
ENDTAB
  0
TABLE
  2
APPID
 70
    37
  0
APPID
  2
ACAD
 70
     0
  0
APPID
  2
GLOBAL
 70
     0
  0
APPID
  2
DETAIL
 70
     0
  0
APPID
  2
GRPNAME
 70
     0
  0
APPID
  2
GPARA
 70
     0
  0
APPID
  2
DCO15
 70
     0
  0
APPID
  2
ITEMNAME
 70
     0
  0
APPID
  2
GRADE_0
 70
     0
  0
APPID
  2
ASK_MEN_XD
 70
     0
  0
APPID
  2
LAYER_SCALE
 70
     0
  0
APPID
  2
MCAD_NO_VIS
 70
     0
  0
APPID
  2
ACAD_TEMP_GRAPHIC
 70
     0
  0
APPID
  2
ACATTRIBSERVICES
 70
     0
  0
APPID
  2
GENIUS_GENSCREG_15
 70
     0
  0
APPID
  2
GENIUS_GENODEF_13
 70
     0
  0
APPID
  2
GENIUS_GENOBJ-N-SDF_13
 70
     0
  0
APPID
  2
GENIUS_GENREC_14
 70
     0
  0
APPID
  2
GENIUS_GENOBJ-N-REC_13
 70
     0
  0
APPID
  2
GENIUS_GENDIMSH_14
 70
     0
  0
APPID
  2
GENIUS_GENOBJ-N-DIM_13
 70
     0
  0
APPID
  2
GENIUS_GENDIM_13
 70
     0
  0
APPID
  2
GENIUS_GENDTOL_13
 70
     0
  0
APPID
  2
GENIUS_GENOLIS_13
 70
     0
  0
APPID
  2
GENIUS_GENOENT_13
 70
     0
  0
APPID
  2
GENIUS_GENOBJ-F-FEM_13
 70
     0
  0
APPID
  2
GENIUS_GENOREF_13
 70
     0
  0
APPID
  2
GENIUS_GEFFEM_13
 70
     0
  0
APPID
  2
GENIUS_GEFFEMP_13
 70
     0
  0
APPID
  2
AD_DRAW
 70
     0
  0
APPID
  2
DESIGNERASSEMBLIES
 70
     0
  0
APPID
  2
ACADM_DIM_EDIT
 70
     0
  0
APPID
  2
AMDT_DM_ADJ
 70
     0
  0
APPID
  2
GENIUS_GENOBJ-N-FIL_13
 70
     0
  0
APPID
  2
GENIUS_GENFIL_13
 70
     0
  0
APPID
  2
GENIUS_GENOBJ-N-CHA_13
 70
     0
  0
APPID
  2
ACAD_NAV_VCDISPLAY
 70
     0
  0
APPID
  2
ACAD_MLEADERVER
 70
     0
  0
ENDTAB
  0
TABLE
  2
DIMSTYLE
 70
    23
  0
DIMSTYLE
  2
BIGT
 70
     0
  3

  4

  5
OPEN
  6

  7

 40
1.0
 41
2.2299999999999991
 42
0.5
 43
7.0
 44
1.0
 45
0.0
 46
0.0
 47
0.0
 48
0.01
140
2.7999999999999989
141
0.0
142
0.0
143
25.399999999999999
144
1.0
145
0.0
146
1.0
147
1.0
 71
     0
 72
     0
 73
     0
 74
     0
 75
     0
 76
     0
 77
     3
 78
     9
170
     0
171
     2
172
     1
173
     0
174
     1
175
     0
176
   256
177
   256
178
    40
  0
DIMSTYLE
  2
BIGT$0
 70
     0
  3

  4

  5
OPEN
  6

  7

 40
1.0
 41
2.2299999999999991
 42
0.5
 43
7.0
 44
1.0
 45
0.0
 46
0.0
 47
0.0
 48
0.01
140
2.7999999999999989
141
0.0
142
0.0
143
25.399999999999999
144
1.0
145
0.0
146
1.0
147
1.0
 71
     0
 72
     0
 73
     0
 74
     0
 75
     0
 76
     0
 77
     3
 78
     9
170
     0
171
     2
172
     1
173
     0
174
     1
175
     0
176
   256
177
   256
178
    40
  0
DIMSTYLE
  2
BIGT$2
 70
     0
  3

  4

  5
OPEN
  6

  7

 40
1.0
 41
2.2299999999999991
 42
0.5
 43
7.0
 44
1.0
 45
0.0
 46
0.0
 47
0.0
 48
0.01
140
2.7999999999999989
141
0.0
142
0.0
143
25.399999999999999
144
1.0
145
0.0
146
1.0
147
1.0
 71
     0
 72
     0
 73
     0
 74
     0
 75
     0
 76
     0
 77
     3
 78
     9
170
     0
171
     2
172
     1
173
     0
174
     0
175
     0
176
   256
177
   256
178
    40
  0
DIMSTYLE
  2
BIGT$3
 70
     0
  3

  4

  5
OPEN
  6

  7

 40
1.0
 41
2.2299999999999991
 42
0.5
 43
2.5
 44
1.0
 45
0.0
 46
0.0
 47
0.0
 48
0.01
140
2.7999999999999989
141
0.0
142
0.0
143
25.399999999999999
144
1.0
145
0.0
146
1.0
147
1.0
 71
     0
 72
     0
 73
     0
 74
     0
 75
     0
 76
     0
 77
     3
 78
     9
170
     0
171
     2
172
     1
173
     0
174
     0
175
     0
176
   256
177
   256
178
    40
  0
DIMSTYLE
  2
BIGT$4
 70
     0
  3

  4

  5
OPEN
  6

  7

 40
1.0
 41
2.2299999999999991
 42
0.5
 43
2.5
 44
1.0
 45
0.0
 46
0.0
 47
0.0
 48
0.01
140
2.7999999999999989
141
0.0
142
0.0
143
25.399999999999999
144
1.0
145
0.0
146
1.0
147
1.0
 71
     0
 72
     0
 73
     0
 74
     0
 75
     0
 76
     0
 77
     3
 78
     9
170
     0
171
     2
172
     1
173
     0
174
     0
175
     0
176
   256
177
   256
178
    40
  0
DIMSTYLE
  2
BIGT$6
 70
     0
  3

  4

  5
OPEN
  6

  7

 40
1.0
 41
2.2299999999999991
 42
0.5
 43
2.5
 44
1.0
 45
0.0
 46
0.0
 47
0.0
 48
0.01
140
2.7999999999999989
141
0.0
142
0.0
143
25.399999999999999
144
1.0
145
0.0
146
1.0
147
1.0
 71
     0
 72
     0
 73
     0
 74
     0
 75
     0
 76
     0
 77
     3
 78
     9
170
     0
171
     2
172
     1
173
     0
174
     0
175
     0
176
   256
177
   256
178
    40
  0
DIMSTYLE
  2
BIGT$7
 70
     0
  3

  4

  5
OPEN
  6

  7

 40
0.0
 41
2.2299999999999991
 42
0.5
 43
7.0
 44
1.0
 45
0.0
 46
0.0
 47
0.0
 48
0.01
140
2.7999999999999989
141
0.0
142
0.0
143
25.399999999999999
144
1.0
145
0.0
146
1.0
147
1.0
 71
     0
 72
     0
 73
     0
 74
     0
 75
     0
 76
     0
 77
     3
 78
     9
170
     0
171
     2
172
     0
173
     0
174
     0
175
     0
176
   256
177
   256
178
    40
  0
DIMSTYLE
  2
BIGT$SF
 70
     0
  3

  4

  5
OPEN
  6

  7

 40
1.0
 41
2.2299999999999991
 42
0.5
 43
7.0
 44
1.0
 45
0.0
 46
0.0
 47
0.0
 48
0.0
140
2.7999999999999989
141
0.0
142
0.0
143
25.399999999999999
144
1.0
145
0.0
146
1.0
147
1.0
 71
     0
 72
     0
 73
     0
 74
     0
 75
     0
 76
     0
 77
     3
 78
     9
170
     0
171
     2
172
     1
173
     0
174
     0
175
     0
176
   256
177
   256
178
    40
  0
DIMSTYLE
  2
BIGT$SH
 70
     0
  3

  4

  5
OPEN
  6

  7

 40
1.0
 41
2.2299999999999991
 42
0.5
 43
7.0
 44
1.0
 45
0.0
 46
0.0
 47
0.0
 48
0.0
140
2.7999999999999989
141
0.0
142
0.0
143
25.399999999999999
144
1.0
145
0.0
146
1.0
147
1.0
 71
     0
 72
     0
 73
     0
 74
     0
 75
     0
 76
     0
 77
     3
 78
     9
170
     0
171
     2
172
     1
173
     0
174
     0
175
     0
176
   256
177
   256
178
    40
  0
DIMSTYLE
  2
AM_ISO
 70
     0
  3

  4
"
  5

  6

  7

 40
1.0
 41
2.5
 42
1.0
 43
10.0
 44
1.0
 45
0.0
 46
0.0
 47
0.1
 48
0.1
140
3.5
141
0.0
142
0.0
143
0.0393701
144
1.0
145
0.0
146
0.71
147
1.5
 71
     0
 72
     0
 73
     0
 74
     0
 75
     0
 76
     0
 77
     1
 78
     8
170
     0
171
     2
172
     1
173
     0
174
     0
175
     0
176
   256
177
   256
178
     2
  0
DIMSTYLE
  2
AM_ISO$3
 70
     0
  3

  4
"
  5

  6

  7

 40
1.0
 41
2.5
 42
1.0
 43
10.0
 44
1.0
 45
0.0
 46
0.0
 47
0.1
 48
0.1
140
3.5
141
0.0
142
0.0
143
0.0393701
144
1.0
145
0.0
146
0.71
147
1.5
 71
     0
 72
     0
 73
     0
 74
     1
 75
     0
 76
     0
 77
     1
 78
     8
170
     0
171
     2
172
     0
173
     0
174
     0
175
     0
176
   256
177
   256
178
     2
  0
DIMSTYLE
  2
AM_ISO$4
 70
     0
  3

  4
"
  5

  6

  7

 40
1.0
 41
2.5
 42
1.0
 43
10.0
 44
1.0
 45
0.0
 46
0.0
 47
0.1
 48
0.1
140
3.5
141
0.0
142
0.0
143
0.0393701
144
1.0
145
0.0
146
0.71
147
1.5
 71
     0
 72
     0
 73
     0
 74
     1
 75
     0
 76
     0
 77
     1
 78
     8
170
     0
171
     2
172
     0
173
     0
174
     0
175
     0
176
   256
177
   256
178
     2
  0
DIMSTYLE
  2
AM_ISO$6
 70
     0
  3

  4
"
  5

  6

  7

 40
1.0
 41
2.5
 42
1.0
 43
10.0
 44
1.0
 45
0.0
 46
0.0
 47
0.1
 48
0.1
140
3.5
141
0.0
142
0.0
143
0.0393701
144
1.0
145
0.0
146
0.71
147
1.5
 71
     0
 72
     0
 73
     0
 74
     0
 75
     0
 76
     0
 77
     0
 78
     8
170
     0
171
     2
172
     1
173
     0
174
     0
175
     0
176
   256
177
   256
178
     2
  0
DIMSTYLE
  2
AM_ISO$7
 70
     0
  3

  4
"
  5

  6

  7

 40
1.0
 41
2.5
 42
1.0
 43
10.0
 44
1.0
 45
0.0
 46
0.0
 47
0.1
 48
0.1
140
5.0
141
0.0
142
0.0
143
0.0393701
144
1.0
145
0.0
146
0.71
147
1.5
 71
     0
 72
     0
 73
     0
 74
     0
 75
     0
 76
     0
 77
     1
 78
     8
170
     0
171
     2
172
     1
173
     0
174
     0
175
     0
176
   256
177
   256
178
     2
  0
DIMSTYLE
  2
AM_ISO$SF
 70
     0
  3

  4
"
  5

  6

  7

 40
1.0
 41
2.5
 42
1.0
 43
10.0
 44
1.0
 45
0.0
 46
0.0
 47
0.1
 48
0.1
140
3.5
141
0.0
142
0.0
143
0.0393701
144
1.0
145
0.0
146
0.71
147
1.5
 71
     0
 72
     0
 73
     0
 74
     0
 75
     1
 76
     1
 77
     1
 78
     8
170
     0
171
     2
172
     1
173
     0
174
     0
175
     0
176
   256
177
   256
178
     2
  0
DIMSTYLE
  2
AM_ISO$SH
 70
     0
  3

  4
"
  5

  6
GENAXEH
  7

 40
1.0
 41
2.5
 42
1.0
 43
10.0
 44
1.0
 45
0.0
 46
0.0
 47
0.1
 48
0.1
140
3.5
141
0.0
142
0.0
143
0.0393701
144
2.0
145
0.0
146
0.71
147
1.5
 71
     0
 72
     0
 73
     0
 74
     0
 75
     1
 76
     1
 77
     1
 78
     8
170
     0
171
     2
172
     1
173
     1
174
     0
175
     0
176
   256
177
   256
178
     2
  0
DIMSTYLE
  2
TECHNICAL_OSAKA
 70
     0
  3

  4
"
  5
OPEN30
  6

  7

 40
1.0
 41
2.5
 42
1.0
 43
10.0
 44
1.0
 45
0.0
 46
0.0
 47
0.1
 48
0.1
140
2.7999999999999989
141
0.0
142
0.0
143
0.0393701
144
1.0
145
0.0
146
0.71
147
1.5
 71
     0
 72
     0
 73
     0
 74
     0
 75
     0
 76
     0
 77
     3
 78
     8
170
     0
171
     2
172
     1
173
     0
174
     0
175
     0
176
   256
177
   256
178
    40
  0
DIMSTYLE
  2
TECHNICAL_OSAKA$3
 70
     0
  3

  4
"
  5
OPEN30
  6

  7

 40
1.0
 41
2.5
 42
1.0
 43
10.0
 44
1.0
 45
0.0
 46
0.0
 47
0.1
 48
0.1
140
2.7999999999999989
141
0.0
142
0.0
143
0.0393701
144
1.0
145
0.0
146
0.71
147
1.5
 71
     0
 72
     0
 73
     0
 74
     1
 75
     0
 76
     0
 77
     3
 78
     8
170
     0
171
     2
172
     0
173
     0
174
     0
175
     0
176
   256
177
   256
178
    40
  0
DIMSTYLE
  2
TECHNICAL_OSAKA$4
 70
     0
  3

  4
"
  5
OPEN30
  6

  7

 40
1.0
 41
2.5
 42
1.0
 43
10.0
 44
1.0
 45
0.0
 46
0.0
 47
0.1
 48
0.1
140
2.7999999999999989
141
0.0
142
0.0
143
0.0393701
144
1.0
145
0.0
146
0.71
147
1.5
 71
     0
 72
     0
 73
     0
 74
     1
 75
     0
 76
     0
 77
     3
 78
     8
170
     0
171
     2
172
     0
173
     0
174
     0
175
     0
176
   256
177
   256
178
    40
  0
DIMSTYLE
  2
TECHNICAL_OSAKA$6
 70
     0
  3

  4
"
  5
OPEN30
  6

  7

 40
1.0
 41
2.5
 42
1.0
 43
10.0
 44
1.0
 45
0.0
 46
0.0
 47
0.1
 48
0.1
140
2.7999999999999989
141
0.0
142
0.0
143
0.0393701
144
1.0
145
0.0
146
0.71
147
1.5
 71
     0
 72
     0
 73
     0
 74
     0
 75
     0
 76
     0
 77
     0
 78
     8
170
     0
171
     2
172
     1
173
     0
174
     0
175
     0
176
   256
177
   256
178
    40
  0
DIMSTYLE
  2
TECHNICAL_OSAKA$7
 70
     0
  3

  4
"
  5
OPEN30
  6

  7

 40
1.0
 41
2.5
 42
1.0
 43
10.0
 44
1.0
 45
0.0
 46
0.0
 47
0.1
 48
0.1
140
2.7999999999999989
141
0.0
142
0.0
143
0.0393701
144
1.0
145
0.0
146
0.71
147
1.5
 71
     0
 72
     0
 73
     0
 74
     0
 75
     0
 76
     0
 77
     3
 78
     8
170
     0
171
     2
172
     1
173
     0
174
     0
175
     0
176
   256
177
   256
178
    40
  0
DIMSTYLE
  2
TECHNICAL_OSAKA$SF
 70
     0
  3

  4
"
  5
OPEN30
  6
OPEN30
  7
OPEN30
 40
1.0
 41
2.5
 42
1.0
 43
10.0
 44
1.0
 45
0.0
 46
0.0
 47
0.1
 48
0.1
140
3.5
141
0.0
142
0.0
143
0.0393701
144
1.0
145
0.0
146
0.71
147
1.5
 71
     0
 72
     0
 73
     0
 74
     0
 75
     1
 76
     1
 77
     3
 78
     8
170
     0
171
     2
172
     1
173
     0
174
     0
175
     0
176
   256
177
   256
178
    40
  0
DIMSTYLE
  2
TECHNICAL_OSAKA$SH
 70
     0
  3

  4
"
  5
OPEN30
  6
GENAXEH
  7
OPEN30
 40
1.0
 41
2.5
 42
1.0
 43
10.0
 44
1.0
 45
0.0
 46
0.0
 47
0.1
 48
0.1
140
3.5
141
0.0
142
0.0
143
0.0393701
144
2.0
145
0.0
146
0.71
147
1.5
 71
     0
 72
     0
 73
     0
 74
     0
 75
     1
 76
     1
 77
     3
 78
     8
170
     0
171
     2
172
     1
173
     1
174
     0
175
     0
176
   256
177
   256
178
    40
  0
ENDTAB
  0
ENDSEC
  0
SECTION
  2
BLOCKS
  0
BLOCK
  8
0
  2
$MODEL_SPACE
 70
     0
 10
0.0
 20
0.0
 30
0.0
  3
$MODEL_SPACE
  1

  0
ENDBLK
  5
1C
  8
0
  0
BLOCK
 67
     1
  8
0
  2
$PAPER_SPACE
 70
     0
 10
0.0
 20
0.0
 30
0.0
  3
$PAPER_SPACE
  1

  0
ENDBLK
  5
19
 67
     1
  8
0
  0
BLOCK
  8
0
  2
_OPEN
 70
     0
 10
0.0
 20
0.0
 30
0.0
  3
_OPEN
  1

  0
LINE
  5
F65
  8
0
  6
BYBLOCK
 62
     0
 10
-1.0
 20
0.1666666666666666
 30
0.0
 11
0.0
 21
0.0
 31
0.0
  0
LINE
  5
F66
  8
0
  6
BYBLOCK
 62
     0
 10
-1.0
 20
-0.1666666666666666
 30
0.0
 11
0.0
 21
0.0
 31
0.0
  0
LINE
  5
F67
  8
0
  6
BYBLOCK
 62
     0
 10
0.0
 20
0.0
 30
0.0
 11
-1.0
 21
0.0
 31
0.0
  0
ENDBLK
  5
F68
  8
0
  0
BLOCK
  8
0
  2
矢印なし
 70
     0
 10
0.0
 20
0.0
 30
0.0
  3
矢印なし
  1

  0
ENDBLK
  5
6E5
  8
0
  0
BLOCK
  8
0
  2
GENAXEH
 70
     0
 10
0.0
 20
0.0
 30
0.0
  3
GENAXEH
  1

  0
LINE
  5
FA0
  8
0
 10
-1.0
 20
0.0
 30
0.0
 11
1.0
 21
0.0
 31
0.0
  0
ENDBLK
  5
FA1
  8
0
  0
BLOCK
  8
0
  2
_OPEN30
 70
     0
 10
0.0
 20
0.0
 30
0.0
  3
_OPEN30
  1

  0
LINE
  5
FDC
  8
0
  6
BYBLOCK
 62
     0
 10
-1.0
 20
0.26794919
 30
0.0
 11
0.0
 21
0.0
 31
0.0
  0
LINE
  5
FDD
  8
0
  6
BYBLOCK
 62
     0
 10
0.0
 20
0.0
 30
0.0
 11
-1.0
 21
-0.26794919
 31
0.0
  0
LINE
  5
FDE
  8
0
  6
BYBLOCK
 62
     0
 10
0.0
 20
0.0
 30
0.0
 11
-1.0
 21
0.0
 31
0.0
  0
ENDBLK
  5
FDF
  8
0
  0
BLOCK
  8
0
  2
*U13
 70
     1
 10
0.0
 20
0.0
 30
0.0
  3
*U13
  1

  0
TEXT
  5
1124
  8
250
 10
172.99999999999849
 20
-3.933333333333362
 30
0.0
 40
2.7999999999999989
  1
\U+2205
 50
90.0
  0
TEXT
  5
1125
  8
250
 10
172.99999999999849
 20
-1.400000000000029
 30
0.0
 40
2.799999999999998
  1
16
 50
90.0
  0
ENDBLK
  5
1127
  8
0
  0
ENDSEC
  0
SECTION
  2
ENTITIES
  0
INSERT
  5
6E6
  8
245
  2
矢印なし
 10
175.62382696643769
 20
90.551235716905978
 30
0.0
  0
LINE
  5
852
  8
250
 10
-48.256370890134122
 20
-28.151483684754961
 30
0.0
 11
-65.989704223467456
 21
-28.151483684754961
 31
0.0
1001
ITEMNAME
1000
LNSP2
  0
TEXT
  5
853
  8
241
  6
CONTINUOUS
 10
-65.400000000000063
 20
63.0
 30
0.0
 40
5.0
  1
BBT40-MEGA16D-165A
  7
YOKO
 11
-65.400000000000063
 21
63.0
 31
0.0
 73
     1
  0
LINE
  5
100E
  8
245
  6
CENTER2
 10
16.599999999999941
 20
31.500000000000131
 30
0.0
 11
16.599999999999909
 21
-31.500000000000298
 31
0.0
  0
LINE
  5
100F
  8
241
  6
CONTINUOUS
 10
21.599999999999909
 20
-31.5
 30
0.0
 11
21.599999999999909
 21
0.0
 31
0.0
  0
LINE
  5
1010
  8
241
  6
CONTINUOUS
 10
11.599999999999911
 20
0.0
 30
0.0
 11
11.59999999999993
 21
-31.500000000000021
 31
0.0
  0
LINE
  5
1011
  8
241
  6
CONTINUOUS
 10
-0.0000000000001705
 20
-22.224999999999941
 30
0.0
 11
0.0
 21
0.0
 31
0.0
  0
LINE
  5
1012
  8
240
  6
CONTINUOUS
 10
0.9999999999998864
 20
-30.5
 30
0.0
 11
0.9999999999998293
 21
-22.224999999999909
 31
0.0
  0
ARC
  5
1013
  8
240
  6
CONTINUOUS
 10
1.9999999999998841
 20
-30.5
 30
0.0
 40
1.0
 50
180.0
 51
270.0
  0
LINE
  5
1014
  8
240
  6
CONTINUOUS
 10
-65.400000000000048
 20
11.30390895524866
 30
0.0
 11
-65.400000000000077
 21
-11.30390895524873
 31
0.0
  0
ARC
  5
1015
  8
240
  6
CONTINUOUS
 10
-63.800000000000061
 20
-11.30390895524873
 30
0.0
 40
1.6000000000000001
 50
180.0
 51
261.70285503016299
  0
LINE
  5
1016
  8
240
  6
CONTINUOUS
 10
-0.0000000000001137
 20
-22.225000000000001
 30
0.0
 11
-64.030891028914851
 21
-12.88716172494998
 31
0.0
  0
LINE
  5
1017
  8
240
  6
CONTINUOUS
 10
21.599999999999909
 20
-31.5
 30
0.0
 11
26.999999999999829
 21
-31.500000000000171
 31
0.0
  0
LINE
  5
1018
  8
241
  6
HIDDEN2
 10
22.99999999999989
 20
-22.5
 30
0.0
 11
22.99999999999989
 21
-31.5
 31
0.0
  0
LINE
  5
1019
  8
240
  6
CONTINUOUS
 10
1.9999999999998841
 20
-31.5
 30
0.0
 11
11.59999999999985
 21
-31.500000000000199
 31
0.0
  0
LINE
  5
101A
  8
241
  6
HIDDEN2
 10
22.99999999999989
 20
-22.5
 30
0.0
 11
0.9999999999998864
 21
-22.5
 31
0.0
  0
LINE
  5
101B
  8
245
  6
CENTER2
 10
-66.400000000000063
 20
0.0000000000000284
 30
0.0
 11
166.00000000000071
 21
-0.0000000000000284
 31
0.0
  0
LINE
  5
101C
  8
240
  6
CONTINUOUS
 10
-0.0000000000001137
 20
22.225000000000001
 30
0.0
 11
-64.030891028914823
 21
12.8871617249499
 31
0.0
  0
ARC
  5
101D
  8
240
  6
CONTINUOUS
 10
-63.800000000000061
 20
11.30390895524866
 30
0.0
 40
1.6000000000000001
 50
98.297144969836921
 51
180.0
  0
LINE
  5
101E
  8
240
  6
CONTINUOUS
 10
21.599999999999909
 20
31.500000000000021
 30
0.0
 11
26.999999999991161
 21
31.500000000000242
 31
0.0
  0
LINE
  5
101F
  8
241
  6
HIDDEN2
 10
22.99999999999989
 20
22.5
 30
0.0
 11
1.299999999999897
 21
22.5
 31
0.0
  0
LINE
  5
1020
  8
240
  6
CONTINUOUS
 10
1.999999999999829
 20
31.500000000000021
 30
0.0
 11
11.59999999999993
 21
31.500000000000071
 31
0.0
  0
ARC
  5
1021
  8
240
  6
CONTINUOUS
 10
1.999999999999829
 20
30.500000000000021
 30
0.0
 40
1.0
 50
90.0
 51
180.0000000000023
  0
LINE
  5
1022
  8
240
  6
CONTINUOUS
 10
1.000000000000224
 20
22.225000000001419
 30
0.0
 11
0.9999999999998293
 21
30.500000000000021
 31
0.0
  0
LINE
  5
1023
  8
241
  6
HIDDEN2
 10
22.99999999999989
 20
22.5
 30
0.0
 11
22.99999999999989
 21
31.500000000000021
 31
0.0
  0
LINE
  5
1024
  8
240
  6
CONTINUOUS
 10
26.999999999999829
 20
-31.500000000000171
 30
0.0
 11
27.000000000000171
 21
-30.499999941383368
 31
0.0
  0
LINE
  5
1025
  8
240
  6
CONTINUOUS
 10
26.999999999991161
 20
31.500000000000242
 30
0.0
 11
26.99999999999994
 21
30.499999864898101
 31
0.0
  0
LINE
  5
1026
  8
241
  6
CONTINUOUS
 10
14.486751345948219
 20
-26.49999999999967
 30
0.0
 11
14.48675134594825
 21
0.0000000000000142
 31
0.0
  0
LINE
  5
1027
  8
240
  6
CONTINUOUS
 10
14.486751345948219
 20
-26.49999999999967
 30
0.0
 11
11.59999999999985
 21
-31.500000000000199
 31
0.0
  0
LINE
  5
1028
  8
240
  6
CONTINUOUS
 10
18.713248654051679
 20
-26.49999999999979
 30
0.0
 11
14.486751345948219
 21
-26.49999999999967
 31
0.0
1001
GRPNAME
1000
PASTMD1I
  0
LINE
  5
1029
  8
241
  6
CONTINUOUS
 10
18.713248654051679
 20
-26.49999999999979
 30
0.0
 11
18.713248654051789
 21
0.0000000000000142
 31
0.0
  0
LINE
  5
102A
  8
240
  6
CONTINUOUS
 10
18.713248654051679
 20
-26.49999999999979
 30
0.0
 11
21.599999999999991
 21
-31.5
 31
0.0
  0
LINE
  5
102B
  8
240
  6
CONTINUOUS
 10
21.600000000000279
 20
31.500000000000021
 30
0.0
 11
18.713248654050972
 21
26.499999999999272
 31
0.0
  0
LINE
  5
102C
  8
240
  6
CONTINUOUS
 10
11.599999999999881
 20
31.500000000000071
 30
0.0
 11
14.486751345948759
 21
26.499999999999162
 31
0.0
  0
LINE
  5
102D
  8
240
 10
-0.0000000000001705
 20
-22.224999999999941
 30
0.0
 11
0.9999999999998293
 21
-22.224999999999909
 31
0.0
  0
LINE
  5
102E
  8
241
 10
0.9999999999998293
 20
-22.2249999999996
 30
0.0
 11
0.9999999999998293
 21
0.0
 31
0.0
  0
LINE
  5
102F
  8
241
 10
26.99999999999989
 20
0.0
 30
0.0
 11
26.999999999999861
 21
-30.500000000000028
 31
0.0
  0
LINE
  5
1030
  8
241
  6
CONTINUOUS
 10
14.486751345948219
 20
26.49999999999967
 30
0.0
 11
14.48675134594825
 21
-0.0000000000000142
 31
0.0
  0
LINE
  5
1031
  8
240
  6
CONTINUOUS
 10
18.713248654051679
 20
26.49999999999979
 30
0.0
 11
14.486751345948219
 21
26.49999999999967
 31
0.0
1001
GRPNAME
1000
PASTMD1I
  0
LINE
  5
1032
  8
241
  6
CONTINUOUS
 10
18.713248654051679
 20
26.49999999999979
 30
0.0
 11
18.713248654051789
 21
-0.0000000000000142
 31
0.0
  0
LINE
  5
1033
  8
240
 10
-0.0000000000001705
 20
22.224999999999941
 30
0.0
 11
1.000000000000224
 21
22.225000000001419
 31
0.0
  0
LINE
  5
1034
  8
241
  6
CONTINUOUS
 10
-0.0000000000001705
 20
22.224999999999941
 30
0.0
 11
0.0
 21
0.0
 31
0.0
  0
LINE
  5
1035
  8
241
 10
0.9999999999998293
 20
22.2249999999996
 30
0.0
 11
0.9999999999998293
 21
0.0
 31
0.0
  0
LINE
  5
1036
  8
241
  6
CONTINUOUS
 10
21.599999999999909
 20
31.500000000000021
 30
0.0
 11
21.599999999999909
 21
0.0
 31
0.0
  0
LINE
  5
1037
  8
241
  6
CONTINUOUS
 10
11.599999999999911
 20
0.0
 30
0.0
 11
11.59999999999993
 21
31.500000000000071
 31
0.0
  0
LINE
  5
1038
  8
241
 10
26.99999999999989
 20
0.0
 30
0.0
 11
26.999999999999769
 21
30.500000000000071
 31
0.0
  0
LINE
  5
1039
  8
241
  6
HIDDEN2
 10
105.86602540378929
 20
8.0000000000000426
 30
0.0
 11
162.5000000000008
 21
8.0000000000001439
 31
0.0
  0
LINE
  5
103A
  8
240
 10
126.30000000000059
 20
-26.299999999999571
 30
0.0
 11
126.3000000000002
 21
-26.499999999999378
 31
0.0
  0
LINE
  5
103B
  8
241
 10
119.2999999999976
 20
-0.0000000000000142
 30
0.0
 11
119.30000000000059
 21
-26.7819738167168
 31
0.0
  0
LINE
  5
103C
  8
241
 10
113.2999999999975
 20
-0.0000000000000142
 30
0.0
 11
113.3000000000004
 21
-27.02366565961729
 31
0.0
  0
LINE
  5
103D
  8
241
 10
111.2999999999974
 20
-0.0000000000000142
 30
0.0
 11
111.3000000000001
 21
-27.104229607250652
 31
0.0
  0
LINE
  5
103E
  8
241
 10
105.29999999999769
 20
-0.0000000000000142
 30
0.0
 11
105.3000000000004
 21
-27.345921450150939
 31
0.0
  0
LINE
  5
103F
  8
240
 10
105.821408873526
 20
-26.82451257663244
 30
0.0
 11
110.8189712909347
 21
-26.623200898184962
 31
0.0
  0
LINE
  5
1040
  8
240
 10
105.821408873526
 20
-26.82451257663244
 30
0.0
 11
105.30000000000049
 21
-27.345921450150939
 31
0.0
  0
LINE
  5
1041
  8
240
 10
111.3000000000003
 20
-27.104229607250652
 30
0.0
 11
110.8189712909347
 21
-26.623200898184962
 31
0.0
  0
LINE
  5
1042
  8
240
 10
105.30000000000049
 20
-27.345921450150939
 30
0.0
 11
27.000000000000171
 21
-30.499999941383368
 31
0.0
  0
LINE
  5
1043
  8
240
 10
113.82140887352909
 20
-26.502256786097519
 30
0.0
 11
118.8189712909394
 21
-26.300945107651529
 31
0.0
  0
LINE
  5
1044
  8
240
 10
113.82140887352909
 20
-26.502256786097519
 30
0.0
 11
113.30000000000079
 21
-27.023665659617201
 31
0.0
  0
LINE
  5
1045
  8
240
 10
119.30000000000059
 20
-26.781973816716899
 30
0.0
 11
118.8189712909394
 21
-26.300945107651529
 31
0.0
  0
LINE
  5
1046
  8
240
 10
126.3000000000002
 20
-26.499999999999378
 30
0.0
 11
119.30000000000059
 21
-26.7819738167168
 31
0.0
  0
LINE
  5
1047
  8
240
 10
113.3000000000004
 20
-27.02366565961729
 30
0.0
 11
111.3000000000003
 21
-27.104229607250652
 31
0.0
  0
LINE
  5
1048
  8
240
 10
105.30000002975299
 20
27.345921420381028
 30
0.0
 11
26.99999999999994
 21
30.499999864898101
 31
0.0
  0
LINE
  5
1049
  8
240
 10
164.9999999999917
 20
16.399377385371981
 30
0.0
 11
165.0000000000008
 21
0.0000000000000142
 31
0.0
  0
LINE
  5
104A
  8
240
 10
158.13130645135351
 20
21.000000000000082
 30
0.0
 11
144.84999999998669
 21
20.99999999999979
 31
0.0
  0
LINE
  5
104B
  8
240
 10
163.0260604299686
 20
19.21845524772813
 30
0.0
 11
158.13130645135351
 21
21.000000000000082
 31
0.0
  0
ARC
  5
104C
  8
240
 10
161.9999999999917
 20
16.399377385370439
 30
0.0
 40
3.0
 50
0.000000000029312
 51
69.999999999999915
1001
ASK_MEN_XD
1005
1049
1070
     1
1005
104B
1070
     1
  0
LINE
  5
104D
  8
240
 10
139.07132034354879
 20
22.228679656440519
 30
0.0
 11
135.8786796564296
 21
25.421320343559799
 31
0.0
  0
ARC
  5
104E
  8
240
 10
141.19264068710851
 20
24.350000000000151
 30
0.0
 40
3.0
 50
225.0
 51
269.99999999999841
1001
ASK_MEN_XD
1005
1050
1070
     1
1005
104D
1070
     1
  0
LINE
  5
104F
  8
240
 10
144.84999999998669
 20
20.99999999999979
 30
0.0
 11
144.49999999998931
 21
21.350000000000041
 31
0.0
1001
GRPNAME
1000
PASTMD1P
  0
LINE
  5
1050
  8
240
 10
144.49999999998931
 20
21.350000000000041
 30
0.0
 11
141.19264068710839
 21
21.350000000000151
 31
0.0
  0
ARC
  5
1051
  8
240
 10
133.75735931286999
 20
23.300000000000249
 30
0.0
 40
3.0
 50
45.0
 51
90.000000000001606
1001
ASK_MEN_XD
1005
0
1070
     1
1005
0
1070
     1
  0
LINE
  5
1052
  8
240
 10
133.75735931286991
 20
26.300000000000221
 30
0.0
 11
126.3000000000015
 21
26.29999999999929
 31
0.0
  0
LINE
  5
1053
  8
240
 10
158.13130645135371
 20
-20.999999999999989
 30
0.0
 11
144.8499999999967
 21
-20.999999999999961
 31
0.0
  0
LINE
  5
1054
  8
241
 10
126.2999999999999
 20
-0.0000000000000142
 30
0.0
 11
126.3000000000015
 21
-26.299999999999969
 31
0.0
  0
LINE
  5
1055
  8
240
 10
163.0260604299686
 20
-19.218455247728041
 30
0.0
 11
158.13130645135371
 21
-20.999999999999989
 31
0.0
  0
ARC
  5
1056
  8
240
 10
161.99999999999179
 20
-16.39937738537035
 30
0.0
 40
3.0
 50
290.00000000000011
 51
359.99999999997061
1001
ASK_MEN_XD
1005
1049
1070
     1
1005
104B
1070
     1
  0
LINE
  5
1057
  8
240
 10
139.0713203435489
 20
-22.228679656440409
 30
0.0
 11
135.87867965642971
 21
-25.42132034355971
 31
0.0
  0
LINE
  5
1058
  8
240
 10
144.8499999999967
 20
-20.999999999999961
 30
0.0
 11
144.4999999999894
 21
-21.34999999999998
 31
0.0
1001
GRPNAME
1000
PASTMD1P
  0
LINE
  5
1059
  8
240
 10
144.49999999998931
 20
-21.350000000000041
 30
0.0
 11
141.19264068710851
 21
-21.350000000000041
 31
0.0
  0
ARC
  5
105A
  8
240
 10
141.19264068710851
 20
-24.350000000000041
 30
0.0
 40
3.0
 50
90.0
 51
135.0
1001
ASK_MEN_XD
1005
1057
1070
     1
1005
1059
1070
     1
  0
ARC
  5
105B
  8
240
 10
133.75735931286999
 20
-23.3000000000002
 30
0.0
 40
3.0
 50
269.99999999999841
 51
315.0
1001
ASK_MEN_XD
1005
0
1070
     1
1005
0
1070
     1
  0
LINE
  5
105C
  8
240
 10
133.75735931286999
 20
-26.300000000000171
 30
0.0
 11
126.30000000000059
 21
-26.299999999999571
 31
0.0
  0
LINE
  5
105D
  8
240
 10
164.99999999999179
 20
-16.399377385371888
 30
0.0
 11
165.0000000000008
 21
0.0000000000000711
 31
0.0
  0
LINE
  5
105E
  8
241
 10
134.9999999999892
 20
0.0000000000000142
 30
0.0
 11
134.9999999999892
 21
-26.030539163373628
 31
0.0
  0
LINE
  5
105F
  8
241
 10
139.9499999999893
 20
-21.619460836626661
 30
0.0
 11
139.94999999998859
 21
0.0000000000000426
 31
0.0
  0
LINE
  5
1060
  8
241
 10
144.8499999999967
 20
-20.999999999999901
 30
0.0
 11
144.8499999999967
 21
0.0000000000000711
 31
0.0
  0
LINE
  5
1061
  8
241
 10
158.13130645135371
 20
-20.999999999999989
 30
0.0
 11
158.13130645135359
 21
0.0000000000000426
 31
0.0
  0
LINE
  5
1062
  8
241
 10
134.9999999999892
 20
0.0000000000000711
 30
0.0
 11
134.9999999999892
 21
26.030539163373721
 31
0.0
  0
LINE
  5
1063
  8
241
 10
139.9499999999893
 20
21.61946083662674
 30
0.0
 11
139.94999999998859
 21
0.0000000000000426
 31
0.0
  0
LINE
  5
1064
  8
241
 10
144.8499999999967
 20
20.999999999999989
 30
0.0
 11
144.8499999999967
 21
0.0000000000000142
 31
0.0
  0
LINE
  5
1065
  8
241
 10
158.13130645135359
 20
0.0000000000000711
 30
0.0
 11
158.13130645135371
 21
21.000000000000082
 31
0.0
  0
LINE
  5
1066
  8
241
  6
HIDDEN2
 10
162.5000000000008
 20
8.0499999999992866
 30
0.0
 11
164.9999999999965
 21
8.0499999999984766
 31
0.0
  0
LINE
  5
1067
  8
241
  6
HIDDEN2
 10
162.5000000000008
 20
12.065837971092829
 30
0.0
 11
162.50000000000071
 21
-0.0000000000000568
 31
0.0
  0
LINE
  5
1068
  8
240
 10
126.30000000000059
 20
26.29999999999955
 30
0.0
 11
126.3000000000002
 21
26.499999999999329
 31
0.0
  0
LINE
  5
1069
  8
240
 10
105.821408873526
 20
26.824512576632419
 30
0.0
 11
110.8189712909347
 21
26.623200898184919
 31
0.0
  0
LINE
  5
106A
  8
240
 10
105.821408873526
 20
26.824512576632419
 30
0.0
 11
105.30000000000059
 21
27.345921450150922
 31
0.0
  0
LINE
  5
106B
  8
240
 10
111.3000000000004
 20
27.10422960725062
 30
0.0
 11
110.8189712909347
 21
26.623200898184919
 31
0.0
  0
LINE
  5
106C
  8
240
 10
113.82140887352909
 20
26.50225678609748
 30
0.0
 11
118.8189712909394
 21
26.300945107651518
 31
0.0
  0
LINE
  5
106D
  8
240
 10
113.82140887352909
 20
26.50225678609748
 30
0.0
 11
113.30000000000079
 21
27.02366565961718
 31
0.0
  0
LINE
  5
106E
  8
240
 10
119.30000000000059
 20
26.781973816716871
 30
0.0
 11
118.8189712909394
 21
26.300945107651518
 31
0.0
  0
LINE
  5
106F
  8
240
 10
126.3000000000002
 20
26.499999999999329
 30
0.0
 11
119.30000000000059
 21
26.781973816716761
 31
0.0
  0
LINE
  5
1070
  8
240
 10
113.3000000000004
 20
27.023665659617269
 30
0.0
 11
111.3000000000004
 21
27.10422960725062
 31
0.0
  0
LINE
  5
1071
  8
241
 10
119.2999999999976
 20
-0.0000000000000142
 30
0.0
 11
119.30000000000059
 21
26.781973816716761
 31
0.0
  0
LINE
  5
1072
  8
241
 10
113.2999999999975
 20
-0.0000000000000142
 30
0.0
 11
113.3000000000004
 21
27.023665659617269
 31
0.0
  0
LINE
  5
1073
  8
241
 10
111.2999999999974
 20
-0.0000000000000142
 30
0.0
 11
111.3000000000002
 21
27.10422960725062
 31
0.0
  0
LINE
  5
1074
  8
241
 10
105.29999999999769
 20
0.0
 30
0.0
 11
105.3000000000004
 21
27.345921450150922
 31
0.0
  0
LINE
  5
1075
  8
241
 10
126.2999999999999
 20
-0.0000000000000142
 30
0.0
 11
126.3000000000016
 21
26.299999999999951
 31
0.0
  0
LINE
  5
1076
  8
250
 10
93.999999999996476
 20
8.4999999999999005
 30
0.0
 11
93.999999999996476
 21
42.999999999999922
 31
0.0
  0
LINE
  5
1077
  8
250
 10
164.9999999999917
 20
16.89937738537202
 30
0.0
 11
164.9999999999917
 21
42.999999999999922
 31
0.0
  0
LINE
  5
1078
  8
250
 10
95.999999999996504
 20
41.999999999999929
 30
0.0
 11
162.9999999999917
 21
41.999999999999929
 31
0.0
  0
LINE
  5
107C
  8
250
 10
134.25735931286999
 20
-26.300000000000221
 30
0.0
 11
188.99999999999849
 21
-26.300000000000239
 31
0.0
  0
LINE
  5
107D
  8
250
 10
134.25735931286991
 20
26.300000000000171
 30
0.0
 11
188.99999999999849
 21
26.30000000000015
 31
0.0
  0
LINE
  5
107E
  8
250
 10
187.99999999999849
 20
-24.300000000000249
 30
0.0
 11
187.99999999999849
 21
24.30000000000015
 31
0.0
  0
LINE
  5
1082
  8
250
 10
158.63130645135371
 20
-21.000000000000039
 30
0.0
 11
181.99999999999849
 21
-21.000000000000039
 31
0.0
  0
LINE
  5
1083
  8
250
 10
158.63130645135371
 20
21.000000000000082
 30
0.0
 11
181.99999999999849
 21
21.000000000000082
 31
0.0
  0
LINE
  5
1084
  8
250
 10
180.99999999999849
 20
-19.00000000000005
 30
0.0
 11
180.99999999999849
 21
19.000000000000071
 31
0.0
  0
LINE
  5
1088
  8
250
 10
162.99999999999829
 20
8.0000000000000124
 30
0.0
 11
174.99999999999849
 21
8.0000000000000089
 31
0.0
  0
LINE
  5
1089
  8
250
 10
173.99999999999849
 20
-6.000000000000127
 30
0.0
 11
173.99999999999849
 21
6.0000000000000071
 31
0.0
  0
INSERT
  5
108A
  8
250
  6
CONTINUOUS
  2
矢印なし
 10
173.99999999999849
 20
-8.0000000000001315
 30
0.0
 41
2.0
 42
2.0
 43
2.0
 50
270.0
  0
INSERT
  5
108C
  8
252
  2
*U13
 10
0.0
 20
0.0
 30
0.0
  0
LINE
  5
108D
  8
250
 10
-0.0000000000004973
 20
22.724999999999941
 30
0.0
 11
-0.0000000000004957
 21
49.999999999999922
 31
0.0
  0
LINE
  5
108E
  8
250
 10
164.9999999999917
 20
16.89937738537192
 30
0.0
 11
164.9999999999917
 21
49.999999999999922
 31
0.0
  0
LINE
  5
108F
  8
250
 10
1.9999999999995031
 20
48.99999999999995
 30
0.0
 11
162.9999999999917
 21
48.99999999999995
 31
0.0
  0
TEXT
  5
1093
  8
250
 10
-63.72303755680079
 20
-27.151483684754961
 30
0.0
 40
2.799999999999998
  1
BBT40
  7
YOKO
1001
ITEMNAME
1000
LNSP3
1001
ACAD
1000
MTEXTBEGIN
1070
    73
1070
     1
1070
    44
1040
1.0
1070
    74
1070
     0
1000
MTEXTEND
  0
POLYLINE
  5
1095
  8
250
 66
     1
 10
0.0
 20
0.0
 30
0.0
1001
ACAD
1000
DSTYLE
1002
{
1070
    41
1040
2.0
1002
}
  0
VERTEX
  5
1128
  8
250
 10
-42.352925238793517
 20
-17.926415876911509
 30
0.0
  0
VERTEX
  5
1129
  8
250
 10
-48.256370890134122
 20
-28.151483684754961
 30
0.0
  0
SEQEND
  5
112A
  8
250
  0
TEXT
  5
1096
  8
250
 10
118.87333333332739
 20
42.999999999999929
 30
0.0
 40
2.799999999999998
  1
（max.71）
1001
ACAD
1000
MTEXTBEGIN
1070
    73
1070
     1
1070
    44
1040
1.0
1070
    74
1070
     0
1000
MTEXTEND
  0
LINE
  5
1097
  8
250
 10
162.9999999999917
 20
42.333333333333258
 30
0.0
 11
164.9999999999917
 21
41.999999999999929
 31
0.0
  0
LINE
  5
1098
  8
250
 10
162.9999999999917
 20
41.666666666666593
 30
0.0
 11
164.9999999999917
 21
41.999999999999929
 31
0.0
  0
LINE
  5
1099
  8
250
 10
164.9999999999917
 20
41.999999999999929
 30
0.0
 11
162.9999999999917
 21
41.999999999999929
 31
0.0
  0
LINE
  5
109A
  8
250
 10
95.99999999999649
 20
41.666666666666593
 30
0.0
 11
93.999999999996476
 21
41.999999999999929
 31
0.0
  0
LINE
  5
109B
  8
250
 10
95.99999999999649
 20
42.333333333333258
 30
0.0
 11
93.999999999996476
 21
41.999999999999929
 31
0.0
  0
LINE
  5
109C
  8
250
 10
93.999999999996476
 20
41.999999999999929
 30
0.0
 11
95.99999999999649
 21
41.999999999999929
 31
0.0
  0
TEXT
  5
109D
  8
250
 10
78.299999999995634
 20
49.999999999999929
 30
0.0
 40
2.799999999999998
  1
165
1001
ACAD
1000
MTEXTBEGIN
1070
    73
1070
     1
1070
    44
1040
1.0
1070
    74
1070
     0
1000
MTEXTEND
  0
LINE
  5
109E
  8
250
 10
162.9999999999917
 20
49.333333333333293
 30
0.0
 11
164.9999999999917
 21
48.99999999999995
 31
0.0
  0
LINE
  5
109F
  8
250
 10
162.9999999999917
 20
48.666666666666607
 30
0.0
 11
164.9999999999917
 21
48.99999999999995
 31
0.0
  0
LINE
  5
10A0
  8
250
 10
164.9999999999917
 20
48.99999999999995
 30
0.0
 11
162.9999999999917
 21
48.99999999999995
 31
0.0
  0
LINE
  5
10A1
  8
250
 10
1.999999999999504
 20
48.666666666666607
 30
0.0
 11
-0.0000000000004957
 21
48.99999999999995
 31
0.0
  0
LINE
  5
10A2
  8
250
 10
1.999999999999504
 20
49.333333333333293
 30
0.0
 11
-0.0000000000004957
 21
48.99999999999995
 31
0.0
  0
LINE
  5
10A3
  8
250
 10
-0.0000000000004957
 20
48.99999999999995
 30
0.0
 11
1.999999999999504
 21
48.99999999999995
 31
0.0
  0
TEXT
  5
10A4
  8
250
 10
186.99999999999849
 20
-5.9333333333333442
 30
0.0
 40
2.7999999999999989
  1
\U+2205
 50
90.0
1001
ACAD
1000
MTEXTBEGIN
1070
    73
1070
     1
1070
    44
1040
1.0
1070
    74
1070
     0
1000
MTEXTEND
  0
TEXT
  5
10A5
  8
250
 10
186.99999999999849
 20
-3.400000000000011
 30
0.0
 40
2.799999999999998
  1
52.6
 50
90.0
1001
ACAD
1000
MTEXTBEGIN
1070
    73
1070
     1
1070
    44
1040
1.0
1070
    74
1070
     0
1000
MTEXTEND
  0
LINE
  5
10A6
  8
250
 10
187.66666666666521
 20
24.30000000000015
 30
0.0
 11
187.99999999999849
 21
26.30000000000015
 31
0.0
  0
LINE
  5
10A7
  8
250
 10
188.33333333333181
 20
24.30000000000015
 30
0.0
 11
187.99999999999849
 21
26.30000000000015
 31
0.0
  0
LINE
  5
10A8
  8
250
 10
187.99999999999849
 20
26.30000000000015
 30
0.0
 11
187.99999999999849
 21
24.30000000000015
 31
0.0
  0
LINE
  5
10A9
  8
250
 10
188.33333333333181
 20
-24.300000000000239
 30
0.0
 11
187.99999999999849
 21
-26.300000000000239
 31
0.0
  0
LINE
  5
10AA
  8
250
 10
187.66666666666521
 20
-24.300000000000239
 30
0.0
 11
187.99999999999849
 21
-26.300000000000239
 31
0.0
  0
LINE
  5
10AB
  8
250
 10
187.99999999999849
 20
-26.300000000000239
 30
0.0
 11
187.99999999999849
 21
-24.300000000000239
 31
0.0
  0
TEXT
  5
10AC
  8
250
 10
179.99999999999849
 20
-3.9333333333332878
 30
0.0
 40
2.7999999999999989
  1
\U+2205
 50
90.0
1001
ACAD
1000
MTEXTBEGIN
1070
    73
1070
     1
1070
    44
1040
1.0
1070
    74
1070
     0
1000
MTEXTEND
  0
TEXT
  5
10AD
  8
250
 10
179.99999999999849
 20
-1.3999999999999551
 30
0.0
 40
2.799999999999998
  1
42
 50
90.0
1001
ACAD
1000
MTEXTBEGIN
1070
    73
1070
     1
1070
    44
1040
1.0
1070
    74
1070
     0
1000
MTEXTEND
  0
LINE
  5
10AE
  8
250
 10
180.66666666666521
 20
19.000000000000082
 30
0.0
 11
180.99999999999849
 21
21.000000000000082
 31
0.0
  0
LINE
  5
10AF
  8
250
 10
181.33333333333181
 20
19.000000000000082
 30
0.0
 11
180.99999999999849
 21
21.000000000000082
 31
0.0
  0
LINE
  5
10B0
  8
250
 10
180.99999999999849
 20
21.000000000000082
 30
0.0
 11
180.99999999999849
 21
19.000000000000082
 31
0.0
  0
LINE
  5
10B1
  8
250
 10
181.33333333333181
 20
-19.000000000000039
 30
0.0
 11
180.99999999999849
 21
-21.000000000000039
 31
0.0
  0
LINE
  5
10B2
  8
250
 10
180.66666666666521
 20
-19.000000000000039
 30
0.0
 11
180.99999999999849
 21
-21.000000000000039
 31
0.0
  0
LINE
  5
10B3
  8
250
 10
180.99999999999849
 20
-21.000000000000039
 30
0.0
 11
180.99999999999849
 21
-19.000000000000039
 31
0.0
  0
LINE
  5
10B4
  8
250
 10
173.66666666666521
 20
6.000000000000008
 30
0.0
 11
173.99999999999849
 21
8.0000000000000089
 31
0.0
  0
LINE
  5
10B5
  8
250
 10
174.33333333333181
 20
6.000000000000008
 30
0.0
 11
173.99999999999849
 21
8.0000000000000089
 31
0.0
  0
LINE
  5
10B6
  8
250
 10
173.99999999999849
 20
8.0000000000000089
 30
0.0
 11
173.99999999999849
 21
6.000000000000008
 31
0.0
  0
LINE
  5
10B7
  8
250
 10
-42.641600373388329
 20
-17.759749210244841
 30
0.0
 11
-41.352925238793517
 21
-16.194365069342631
 31
0.0
  0
LINE
  5
10B8
  8
250
 10
-42.064250104198713
 20
-18.09308254357817
 30
0.0
 11
-41.352925238793517
 21
-16.194365069342631
 31
0.0
  0
LINE
  5
10B9
  8
250
 10
-41.352925238793517
 20
-16.194365069342631
 30
0.0
 11
-42.352925238793517
 21
-17.926415876911509
 31
0.0
  0
VIEWPORT
  5
22
 67
     1
  8
0
 10
261.51769911504419
 20
148.5
 30
0.0
 40
523.0353982300885
 41
297.0
 68
     1
 69
     1
1001
ACAD
1000
MVIEW
1002
{
1070
    16
1010
0.0
1020
0.0
1030
0.0
1010
0.0
1020
0.0
1030
1.0
1040
0.0
1040
297.0
1040
261.51769911504419
1040
148.5
1040
50.0
1040
0.0
1040
0.0
1070
     0
1070
   100
1070
     1
1070
     1
1070
     0
1070
     0
1070
     0
1070
     0
1040
0.0
1040
0.0
1040
0.0
1040
1.0
1040
1.0
1040
10.0
1040
10.0
1070
     0
1002
{
1002
}
1002
}
1001
GENIUS_GENODEF_13
1002
{
1000
HIER
1070
     0
1002
}
1002
{
1000
MANEDIT
1070
     0
1002
}
1002
{
1000
NOSEL
1070
     0
1002
}
1002
{
1000
BEHIND
1070
     0
1002
}
1002
{
1000
OTHER
1070
     0
1002
}
1002
{
1000
REACTOR
1002
}
1001
GENIUS_GENOBJ-N-SDF_13
1002
{
1000
OWNER
1000
GEN
1002
}
1001
GENIUS_GENSCREG_15
1000
PF
1040
1.0
1000
DF
1040
1.0
1000
MIN
1011
0.0
1021
0.0
1031
0.0
1021
0.0
1031
0.0
1000
MAX
1011
523.0353982300885
1021
0.0
1031
0.0
1021
297.0
1031
0.0
1000
FLAGS
1070
     4
  0
ENDSEC
  0
EOF
