  0
SECTION
  2
HEADER
  9
$ACADVER
  1
AC1009
  9
$INSBASE
 10
0.0
 20
0.0
 30
0.0
  9
$EXTMIN
 10
-66.422178821985085
 20
-31.514739090559889
 30
-0.0000000349181948
  9
$EXTMAX
 10
159.01846178163669
 20
68.001656488980984
 30
0.0000000814935747
  9
$LIMMIN
 10
0.0
 20
0.0
  9
$LIMMAX
 10
297.0
 20
210.0
  9
$ORTHOMODE
 70
     0
  9
$REGENMODE
 70
     1
  9
$FILLMODE
 70
     1
  9
$QTEXTMODE
 70
     0
  9
$MIRRTEXT
 70
     1
  9
$DRAGMODE
 70
     2
  9
$LTSCALE
 40
10.0
  9
$OSMODE
 70
    37
  9
$ATTMODE
 70
     1
  9
$TEXTSIZE
 40
3.0
  9
$TRACEWID
 40
1.0
  9
$TEXTSTYLE
  7
YOKO
  9
$CLAYER
  8
245
  9
$CELTYPE
  6
BYLAYER
  9
$CECOLOR
 62
   256
  9
$DIMSCALE
 40
1.0
  9
$DIMASZ
 40
2.0
  9
$DIMEXO
 40
0.5
  9
$DIMDLI
 40
2.5
  9
$DIMRND
 40
0.0
  9
$DIMDLE
 40
0.0
  9
$DIMEXE
 40
1.0
  9
$DIMTP
 40
0.0
  9
$DIMTM
 40
0.0
  9
$DIMTXT
 40
2.799999999999998
  9
$DIMCEN
 40
0.0
  9
$DIMTSZ
 40
0.0
  9
$DIMTOL
 70
     0
  9
$DIMLIM
 70
     0
  9
$DIMTIH
 70
     0
  9
$DIMTOH
 70
     0
  9
$DIMSE1
 70
     0
  9
$DIMSE2
 70
     0
  9
$DIMTAD
 70
     3
  9
$DIMZIN
 70
     8
  9
$DIMBLK
  1

  9
$DIMASO
 70
     1
  9
$DIMSHO
 70
     1
  9
$DIMPOST
  1

  9
$DIMAPOST
  1

  9
$DIMALT
 70
     0
  9
$DIMALTD
 70
     2
  9
$DIMALTF
 40
25.399999999999999
  9
$DIMLFAC
 40
1.0
  9
$DIMTOFL
 70
     1
  9
$DIMTVP
 40
0.0
  9
$DIMTIX
 70
     1
  9
$DIMSOXD
 70
     0
  9
$DIMSAH
 70
     1
  9
$DIMBLK1
  1
OPEN
  9
$DIMBLK2
  1
OPEN
  9
$DIMSTYLE
  2
BIGT
  9
$DIMCLRD
 70
   256
  9
$DIMCLRE
 70
   256
  9
$DIMCLRT
 70
    40
  9
$DIMTFAC
 40
1.0
  9
$DIMGAP
 40
1.0
  9
$LUNITS
 70
     2
  9
$LUPREC
 70
     3
  9
$SKETCHINC
 40
1.0
  9
$FILLETRAD
 40
0.0
  9
$AUNITS
 70
     0
  9
$AUPREC
 70
     3
  9
$MENU
  1
.
  9
$ELEVATION
 40
0.0
  9
$PELEVATION
 40
0.0
  9
$THICKNESS
 40
0.0
  9
$LIMCHECK
 70
     0
  9
$BLIPMODE
 70
     0
  9
$CHAMFERA
 40
10.0
  9
$CHAMFERB
 40
10.0
  9
$SKPOLY
 70
     0
  9
$TDCREATE
 40
2456316.588919803
  9
$TDUPDATE
 40
2456875.4311831598
  9
$TDINDWG
 40
0.0122846412
  9
$TDUSRTIMER
 40
0.012277581
  9
$USRTIMER
 70
     1
  9
$ANGBASE
 50
0.0
  9
$ANGDIR
 70
     0
  9
$PDMODE
 70
     1
  9
$PDSIZE
 40
-5.0
  9
$PLINEWID
 40
0.0
  9
$COORDS
 70
     1
  9
$SPLFRAME
 70
     0
  9
$SPLINETYPE
 70
     6
  9
$SPLINESEGS
 70
     8
  9
$ATTDIA
 70
     1
  9
$ATTREQ
 70
     1
  9
$HANDLING
 70
     1
  9
$HANDSEED
  5
105B
  9
$SURFTAB1
 70
     6
  9
$SURFTAB2
 70
     6
  9
$SURFTYPE
 70
     6
  9
$SURFU
 70
     6
  9
$SURFV
 70
     6
  9
$UCSNAME
  2

  9
$UCSORG
 10
0.0
 20
0.0
 30
0.0
  9
$UCSXDIR
 10
1.0
 20
0.0
 30
0.0
  9
$UCSYDIR
 10
0.0
 20
1.0
 30
0.0
  9
$PUCSNAME
  2

  9
$PUCSORG
 10
0.0
 20
0.0
 30
0.0
  9
$PUCSXDIR
 10
1.0
 20
0.0
 30
0.0
  9
$PUCSYDIR
 10
0.0
 20
1.0
 30
0.0
  9
$USERI1
 70
     1
  9
$USERI2
 70
     0
  9
$USERI3
 70
     0
  9
$USERI4
 70
     0
  9
$USERI5
 70
     0
  9
$USERR1
 40
0.0
  9
$USERR2
 40
0.0
  9
$USERR3
 40
0.0
  9
$USERR4
 40
0.0
  9
$USERR5
 40
0.0
  9
$WORLDVIEW
 70
     1
  9
$SHADEDGE
 70
     3
  9
$SHADEDIF
 70
    70
  9
$TILEMODE
 70
     1
  9
$MAXACTVP
 70
    16
  9
$PLIMCHECK
 70
     0
  9
$PEXTMIN
 10
1.0000000000000000E+020
 20
1.0000000000000000E+020
 30
1.0000000000000000E+020
  9
$PEXTMAX
 10
-1.0000000000000000E+020
 20
-1.0000000000000000E+020
 30
-1.0000000000000000E+020
  9
$PLIMMIN
 10
0.0
 20
0.0
  9
$PLIMMAX
 10
420.0
 20
297.0
  9
$UNITMODE
 70
     0
  9
$VISRETAIN
 70
     0
  9
$PLINEGEN
 70
     0
  9
$PSLTSCALE
 70
     1
  0
ENDSEC
  0
SECTION
  2
TABLES
  0
TABLE
  2
VPORT
 70
     1
  0
VPORT
  2
*ACTIVE
 70
     0
 10
0.0
 20
0.0
 11
1.0
 21
1.0
 12
46.29814147982578
 22
18.24345869921056
 13
0.0
 23
0.0
 14
7.0
 24
7.0
 15
7.0
 25
7.0
 16
0.0
 26
0.0
 36
1.0
 17
0.0
 27
0.0
 37
0.0
 40
181.6676142065682
 41
1.247144340602284
 42
50.0
 43
0.0
 44
0.0
 50
0.0
 51
0.0
 71
     0
 72
 20000
 73
     1
 74
     0
 75
     0
 76
     0
 77
     0
 78
     0
  0
ENDTAB
  0
TABLE
  2
LTYPE
 70
    13
  0
LTYPE
  2
CONTINUOUS
 70
     0
  3
Solid line
 72
    65
 73
     0
 40
0.0
  0
LTYPE
  2
CENTER2
 70
     0
  3
___ _ ___ _ ___ _ ___ _ ___ _ ___ _ ___ _ ___ _
 72
    65
 73
     4
 40
1.125
 49
0.75
 49
-0.125
 49
0.125
 49
-0.125
  0
LTYPE
  2
HIDDEN2
 70
     0
  3
_ _ _ _ _ _ _ _ _ _ _ _ _ _ _ _ _ _ _ _ _ _ _ _
 72
    65
 73
     2
 40
0.1875
 49
0.125
 49
-0.0625
  0
LTYPE
  2
PHANTOM2
 70
     0
  3
___ _ _ ___ _ _ ___ _ _ ___ _ _ ___ _ _ ___ _ _
 72
    65
 73
     6
 40
1.25
 49
0.625
 49
-0.125
 49
0.125
 49
-0.125
 49
0.125
 49
-0.125
  0
LTYPE
  2
AMCONSTR
 70
     0
  3
_______________________
 72
    65
 73
     2
 40
9999.0
 49
9999.0
 49
0.0
  0
LTYPE
  2
AM_ISO02W050
 70
     0
  3
__ __ __ __ __ __ __ __ __ __ __ __ __ __ __
 72
    65
 73
     2
 40
7.5
 49
6.0
 49
-1.5
  0
LTYPE
  2
ACJISTGB
 70
     0
  3
__ . . __ . .
 72
    65
 73
     6
 40
9.0
 49
4.0
 49
-1.0
 49
1.0
 49
-1.0
 49
1.0
 49
-1.0
  0
LTYPE
  2
ACJISTGL
 70
     0
  3
_ _ _ _ _
 72
    65
 73
     2
 40
3.0
 49
2.0
 49
-1.0
  0
LTYPE
  2
ACISOWELD
 70
     0
  3
_ _ _ _ _
 72
    65
 73
     2
 40
2.0
 49
2.0
 49
-1.0
  0
LTYPE
  2
ACISOTGB
 70
     0
  3
__ . . __ . .
 72
    65
 73
     6
 40
9.0
 49
4.0
 49
-1.0
 49
1.0
 49
-1.0
 49
1.0
 49
-1.0
  0
LTYPE
  2
ACISOTGL
 70
     0
  3
_ _ _ _ _
 72
    65
 73
     2
 40
3.0
 49
2.0
 49
-1.0
  0
ENDTAB
  0
TABLE
  2
LAYER
 70
     6
  0
LAYER
  2
0
 70
     0
 62
     7
  6
CONTINUOUS
  0
LAYER
  2
240
 70
     0
 62
     4
  6
CONTINUOUS
  0
LAYER
  2
241
 70
     0
 62
   211
  6
CONTINUOUS
  0
LAYER
  2
245
 70
     0
 62
     2
  6
CENTER2
  0
LAYER
  2
250
 70
     0
 62
     3
  6
CONTINUOUS
  0
LAYER
  2
DEFPOINTS
 70
     0
 62
     7
  6
CONTINUOUS
  0
ENDTAB
  0
TABLE
  2
STYLE
 70
     6
  0
STYLE
  2
STANDARD
 70
     0
 40
0.0
 41
1.0
 50
0.0
 71
     0
 42
3.0
  3
romans.shx
  4
BIGFONT.SHX
  0
STYLE
  2
YOKO
 70
     0
 40
0.0
 41
1.0
 50
0.0
 71
     0
 42
3.0
  3
romans.shx
  4
extfont.shx
  0
STYLE
  2
ACJISTS
 70
     0
 40
1.0
 41
1.0
 50
0.0
 71
     0
 42
3.0
  3
amgdt.shx
  4
extfont.shx
  0
STYLE
  2
ACJISGDT
 70
     0
 40
0.0
 41
1.0
 50
0.0
 71
     0
 42
3.0
  3
amgdt.shx
  4
extfont.shx
  0
STYLE
  2
ACISOTS
 70
     0
 40
1.0
 41
1.0
 50
0.0
 71
     0
 42
3.0
  3
amgdt.shx
  4
extfont.shx
  0
STYLE
  2
ACISOGDT
 70
     0
 40
0.0
 41
1.0
 50
0.0
 71
     0
 42
3.0
  3
amgdt.shx
  4
extfont.shx
  0
ENDTAB
  0
TABLE
  2
VIEW
 70
     0
  0
ENDTAB
  0
TABLE
  2
UCS
 70
     0
  0
ENDTAB
  0
TABLE
  2
APPID
 70
    37
  0
APPID
  2
ACAD
 70
     0
  0
APPID
  2
GLOBAL
 70
     0
  0
APPID
  2
DETAIL
 70
     0
  0
APPID
  2
GRPNAME
 70
     0
  0
APPID
  2
GPARA
 70
     0
  0
APPID
  2
DCO15
 70
     0
  0
APPID
  2
ITEMNAME
 70
     0
  0
APPID
  2
GRADE_0
 70
     0
  0
APPID
  2
ASK_MEN_XD
 70
     0
  0
APPID
  2
LAYER_SCALE
 70
     0
  0
APPID
  2
MCAD_NO_VIS
 70
     0
  0
APPID
  2
ACAD_TEMP_GRAPHIC
 70
     0
  0
APPID
  2
ACATTRIBSERVICES
 70
     0
  0
APPID
  2
GENIUS_GENSCREG_15
 70
     0
  0
APPID
  2
GENIUS_GENODEF_13
 70
     0
  0
APPID
  2
GENIUS_GENOBJ-N-SDF_13
 70
     0
  0
APPID
  2
GENIUS_GENREC_14
 70
     0
  0
APPID
  2
GENIUS_GENOBJ-N-REC_13
 70
     0
  0
APPID
  2
GENIUS_GENDIMSH_14
 70
     0
  0
APPID
  2
GENIUS_GENOBJ-N-DIM_13
 70
     0
  0
APPID
  2
GENIUS_GENDIM_13
 70
     0
  0
APPID
  2
GENIUS_GENDTOL_13
 70
     0
  0
APPID
  2
GENIUS_GENOLIS_13
 70
     0
  0
APPID
  2
GENIUS_GENOENT_13
 70
     0
  0
APPID
  2
GENIUS_GENOBJ-F-FEM_13
 70
     0
  0
APPID
  2
GENIUS_GENOREF_13
 70
     0
  0
APPID
  2
GENIUS_GEFFEM_13
 70
     0
  0
APPID
  2
GENIUS_GEFFEMP_13
 70
     0
  0
APPID
  2
AD_DRAW
 70
     0
  0
APPID
  2
DESIGNERASSEMBLIES
 70
     0
  0
APPID
  2
ACADM_DIM_EDIT
 70
     0
  0
APPID
  2
AMDT_DM_ADJ
 70
     0
  0
APPID
  2
GENIUS_GENOBJ-N-FIL_13
 70
     0
  0
APPID
  2
GENIUS_GENFIL_13
 70
     0
  0
APPID
  2
GENIUS_GENOBJ-N-CHA_13
 70
     0
  0
APPID
  2
ACAD_NAV_VCDISPLAY
 70
     0
  0
APPID
  2
ACAD_MLEADERVER
 70
     0
  0
ENDTAB
  0
TABLE
  2
DIMSTYLE
 70
    23
  0
DIMSTYLE
  2
BIGT
 70
     0
  3

  4

  5
OPEN
  6

  7

 40
1.0
 41
2.2299999999999991
 42
0.5
 43
7.0
 44
1.0
 45
0.0
 46
0.0
 47
0.0
 48
0.01
140
2.7999999999999989
141
0.0
142
0.0
143
25.399999999999999
144
1.0
145
0.0
146
1.0
147
1.0
 71
     0
 72
     0
 73
     0
 74
     0
 75
     0
 76
     0
 77
     3
 78
     9
170
     0
171
     2
172
     1
173
     0
174
     1
175
     0
176
   256
177
   256
178
    40
  0
DIMSTYLE
  2
BIGT$0
 70
     0
  3

  4

  5
OPEN
  6

  7

 40
1.0
 41
2.2299999999999991
 42
0.5
 43
7.0
 44
1.0
 45
0.0
 46
0.0
 47
0.0
 48
0.01
140
2.7999999999999989
141
0.0
142
0.0
143
25.399999999999999
144
1.0
145
0.0
146
1.0
147
1.0
 71
     0
 72
     0
 73
     0
 74
     0
 75
     0
 76
     0
 77
     3
 78
     9
170
     0
171
     2
172
     1
173
     0
174
     1
175
     0
176
   256
177
   256
178
    40
  0
DIMSTYLE
  2
BIGT$2
 70
     0
  3

  4

  5
OPEN
  6

  7

 40
1.0
 41
2.2299999999999991
 42
0.5
 43
7.0
 44
1.0
 45
0.0
 46
0.0
 47
0.0
 48
0.01
140
2.7999999999999989
141
0.0
142
0.0
143
25.399999999999999
144
1.0
145
0.0
146
1.0
147
1.0
 71
     0
 72
     0
 73
     0
 74
     0
 75
     0
 76
     0
 77
     3
 78
     9
170
     0
171
     2
172
     1
173
     0
174
     0
175
     0
176
   256
177
   256
178
    40
  0
DIMSTYLE
  2
BIGT$3
 70
     0
  3

  4

  5
OPEN
  6

  7

 40
1.0
 41
2.2299999999999991
 42
0.5
 43
2.5
 44
1.0
 45
0.0
 46
0.0
 47
0.0
 48
0.01
140
2.7999999999999989
141
0.0
142
0.0
143
25.399999999999999
144
1.0
145
0.0
146
1.0
147
1.0
 71
     0
 72
     0
 73
     0
 74
     0
 75
     0
 76
     0
 77
     3
 78
     9
170
     0
171
     2
172
     1
173
     0
174
     0
175
     0
176
   256
177
   256
178
    40
  0
DIMSTYLE
  2
BIGT$4
 70
     0
  3

  4

  5
OPEN
  6

  7

 40
1.0
 41
2.2299999999999991
 42
0.5
 43
2.5
 44
1.0
 45
0.0
 46
0.0
 47
0.0
 48
0.01
140
2.7999999999999989
141
0.0
142
0.0
143
25.399999999999999
144
1.0
145
0.0
146
1.0
147
1.0
 71
     0
 72
     0
 73
     0
 74
     0
 75
     0
 76
     0
 77
     3
 78
     9
170
     0
171
     2
172
     1
173
     0
174
     0
175
     0
176
   256
177
   256
178
    40
  0
DIMSTYLE
  2
BIGT$6
 70
     0
  3

  4

  5
OPEN
  6

  7

 40
1.0
 41
2.2299999999999991
 42
0.5
 43
2.5
 44
1.0
 45
0.0
 46
0.0
 47
0.0
 48
0.01
140
2.7999999999999989
141
0.0
142
0.0
143
25.399999999999999
144
1.0
145
0.0
146
1.0
147
1.0
 71
     0
 72
     0
 73
     0
 74
     0
 75
     0
 76
     0
 77
     3
 78
     9
170
     0
171
     2
172
     1
173
     0
174
     0
175
     0
176
   256
177
   256
178
    40
  0
DIMSTYLE
  2
BIGT$7
 70
     0
  3

  4

  5
OPEN
  6

  7

 40
0.0
 41
2.2299999999999991
 42
0.5
 43
7.0
 44
1.0
 45
0.0
 46
0.0
 47
0.0
 48
0.01
140
2.7999999999999989
141
0.0
142
0.0
143
25.399999999999999
144
1.0
145
0.0
146
1.0
147
1.0
 71
     0
 72
     0
 73
     0
 74
     0
 75
     0
 76
     0
 77
     3
 78
     9
170
     0
171
     2
172
     0
173
     0
174
     0
175
     0
176
   256
177
   256
178
    40
  0
DIMSTYLE
  2
BIGT$SF
 70
     0
  3

  4

  5
OPEN
  6

  7

 40
1.0
 41
2.2299999999999991
 42
0.5
 43
7.0
 44
1.0
 45
0.0
 46
0.0
 47
0.0
 48
0.0
140
2.7999999999999989
141
0.0
142
0.0
143
25.399999999999999
144
1.0
145
0.0
146
1.0
147
1.0
 71
     0
 72
     0
 73
     0
 74
     0
 75
     0
 76
     0
 77
     3
 78
     9
170
     0
171
     2
172
     1
173
     0
174
     0
175
     0
176
   256
177
   256
178
    40
  0
DIMSTYLE
  2
BIGT$SH
 70
     0
  3

  4

  5
OPEN
  6

  7

 40
1.0
 41
2.2299999999999991
 42
0.5
 43
7.0
 44
1.0
 45
0.0
 46
0.0
 47
0.0
 48
0.0
140
2.7999999999999989
141
0.0
142
0.0
143
25.399999999999999
144
1.0
145
0.0
146
1.0
147
1.0
 71
     0
 72
     0
 73
     0
 74
     0
 75
     0
 76
     0
 77
     3
 78
     9
170
     0
171
     2
172
     1
173
     0
174
     0
175
     0
176
   256
177
   256
178
    40
  0
DIMSTYLE
  2
AM_ISO
 70
     0
  3

  4
"
  5

  6

  7

 40
1.0
 41
2.5
 42
1.0
 43
10.0
 44
1.0
 45
0.0
 46
0.0
 47
0.1
 48
0.1
140
3.5
141
0.0
142
0.0
143
0.0393701
144
1.0
145
0.0
146
0.71
147
1.5
 71
     0
 72
     0
 73
     0
 74
     0
 75
     0
 76
     0
 77
     1
 78
     8
170
     0
171
     2
172
     1
173
     0
174
     0
175
     0
176
   256
177
   256
178
     2
  0
DIMSTYLE
  2
AM_ISO$3
 70
     0
  3

  4
"
  5

  6

  7

 40
1.0
 41
2.5
 42
1.0
 43
10.0
 44
1.0
 45
0.0
 46
0.0
 47
0.1
 48
0.1
140
3.5
141
0.0
142
0.0
143
0.0393701
144
1.0
145
0.0
146
0.71
147
1.5
 71
     0
 72
     0
 73
     0
 74
     1
 75
     0
 76
     0
 77
     1
 78
     8
170
     0
171
     2
172
     0
173
     0
174
     0
175
     0
176
   256
177
   256
178
     2
  0
DIMSTYLE
  2
AM_ISO$4
 70
     0
  3

  4
"
  5

  6

  7

 40
1.0
 41
2.5
 42
1.0
 43
10.0
 44
1.0
 45
0.0
 46
0.0
 47
0.1
 48
0.1
140
3.5
141
0.0
142
0.0
143
0.0393701
144
1.0
145
0.0
146
0.71
147
1.5
 71
     0
 72
     0
 73
     0
 74
     1
 75
     0
 76
     0
 77
     1
 78
     8
170
     0
171
     2
172
     0
173
     0
174
     0
175
     0
176
   256
177
   256
178
     2
  0
DIMSTYLE
  2
AM_ISO$6
 70
     0
  3

  4
"
  5

  6

  7

 40
1.0
 41
2.5
 42
1.0
 43
10.0
 44
1.0
 45
0.0
 46
0.0
 47
0.1
 48
0.1
140
3.5
141
0.0
142
0.0
143
0.0393701
144
1.0
145
0.0
146
0.71
147
1.5
 71
     0
 72
     0
 73
     0
 74
     0
 75
     0
 76
     0
 77
     0
 78
     8
170
     0
171
     2
172
     1
173
     0
174
     0
175
     0
176
   256
177
   256
178
     2
  0
DIMSTYLE
  2
AM_ISO$7
 70
     0
  3

  4
"
  5

  6

  7

 40
1.0
 41
2.5
 42
1.0
 43
10.0
 44
1.0
 45
0.0
 46
0.0
 47
0.1
 48
0.1
140
5.0
141
0.0
142
0.0
143
0.0393701
144
1.0
145
0.0
146
0.71
147
1.5
 71
     0
 72
     0
 73
     0
 74
     0
 75
     0
 76
     0
 77
     1
 78
     8
170
     0
171
     2
172
     1
173
     0
174
     0
175
     0
176
   256
177
   256
178
     2
  0
DIMSTYLE
  2
AM_ISO$SF
 70
     0
  3

  4
"
  5

  6

  7

 40
1.0
 41
2.5
 42
1.0
 43
10.0
 44
1.0
 45
0.0
 46
0.0
 47
0.1
 48
0.1
140
3.5
141
0.0
142
0.0
143
0.0393701
144
1.0
145
0.0
146
0.71
147
1.5
 71
     0
 72
     0
 73
     0
 74
     0
 75
     1
 76
     1
 77
     1
 78
     8
170
     0
171
     2
172
     1
173
     0
174
     0
175
     0
176
   256
177
   256
178
     2
  0
DIMSTYLE
  2
AM_ISO$SH
 70
     0
  3

  4
"
  5

  6
GENAXEH
  7

 40
1.0
 41
2.5
 42
1.0
 43
10.0
 44
1.0
 45
0.0
 46
0.0
 47
0.1
 48
0.1
140
3.5
141
0.0
142
0.0
143
0.0393701
144
2.0
145
0.0
146
0.71
147
1.5
 71
     0
 72
     0
 73
     0
 74
     0
 75
     1
 76
     1
 77
     1
 78
     8
170
     0
171
     2
172
     1
173
     1
174
     0
175
     0
176
   256
177
   256
178
     2
  0
DIMSTYLE
  2
TECHNICAL_OSAKA
 70
     0
  3

  4
"
  5
OPEN30
  6

  7

 40
1.0
 41
2.5
 42
1.0
 43
10.0
 44
1.0
 45
0.0
 46
0.0
 47
0.1
 48
0.1
140
2.7999999999999989
141
0.0
142
0.0
143
0.0393701
144
1.0
145
0.0
146
0.71
147
1.5
 71
     0
 72
     0
 73
     0
 74
     0
 75
     0
 76
     0
 77
     3
 78
     8
170
     0
171
     2
172
     1
173
     0
174
     0
175
     0
176
   256
177
   256
178
    40
  0
DIMSTYLE
  2
TECHNICAL_OSAKA$3
 70
     0
  3

  4
"
  5
OPEN30
  6

  7

 40
1.0
 41
2.5
 42
1.0
 43
10.0
 44
1.0
 45
0.0
 46
0.0
 47
0.1
 48
0.1
140
2.7999999999999989
141
0.0
142
0.0
143
0.0393701
144
1.0
145
0.0
146
0.71
147
1.5
 71
     0
 72
     0
 73
     0
 74
     1
 75
     0
 76
     0
 77
     3
 78
     8
170
     0
171
     2
172
     0
173
     0
174
     0
175
     0
176
   256
177
   256
178
    40
  0
DIMSTYLE
  2
TECHNICAL_OSAKA$4
 70
     0
  3

  4
"
  5
OPEN30
  6

  7

 40
1.0
 41
2.5
 42
1.0
 43
10.0
 44
1.0
 45
0.0
 46
0.0
 47
0.1
 48
0.1
140
2.7999999999999989
141
0.0
142
0.0
143
0.0393701
144
1.0
145
0.0
146
0.71
147
1.5
 71
     0
 72
     0
 73
     0
 74
     1
 75
     0
 76
     0
 77
     3
 78
     8
170
     0
171
     2
172
     0
173
     0
174
     0
175
     0
176
   256
177
   256
178
    40
  0
DIMSTYLE
  2
TECHNICAL_OSAKA$6
 70
     0
  3

  4
"
  5
OPEN30
  6

  7

 40
1.0
 41
2.5
 42
1.0
 43
10.0
 44
1.0
 45
0.0
 46
0.0
 47
0.1
 48
0.1
140
2.7999999999999989
141
0.0
142
0.0
143
0.0393701
144
1.0
145
0.0
146
0.71
147
1.5
 71
     0
 72
     0
 73
     0
 74
     0
 75
     0
 76
     0
 77
     0
 78
     8
170
     0
171
     2
172
     1
173
     0
174
     0
175
     0
176
   256
177
   256
178
    40
  0
DIMSTYLE
  2
TECHNICAL_OSAKA$7
 70
     0
  3

  4
"
  5
OPEN30
  6

  7

 40
1.0
 41
2.5
 42
1.0
 43
10.0
 44
1.0
 45
0.0
 46
0.0
 47
0.1
 48
0.1
140
2.7999999999999989
141
0.0
142
0.0
143
0.0393701
144
1.0
145
0.0
146
0.71
147
1.5
 71
     0
 72
     0
 73
     0
 74
     0
 75
     0
 76
     0
 77
     3
 78
     8
170
     0
171
     2
172
     1
173
     0
174
     0
175
     0
176
   256
177
   256
178
    40
  0
DIMSTYLE
  2
TECHNICAL_OSAKA$SF
 70
     0
  3

  4
"
  5
OPEN30
  6
OPEN30
  7
OPEN30
 40
1.0
 41
2.5
 42
1.0
 43
10.0
 44
1.0
 45
0.0
 46
0.0
 47
0.1
 48
0.1
140
3.5
141
0.0
142
0.0
143
0.0393701
144
1.0
145
0.0
146
0.71
147
1.5
 71
     0
 72
     0
 73
     0
 74
     0
 75
     1
 76
     1
 77
     3
 78
     8
170
     0
171
     2
172
     1
173
     0
174
     0
175
     0
176
   256
177
   256
178
    40
  0
DIMSTYLE
  2
TECHNICAL_OSAKA$SH
 70
     0
  3

  4
"
  5
OPEN30
  6
GENAXEH
  7
OPEN30
 40
1.0
 41
2.5
 42
1.0
 43
10.0
 44
1.0
 45
0.0
 46
0.0
 47
0.1
 48
0.1
140
3.5
141
0.0
142
0.0
143
0.0393701
144
2.0
145
0.0
146
0.71
147
1.5
 71
     0
 72
     0
 73
     0
 74
     0
 75
     1
 76
     1
 77
     3
 78
     8
170
     0
171
     2
172
     1
173
     1
174
     0
175
     0
176
   256
177
   256
178
    40
  0
ENDTAB
  0
ENDSEC
  0
SECTION
  2
BLOCKS
  0
BLOCK
  8
0
  2
$MODEL_SPACE
 70
     0
 10
0.0
 20
0.0
 30
0.0
  3
$MODEL_SPACE
  1

  0
ENDBLK
  5
1C
  8
0
  0
BLOCK
 67
     1
  8
0
  2
$PAPER_SPACE
 70
     0
 10
0.0
 20
0.0
 30
0.0
  3
$PAPER_SPACE
  1

  0
ENDBLK
  5
19
 67
     1
  8
0
  0
BLOCK
  8
0
  2
_OPEN
 70
     0
 10
0.0
 20
0.0
 30
0.0
  3
_OPEN
  1

  0
LINE
  5
E9A
  8
0
  6
BYBLOCK
 62
     0
 10
-1.0
 20
0.1666666666666666
 30
0.0
 11
0.0
 21
0.0
 31
0.0
  0
LINE
  5
E9B
  8
0
  6
BYBLOCK
 62
     0
 10
-1.0
 20
-0.1666666666666666
 30
0.0
 11
0.0
 21
0.0
 31
0.0
  0
LINE
  5
E9C
  8
0
  6
BYBLOCK
 62
     0
 10
0.0
 20
0.0
 30
0.0
 11
-1.0
 21
0.0
 31
0.0
  0
ENDBLK
  5
E9D
  8
0
  0
BLOCK
  8
0
  2
矢印なし
 70
     0
 10
0.0
 20
0.0
 30
0.0
  3
矢印なし
  1

  0
ENDBLK
  5
6E5
  8
0
  0
BLOCK
  8
0
  2
GENAXEH
 70
     0
 10
0.0
 20
0.0
 30
0.0
  3
GENAXEH
  1

  0
LINE
  5
ED5
  8
0
 10
-1.0
 20
0.0
 30
0.0
 11
1.0
 21
0.0
 31
0.0
  0
ENDBLK
  5
ED6
  8
0
  0
BLOCK
  8
0
  2
_OPEN30
 70
     0
 10
0.0
 20
0.0
 30
0.0
  3
_OPEN30
  1

  0
LINE
  5
F11
  8
0
  6
BYBLOCK
 62
     0
 10
-1.0
 20
0.26794919
 30
0.0
 11
0.0
 21
0.0
 31
0.0
  0
LINE
  5
F12
  8
0
  6
BYBLOCK
 62
     0
 10
0.0
 20
0.0
 30
0.0
 11
-1.0
 21
-0.26794919
 31
0.0
  0
LINE
  5
F13
  8
0
  6
BYBLOCK
 62
     0
 10
0.0
 20
0.0
 30
0.0
 11
-1.0
 21
0.0
 31
0.0
  0
ENDBLK
  5
F14
  8
0
  0
ENDSEC
  0
SECTION
  2
ENTITIES
  0
INSERT
  5
6E6
  8
245
  2
矢印なし
 10
175.62382696643769
 20
90.551235716905978
 30
0.0
  0
LINE
  5
856
  8
250
 10
-48.256370890134122
 20
-28.151483684754979
 30
0.0
 11
-65.989704223467456
 21
-28.151483684754979
 31
0.0
1001
ITEMNAME
1000
LNSP2
  0
TEXT
  5
857
  8
241
  6
CONTINUOUS
 10
-65.400000000000063
 20
63.0
 30
0.0
 40
5.0
  1
BBT40-MEGA16D-135A
  7
YOKO
 11
-65.400000000000063
 21
63.0
 31
0.0
 73
     1
  0
LINE
  5
F43
  8
245
  6
CENTER2
 10
16.599999999999941
 20
31.500000000000099
 30
0.0
 11
16.599999999999909
 21
-31.500000000000309
 31
0.0
  0
LINE
  5
F44
  8
241
  6
CONTINUOUS
 10
21.599999999999909
 20
-31.5
 30
0.0
 11
21.599999999999909
 21
-0.0000000000000142
 31
0.0
  0
LINE
  5
F45
  8
241
  6
CONTINUOUS
 10
11.599999999999911
 20
-0.0000000000000142
 30
0.0
 11
11.59999999999993
 21
-31.500000000000028
 31
0.0
  0
LINE
  5
F46
  8
241
  6
CONTINUOUS
 10
-0.0000000000001705
 20
-22.224999999999952
 30
0.0
 11
0.0
 21
-0.0000000000000142
 31
0.0
  0
LINE
  5
F47
  8
240
  6
CONTINUOUS
 10
0.9999999999998864
 20
-30.500000000000021
 30
0.0
 11
0.9999999999998293
 21
-22.22499999999993
 31
0.0
  0
ARC
  5
F48
  8
240
  6
CONTINUOUS
 10
1.9999999999998841
 20
-30.500000000000021
 30
0.0
 40
1.0
 50
180.0
 51
270.0
  0
LINE
  5
F49
  8
240
  6
CONTINUOUS
 10
-65.400000000000048
 20
11.303908955248639
 30
0.0
 11
-65.400000000000077
 21
-11.30390895524874
 31
0.0
  0
ARC
  5
F4A
  8
240
  6
CONTINUOUS
 10
-63.800000000000061
 20
-11.30390895524874
 30
0.0
 40
1.6000000000000001
 50
180.0
 51
261.70285503016299
  0
LINE
  5
F4B
  8
240
  6
CONTINUOUS
 10
-0.0000000000001137
 20
-22.225000000000009
 30
0.0
 11
-64.030891028914851
 21
-12.887161724949991
 31
0.0
  0
LINE
  5
F4C
  8
240
  6
CONTINUOUS
 10
21.599999999999909
 20
-31.5
 30
0.0
 11
26.999999999999829
 21
-31.500000000000188
 31
0.0
  0
LINE
  5
F4D
  8
241
  6
HIDDEN2
 10
22.99999999999989
 20
-22.500000000000011
 30
0.0
 11
22.99999999999989
 21
-31.500000000000021
 31
0.0
  0
LINE
  5
F4E
  8
240
  6
CONTINUOUS
 10
1.9999999999998841
 20
-31.500000000000021
 30
0.0
 11
11.59999999999985
 21
-31.50000000000022
 31
0.0
  0
LINE
  5
F4F
  8
241
  6
HIDDEN2
 10
22.99999999999989
 20
-22.500000000000011
 30
0.0
 11
0.9999999999998864
 21
-22.500000000000011
 31
0.0
  0
LINE
  5
F50
  8
245
  6
CENTER2
 10
-66.400000000000063
 20
0.0000000000000142
 30
0.0
 11
136.00000000000171
 21
-0.0000000000000284
 31
0.0
  0
LINE
  5
F51
  8
240
  6
CONTINUOUS
 10
-0.0000000000001137
 20
22.22499999999998
 30
0.0
 11
-64.030891028914823
 21
12.887161724949889
 31
0.0
  0
ARC
  5
F52
  8
240
  6
CONTINUOUS
 10
-63.800000000000061
 20
11.303908955248639
 30
0.0
 40
1.6000000000000001
 50
98.297144969836921
 51
180.0
  0
LINE
  5
F53
  8
240
  6
CONTINUOUS
 10
21.599999999999909
 20
31.500000000000021
 30
0.0
 11
26.999999999991161
 21
31.50000000000022
 31
0.0
  0
LINE
  5
F54
  8
241
  6
HIDDEN2
 10
22.99999999999989
 20
22.499999999999989
 30
0.0
 11
1.299999999999897
 21
22.499999999999989
 31
0.0
  0
LINE
  5
F55
  8
240
  6
CONTINUOUS
 10
1.999999999999829
 20
31.500000000000021
 30
0.0
 11
11.59999999999993
 21
31.500000000000039
 31
0.0
  0
ARC
  5
F56
  8
240
  6
CONTINUOUS
 10
1.999999999999829
 20
30.500000000000021
 30
0.0
 40
1.0
 50
90.0
 51
180.0000000000023
  0
LINE
  5
F57
  8
240
  6
CONTINUOUS
 10
1.000000000000224
 20
22.225000000001401
 30
0.0
 11
0.9999999999998293
 21
30.499999999999989
 31
0.0
  0
LINE
  5
F58
  8
241
  6
HIDDEN2
 10
22.99999999999989
 20
22.499999999999989
 30
0.0
 11
22.99999999999989
 21
31.499999999999989
 31
0.0
  0
LINE
  5
F59
  8
240
  6
CONTINUOUS
 10
26.999999999999829
 20
-31.500000000000188
 30
0.0
 11
27.000000000001481
 21
-30.49999999999994
 31
0.0
  0
LINE
  5
F5A
  8
240
  6
CONTINUOUS
 10
26.999999999991161
 20
31.50000000000022
 30
0.0
 11
27.000000000001851
 21
30.499999999999901
 31
0.0
  0
LINE
  5
F5B
  8
241
  6
CONTINUOUS
 10
14.486751345948219
 20
-26.499999999999691
 30
0.0
 11
14.48675134594825
 21
0.0
 31
0.0
  0
LINE
  5
F5C
  8
240
  6
CONTINUOUS
 10
14.486751345948219
 20
-26.499999999999691
 30
0.0
 11
11.59999999999985
 21
-31.50000000000022
 31
0.0
  0
LINE
  5
F5D
  8
240
  6
CONTINUOUS
 10
18.713248654051679
 20
-26.499999999999801
 30
0.0
 11
14.486751345948219
 21
-26.499999999999691
 31
0.0
1001
GRPNAME
1000
PASTMD1I
  0
LINE
  5
F5E
  8
241
  6
CONTINUOUS
 10
18.713248654051679
 20
-26.499999999999801
 30
0.0
 11
18.713248654051789
 21
0.0
 31
0.0
  0
LINE
  5
F5F
  8
240
  6
CONTINUOUS
 10
18.713248654051679
 20
-26.499999999999801
 30
0.0
 11
21.600000000000001
 21
-31.500000000000011
 31
0.0
  0
LINE
  5
F60
  8
240
  6
CONTINUOUS
 10
21.600000000000279
 20
31.499999999999989
 30
0.0
 11
18.713248654050972
 21
26.49999999999925
 31
0.0
  0
LINE
  5
F61
  8
240
  6
CONTINUOUS
 10
11.599999999999881
 20
31.500000000000071
 30
0.0
 11
14.486751345948759
 21
26.49999999999913
 31
0.0
  0
LINE
  5
F62
  8
240
 10
-0.0000000000001705
 20
-22.224999999999952
 30
0.0
 11
0.9999999999998293
 21
-22.22499999999993
 31
0.0
  0
LINE
  5
F63
  8
241
 10
0.9999999999998293
 20
-22.224999999999611
 30
0.0
 11
0.9999999999998293
 21
-0.0000000000000142
 31
0.0
  0
LINE
  5
F64
  8
241
 10
26.99999999999989
 20
-0.0000000000000142
 30
0.0
 11
26.999999999999861
 21
-30.500000000000039
 31
0.0
  0
LINE
  5
F65
  8
241
  6
CONTINUOUS
 10
14.486751345948219
 20
26.499999999999648
 30
0.0
 11
14.48675134594825
 21
-0.0000000000000284
 31
0.0
  0
LINE
  5
F66
  8
240
  6
CONTINUOUS
 10
18.713248654051679
 20
26.499999999999758
 30
0.0
 11
14.486751345948219
 21
26.499999999999648
 31
0.0
1001
GRPNAME
1000
PASTMD1I
  0
LINE
  5
F67
  8
241
  6
CONTINUOUS
 10
18.713248654051679
 20
26.499999999999758
 30
0.0
 11
18.713248654051789
 21
-0.0000000000000284
 31
0.0
  0
LINE
  5
F68
  8
240
 10
-0.0000000000001705
 20
22.22499999999993
 30
0.0
 11
1.000000000000224
 21
22.225000000001401
 31
0.0
  0
LINE
  5
F69
  8
241
  6
CONTINUOUS
 10
-0.0000000000001705
 20
22.22499999999993
 30
0.0
 11
0.0
 21
-0.0000000000000142
 31
0.0
  0
LINE
  5
F6A
  8
241
 10
0.9999999999998293
 20
22.224999999999579
 30
0.0
 11
0.9999999999998293
 21
-0.0000000000000142
 31
0.0
  0
LINE
  5
F6B
  8
241
  6
CONTINUOUS
 10
21.599999999999909
 20
31.500000000000021
 30
0.0
 11
21.599999999999909
 21
-0.0000000000000142
 31
0.0
  0
LINE
  5
F6C
  8
241
  6
CONTINUOUS
 10
11.599999999999911
 20
-0.0000000000000142
 30
0.0
 11
11.59999999999993
 21
31.500000000000039
 31
0.0
  0
LINE
  5
F6D
  8
241
 10
26.99999999999989
 20
-0.0000000000000142
 30
0.0
 11
26.999999999999769
 21
30.500000000000039
 31
0.0
  0
LINE
  5
F6E
  8
241
  6
HIDDEN2
 10
75.86602540378766
 20
7.9999999999999822
 30
0.0
 11
132.50000000000199
 21
8.0000000000000853
 31
0.0
  0
LINE
  5
F6F
  8
240
 10
96.300000000001873
 20
-26.29999999999999
 30
0.0
 11
96.300000000002015
 21
-26.499999999999972
 31
0.0
  0
LINE
  5
F70
  8
241
 10
89.30000000000156
 20
-26.904040404040611
 30
0.0
 11
89.299999999998619
 21
-0.0000000000000426
 31
0.0
  0
LINE
  5
F71
  8
241
 10
83.299999999998533
 20
-0.0000000000000426
 30
0.0
 11
83.300000000001447
 21
-27.250360750370032
 31
0.0
  0
LINE
  5
F72
  8
241
 10
81.299999999998434
 20
-0.0000000000000426
 30
0.0
 11
81.300000000001205
 21
-27.365800865800679
 31
0.0
  0
LINE
  5
F73
  8
241
 10
75.299999999998732
 20
-0.0000000000000426
 30
0.0
 11
75.300000000001447
 21
-27.71212121212119
 31
0.0
  0
LINE
  5
F74
  8
240
 10
83.831511057617675
 20
-26.718849692741632
 30
0.0
 11
88.826498334763244
 21
-26.43053873879396
 31
0.0
  0
LINE
  5
F75
  8
240
 10
83.831511057617675
 20
-26.718849692741632
 30
0.0
 11
83.300000000001447
 21
-27.250360750370032
 31
0.0
  0
LINE
  5
F76
  8
240
 10
89.300000000001845
 20
-26.904040404040561
 30
0.0
 11
88.826498334763244
 21
-26.43053873879396
 31
0.0
  0
LINE
  5
F77
  8
240
 10
96.300000000002015
 20
-26.499999999999972
 30
0.0
 11
89.30000000000156
 21
-26.904040404040611
 31
0.0
  0
LINE
  5
F78
  8
240
 10
75.831511057606093
 20
-27.18061015450273
 30
0.0
 11
80.82649833475233
 21
-26.892299200554731
 31
0.0
  0
LINE
  5
F79
  8
240
 10
75.831511057606093
 20
-27.18061015450273
 30
0.0
 11
75.300000000000949
 21
-27.712121212130342
 31
0.0
  0
LINE
  5
F7A
  8
240
 10
81.300000000001376
 20
-27.365800865800871
 30
0.0
 11
80.82649833475233
 21
-26.892299200554731
 31
0.0
  0
LINE
  5
F7B
  8
240
 10
83.300000000001148
 20
-27.25036075036077
 30
0.0
 11
81.300000000001205
 21
-27.365800865800679
 31
0.0
  0
LINE
  5
F7C
  8
240
 10
75.300000000001447
 20
-27.71212121212119
 30
0.0
 11
26.999999999999861
 21
-30.500000000000039
 31
0.0
  0
LINE
  5
F7D
  8
240
 10
96.299999999998917
 20
26.499999999999591
 30
0.0
 11
89.300000000007287
 21
26.904040404039812
 31
0.0
  0
LINE
  5
F7E
  8
240
 10
75.300000000005468
 20
27.71212121212093
 30
0.0
 11
26.999999999999769
 21
30.500000000000039
 31
0.0
  0
LINE
  5
F7F
  8
240
 10
134.99999999999281
 20
16.399377385371949
 30
0.0
 11
135.00000000000179
 21
-0.0000000000000142
 31
0.0
  0
LINE
  5
F80
  8
240
 10
128.13130645135459
 20
21.00000000000005
 30
0.0
 11
114.8499999999877
 21
20.999999999999758
 31
0.0
  0
LINE
  5
F81
  8
240
 10
133.02606042996979
 20
19.218455247728102
 30
0.0
 11
128.1313064513547
 21
21.000000000000028
 31
0.0
  0
ARC
  5
F82
  8
240
 10
131.99999999999281
 20
16.399377385370411
 30
0.0
 40
3.0
 50
0.000000000029312
 51
69.999999999999915
1001
ASK_MEN_XD
1005
F7F
1070
     1
1005
F81
1070
     1
  0
LINE
  5
F83
  8
240
 10
109.0713203435499
 20
22.228679656440491
 30
0.0
 11
105.87867965643061
 21
25.421320343559771
 31
0.0
  0
ARC
  5
F84
  8
240
 10
111.1926406871095
 20
24.350000000000119
 30
0.0
 40
3.0
 50
225.0
 51
269.99999999999841
1001
ASK_MEN_XD
1005
F86
1070
     1
1005
F83
1070
     1
  0
LINE
  5
F85
  8
240
 10
114.8499999999877
 20
20.999999999999758
 30
0.0
 11
114.49999999999039
 21
21.350000000000009
 31
0.0
1001
GRPNAME
1000
PASTMD1P
  0
LINE
  5
F86
  8
240
 10
114.49999999999029
 20
21.350000000000009
 30
0.0
 11
111.1926406871095
 21
21.350000000000119
 31
0.0
  0
ARC
  5
F87
  8
240
 10
103.757359312871
 20
23.300000000000232
 30
0.0
 40
3.0
 50
45.0
 51
90.000000000001606
1001
ASK_MEN_XD
1005
0
1070
     1
1005
0
1070
     1
  0
LINE
  5
F88
  8
240
 10
103.757359312871
 20
26.3000000000002
 30
0.0
 11
96.300000000002555
 21
26.299999999999262
 31
0.0
  0
LINE
  5
F89
  8
240
 10
128.1313064513547
 20
-21.000000000000011
 30
0.0
 11
114.84999999999771
 21
-20.999999999999989
 31
0.0
  0
LINE
  5
F8A
  8
241
 10
96.300000000000935
 20
-0.0000000000000426
 30
0.0
 11
96.300000000002626
 21
-26.300000000000001
 31
0.0
  0
LINE
  5
F8B
  8
240
 10
133.02606042996979
 20
-19.21845524772807
 30
0.0
 11
128.1313064513547
 21
-21.0
 31
0.0
  0
ARC
  5
F8C
  8
240
 10
131.99999999999289
 20
-16.399377385370379
 30
0.0
 40
3.0
 50
290.00000000000011
 51
359.99999999997061
1001
ASK_MEN_XD
1005
F7F
1070
     1
1005
F81
1070
     1
  0
LINE
  5
F8D
  8
240
 10
109.0713203435499
 20
-22.228679656440431
 30
0.0
 11
105.87867965643071
 21
-25.421320343559749
 31
0.0
  0
LINE
  5
F8E
  8
240
 10
114.84999999999771
 20
-20.999999999999989
 30
0.0
 11
114.49999999999039
 21
-21.350000000000009
 31
0.0
1001
GRPNAME
1000
PASTMD1P
  0
LINE
  5
F8F
  8
240
 10
114.49999999999039
 20
-21.350000000000058
 30
0.0
 11
111.1926406871096
 21
-21.350000000000058
 31
0.0
  0
ARC
  5
F90
  8
240
 10
111.1926406871096
 20
-24.35000000000008
 30
0.0
 40
3.0
 50
90.0
 51
135.0
1001
ASK_MEN_XD
1005
F8D
1070
     1
1005
F8F
1070
     1
  0
ARC
  5
F91
  8
240
 10
103.7573593128711
 20
-23.300000000000232
 30
0.0
 40
3.0
 50
269.99999999999841
 51
315.0
1001
ASK_MEN_XD
1005
0
1070
     1
1005
0
1070
     1
  0
LINE
  5
F92
  8
240
 10
103.757359312871
 20
-26.3000000000002
 30
0.0
 11
96.300000000001873
 21
-26.29999999999999
 31
0.0
  0
LINE
  5
F93
  8
240
 10
134.99999999999281
 20
-16.39937738537192
 30
0.0
 11
135.00000000000179
 21
0.0000000000000426
 31
0.0
  0
LINE
  5
F94
  8
241
 10
104.99999999999029
 20
-0.0000000000000142
 30
0.0
 11
104.99999999999029
 21
-26.03053916337366
 31
0.0
  0
LINE
  5
F95
  8
241
 10
109.9499999999903
 20
-21.6194608366267
 30
0.0
 11
109.9499999999897
 21
0.0000000000000142
 31
0.0
  0
LINE
  5
F96
  8
241
 10
114.84999999999771
 20
-20.999999999999929
 30
0.0
 11
114.84999999999781
 21
0.0000000000000426
 31
0.0
  0
LINE
  5
F97
  8
241
 10
128.1313064513547
 20
-21.0
 30
0.0
 11
128.1313064513547
 21
0.0000000000000142
 31
0.0
  0
LINE
  5
F98
  8
241
 10
104.99999999999029
 20
0.0000000000000426
 30
0.0
 11
104.99999999999029
 21
26.030539163373689
 31
0.0
  0
LINE
  5
F99
  8
241
 10
109.9499999999903
 20
21.619460836626711
 30
0.0
 11
109.9499999999897
 21
0.0000000000000142
 31
0.0
  0
LINE
  5
F9A
  8
241
 10
114.84999999999771
 20
20.999999999999961
 30
0.0
 11
114.84999999999781
 21
-0.0000000000000142
 31
0.0
  0
LINE
  5
F9B
  8
241
 10
128.1313064513547
 20
21.000000000000028
 30
0.0
 11
128.1313064513547
 21
0.0000000000000426
 31
0.0
  0
LINE
  5
F9C
  8
241
  6
HIDDEN2
 10
132.5000000000019
 20
8.0499999999992582
 30
0.0
 11
134.9999999999975
 21
8.0499999999984464
 31
0.0
  0
LINE
  5
F9D
  8
241
  6
HIDDEN2
 10
132.5000000000019
 20
12.065837971092799
 30
0.0
 11
132.50000000000179
 21
-0.0000000000000853
 31
0.0
  0
LINE
  5
F9E
  8
240
 10
96.300000000001944
 20
26.299999999999951
 30
0.0
 11
96.299999999998917
 21
26.499999999999591
 31
0.0
  0
LINE
  5
F9F
  8
241
 10
89.300000000001603
 20
26.904040404040568
 30
0.0
 11
89.299999999998619
 21
-0.0000000000000142
 31
0.0
  0
LINE
  5
FA0
  8
241
 10
83.299999999998533
 20
-0.0000000000000142
 30
0.0
 11
83.300000000001447
 21
27.250360750369978
 31
0.0
  0
LINE
  5
FA1
  8
241
 10
81.299999999998434
 20
-0.0000000000000142
 30
0.0
 11
81.300000000001234
 21
27.365800865800612
 31
0.0
  0
LINE
  5
FA2
  8
241
 10
75.299999999998732
 20
-0.0000000000000142
 30
0.0
 11
75.300000000001447
 21
27.712121212121119
 31
0.0
  0
LINE
  5
FA3
  8
241
 10
96.300000000000935
 20
-0.0000000000000142
 30
0.0
 11
96.300000000002626
 21
26.299999999999951
 31
0.0
  0
LINE
  5
FA4
  8
240
 10
83.831511057617675
 20
26.718849692741561
 30
0.0
 11
88.826498334763258
 21
26.430538738793921
 31
0.0
  0
LINE
  5
FA5
  8
240
 10
83.831511057617675
 20
26.718849692741561
 30
0.0
 11
83.300000000001447
 21
27.250360750369978
 31
0.0
  0
LINE
  5
FA6
  8
240
 10
89.300000000001887
 20
26.904040404040519
 30
0.0
 11
88.826498334763258
 21
26.430538738793921
 31
0.0
  0
LINE
  5
FA7
  8
240
 10
75.831511057606122
 20
27.18061015450267
 30
0.0
 11
80.826498334752344
 21
26.892299200554689
 31
0.0
  0
LINE
  5
FA8
  8
240
 10
75.831511057606122
 20
27.18061015450267
 30
0.0
 11
75.300000000000963
 21
27.71212121213027
 31
0.0
  0
LINE
  5
FA9
  8
240
 10
81.300000000001404
 20
27.365800865800811
 30
0.0
 11
80.826498334752344
 21
26.892299200554689
 31
0.0
  0
LINE
  5
FAA
  8
240
 10
83.300000000001177
 20
27.250360750360709
 30
0.0
 11
81.300000000001234
 21
27.365800865800612
 31
0.0
  0
LINE
  5
FAB
  8
250
 10
63.999999999997563
 20
8.4999999999998721
 30
0.0
 11
63.999999999997563
 21
42.999999999999893
 31
0.0
  0
LINE
  5
FAC
  8
250
 10
134.99999999999281
 20
16.899377385371999
 30
0.0
 11
134.99999999999281
 21
42.999999999999893
 31
0.0
  0
LINE
  5
FAD
  8
250
 10
65.999999999997556
 20
41.999999999999901
 30
0.0
 11
132.99999999999281
 21
41.999999999999901
 31
0.0
  0
LINE
  5
FB1
  8
250
 10
104.2573593128711
 20
-26.30000000000026
 30
0.0
 11
158.99999999999949
 21
-26.300000000000271
 31
0.0
  0
LINE
  5
FB2
  8
250
 10
104.257359312871
 20
26.300000000000139
 30
0.0
 11
158.99999999999949
 21
26.300000000000122
 31
0.0
  0
LINE
  5
FB3
  8
250
 10
157.99999999999949
 20
-24.300000000000271
 30
0.0
 11
157.99999999999949
 21
24.300000000000122
 31
0.0
  0
LINE
  5
FB7
  8
250
 10
128.6313064513545
 20
-21.000000000000082
 30
0.0
 11
151.99999999999949
 21
-21.000000000000082
 31
0.0
  0
LINE
  5
FB8
  8
250
 10
128.6313064513547
 20
21.000000000000039
 30
0.0
 11
151.99999999999949
 21
21.000000000000039
 31
0.0
  0
LINE
  5
FB9
  8
250
 10
150.99999999999949
 20
-19.000000000000082
 30
0.0
 11
150.99999999999949
 21
19.000000000000039
 31
0.0
  0
LINE
  5
FBD
  8
250
 10
132.9999999999994
 20
7.9999999999999849
 30
0.0
 11
144.99999999999949
 21
7.9999999999999822
 31
0.0
  0
LINE
  5
FBE
  8
250
 10
143.99999999999949
 20
-6.0000000000001572
 30
0.0
 11
143.99999999999949
 21
5.9999999999999822
 31
0.0
  0
INSERT
  5
FBF
  8
250
  6
CONTINUOUS
  2
矢印なし
 10
143.99999999999949
 20
-8.0000000000001581
 30
0.0
 41
2.0
 42
2.0
 43
2.0
 50
270.0
  0
LINE
  5
FC2
  8
250
 10
-0.0000000000001705
 20
22.72499999999992
 30
0.0
 11
-0.0000000000001688
 21
49.999999999999893
 31
0.0
  0
LINE
  5
FC3
  8
250
 10
134.99999999999281
 20
16.899377385371888
 30
0.0
 11
134.99999999999281
 21
49.999999999999893
 31
0.0
  0
LINE
  5
FC4
  8
250
 10
1.999999999999831
 20
48.999999999999893
 30
0.0
 11
132.99999999999281
 21
48.999999999999893
 31
0.0
  0
TEXT
  5
FC8
  8
250
 10
-63.72303755680079
 20
-27.151483684754979
 30
0.0
 40
2.799999999999998
  1
BBT40
  7
YOKO
1001
ITEMNAME
1000
LNSP3
1001
ACAD
1000
MTEXTBEGIN
1070
    73
1070
     1
1070
    44
1040
1.0
1070
    74
1070
     0
1000
MTEXTEND
  0
POLYLINE
  5
FCA
  8
250
 66
     1
 10
0.0
 20
0.0
 30
0.0
1001
ACAD
1000
DSTYLE
1002
{
1070
    41
1040
2.0
1002
}
  0
VERTEX
  5
1058
  8
250
 10
-42.352925238793517
 20
-17.92641587691153
 30
0.0
  0
VERTEX
  5
1059
  8
250
 10
-48.256370890134122
 20
-28.151483684754979
 30
0.0
  0
SEQEND
  5
105A
  8
250
  0
TEXT
  5
FCB
  8
250
 10
88.873333333328546
 20
42.999999999999893
 30
0.0
 40
2.799999999999998
  1
（max.71）
1001
ACAD
1000
MTEXTBEGIN
1070
    73
1070
     1
1070
    44
1040
1.0
1070
    74
1070
     0
1000
MTEXTEND
  0
LINE
  5
FCC
  8
250
 10
132.99999999999281
 20
42.333333333333229
 30
0.0
 11
134.99999999999281
 21
41.999999999999901
 31
0.0
  0
LINE
  5
FCD
  8
250
 10
132.99999999999281
 20
41.666666666666558
 30
0.0
 11
134.99999999999281
 21
41.999999999999901
 31
0.0
  0
LINE
  5
FCE
  8
250
 10
134.99999999999281
 20
41.999999999999901
 30
0.0
 11
132.99999999999281
 21
41.999999999999901
 31
0.0
  0
LINE
  5
FCF
  8
250
 10
65.999999999997556
 20
41.666666666666558
 30
0.0
 11
63.999999999997563
 21
41.999999999999901
 31
0.0
  0
LINE
  5
FD0
  8
250
 10
65.999999999997556
 20
42.333333333333229
 30
0.0
 11
63.999999999997563
 21
41.999999999999901
 31
0.0
  0
LINE
  5
FD1
  8
250
 10
63.999999999997563
 20
41.999999999999901
 30
0.0
 11
65.999999999997556
 21
41.999999999999901
 31
0.0
  0
TEXT
  5
FD2
  8
250
 10
63.299999999996352
 20
49.999999999999893
 30
0.0
 40
2.799999999999998
  1
135
1001
ACAD
1000
MTEXTBEGIN
1070
    73
1070
     1
1070
    44
1040
1.0
1070
    74
1070
     0
1000
MTEXTEND
  0
LINE
  5
FD3
  8
250
 10
132.99999999999281
 20
49.333333333333222
 30
0.0
 11
134.99999999999281
 21
48.999999999999893
 31
0.0
  0
LINE
  5
FD4
  8
250
 10
132.99999999999281
 20
48.666666666666558
 30
0.0
 11
134.99999999999281
 21
48.999999999999893
 31
0.0
  0
LINE
  5
FD5
  8
250
 10
134.99999999999281
 20
48.999999999999893
 30
0.0
 11
132.99999999999281
 21
48.999999999999893
 31
0.0
  0
LINE
  5
FD6
  8
250
 10
1.999999999999831
 20
48.666666666666558
 30
0.0
 11
-0.0000000000001689
 21
48.999999999999893
 31
0.0
  0
LINE
  5
FD7
  8
250
 10
1.999999999999831
 20
49.333333333333222
 30
0.0
 11
-0.0000000000001689
 21
48.999999999999893
 31
0.0
  0
LINE
  5
FD8
  8
250
 10
-0.0000000000001689
 20
48.999999999999893
 30
0.0
 11
1.999999999999831
 21
48.999999999999893
 31
0.0
  0
TEXT
  5
FD9
  8
250
 10
156.99999999999949
 20
-5.9333333333333771
 30
0.0
 40
2.7999999999999989
  1
\U+2205
 50
90.0
1001
ACAD
1000
MTEXTBEGIN
1070
    73
1070
     1
1070
    44
1040
1.0
1070
    74
1070
     0
1000
MTEXTEND
  0
TEXT
  5
FDA
  8
250
 10
156.99999999999949
 20
-3.4000000000000439
 30
0.0
 40
2.799999999999998
  1
52.6
 50
90.0
1001
ACAD
1000
MTEXTBEGIN
1070
    73
1070
     1
1070
    44
1040
1.0
1070
    74
1070
     0
1000
MTEXTEND
  0
LINE
  5
FDB
  8
250
 10
157.66666666666609
 20
24.300000000000122
 30
0.0
 11
157.99999999999949
 21
26.300000000000122
 31
0.0
  0
LINE
  5
FDC
  8
250
 10
158.3333333333328
 20
24.300000000000122
 30
0.0
 11
157.99999999999949
 21
26.300000000000122
 31
0.0
  0
LINE
  5
FDD
  8
250
 10
157.99999999999949
 20
26.300000000000122
 30
0.0
 11
157.99999999999949
 21
24.300000000000122
 31
0.0
  0
LINE
  5
FDE
  8
250
 10
158.3333333333328
 20
-24.300000000000271
 30
0.0
 11
157.99999999999949
 21
-26.300000000000271
 31
0.0
  0
LINE
  5
FDF
  8
250
 10
157.66666666666609
 20
-24.300000000000271
 30
0.0
 11
157.99999999999949
 21
-26.300000000000271
 31
0.0
  0
LINE
  5
FE0
  8
250
 10
157.99999999999949
 20
-26.300000000000271
 30
0.0
 11
157.99999999999949
 21
-24.300000000000271
 31
0.0
  0
TEXT
  5
FE1
  8
250
 10
149.99999999999949
 20
-3.9333333333333251
 30
0.0
 40
2.7999999999999989
  1
\U+2205
 50
90.0
1001
ACAD
1000
MTEXTBEGIN
1070
    73
1070
     1
1070
    44
1040
1.0
1070
    74
1070
     0
1000
MTEXTEND
  0
TEXT
  5
FE2
  8
250
 10
149.99999999999949
 20
-1.3999999999999919
 30
0.0
 40
2.799999999999998
  1
42
 50
90.0
1001
ACAD
1000
MTEXTBEGIN
1070
    73
1070
     1
1070
    44
1040
1.0
1070
    74
1070
     0
1000
MTEXTEND
  0
LINE
  5
FE3
  8
250
 10
150.66666666666609
 20
19.000000000000039
 30
0.0
 11
150.99999999999949
 21
21.000000000000039
 31
0.0
  0
LINE
  5
FE4
  8
250
 10
151.3333333333328
 20
19.000000000000039
 30
0.0
 11
150.99999999999949
 21
21.000000000000039
 31
0.0
  0
LINE
  5
FE5
  8
250
 10
150.99999999999949
 20
21.000000000000039
 30
0.0
 11
150.99999999999949
 21
19.000000000000039
 31
0.0
  0
LINE
  5
FE6
  8
250
 10
151.3333333333328
 20
-19.000000000000082
 30
0.0
 11
150.99999999999949
 21
-21.000000000000082
 31
0.0
  0
LINE
  5
FE7
  8
250
 10
150.66666666666609
 20
-19.000000000000082
 30
0.0
 11
150.99999999999949
 21
-21.000000000000082
 31
0.0
  0
LINE
  5
FE8
  8
250
 10
150.99999999999949
 20
-21.000000000000082
 30
0.0
 11
150.99999999999949
 21
-19.000000000000082
 31
0.0
  0
TEXT
  5
FE9
  8
250
 10
142.99999999999949
 20
-3.933333333333394
 30
0.0
 40
2.7999999999999989
  1
\U+2205
 50
90.0
1001
ACAD
1000
MTEXTBEGIN
1070
    73
1070
     1
1070
    44
1040
1.0
1070
    74
1070
     0
1000
MTEXTEND
  0
TEXT
  5
FEA
  8
250
 10
142.99999999999949
 20
-1.400000000000061
 30
0.0
 40
2.799999999999998
  1
16
 50
90.0
1001
ACAD
1000
MTEXTBEGIN
1070
    73
1070
     1
1070
    44
1040
1.0
1070
    74
1070
     0
1000
MTEXTEND
  0
LINE
  5
FEB
  8
250
 10
143.6666666666662
 20
5.9999999999999822
 30
0.0
 11
143.99999999999949
 21
7.9999999999999822
 31
0.0
  0
LINE
  5
FEC
  8
250
 10
144.3333333333328
 20
5.9999999999999822
 30
0.0
 11
143.99999999999949
 21
7.9999999999999822
 31
0.0
  0
LINE
  5
FED
  8
250
 10
143.99999999999949
 20
7.9999999999999822
 30
0.0
 11
143.99999999999949
 21
5.9999999999999822
 31
0.0
  0
LINE
  5
FEE
  8
250
 10
-42.641600373388329
 20
-17.759749210244859
 30
0.0
 11
-41.352925238793517
 21
-16.194365069342648
 31
0.0
  0
LINE
  5
FEF
  8
250
 10
-42.064250104198713
 20
-18.093082543578191
 30
0.0
 11
-41.352925238793517
 21
-16.194365069342648
 31
0.0
  0
LINE
  5
FF0
  8
250
 10
-41.352925238793517
 20
-16.194365069342648
 30
0.0
 11
-42.352925238793517
 21
-17.92641587691153
 31
0.0
  0
VIEWPORT
  5
22
 67
     1
  8
0
 10
261.51769911504419
 20
148.5
 30
0.0
 40
523.0353982300885
 41
297.0
 68
     1
 69
     1
1001
ACAD
1000
MVIEW
1002
{
1070
    16
1010
0.0
1020
0.0
1030
0.0
1010
0.0
1020
0.0
1030
1.0
1040
0.0
1040
297.0
1040
261.51769911504419
1040
148.5
1040
50.0
1040
0.0
1040
0.0
1070
     0
1070
   100
1070
     1
1070
     1
1070
     0
1070
     0
1070
     0
1070
     0
1040
0.0
1040
0.0
1040
0.0
1040
1.0
1040
1.0
1040
10.0
1040
10.0
1070
     0
1002
{
1002
}
1002
}
1001
GENIUS_GENODEF_13
1002
{
1000
HIER
1070
     0
1002
}
1002
{
1000
MANEDIT
1070
     0
1002
}
1002
{
1000
NOSEL
1070
     0
1002
}
1002
{
1000
BEHIND
1070
     0
1002
}
1002
{
1000
OTHER
1070
     0
1002
}
1002
{
1000
REACTOR
1002
}
1001
GENIUS_GENOBJ-N-SDF_13
1002
{
1000
OWNER
1000
GEN
1002
}
1001
GENIUS_GENSCREG_15
1000
PF
1040
1.0
1000
DF
1040
1.0
1000
MIN
1011
0.0
1021
0.0
1031
0.0
1021
0.0
1031
0.0
1000
MAX
1011
523.0353982300885
1021
0.0
1031
0.0
1021
297.0
1031
0.0
1000
FLAGS
1070
     4
  0
ENDSEC
  0
EOF
