  0
SECTION
  2
HEADER
  9
$ACADVER
  1
AC1009
  9
$INSBASE
 10
0.0
 20
0.0
 30
0.0
  9
$EXTMIN
 10
-67.472946106603331
 20
-36.015397869936521
 30
-0.0000000349181948
  9
$EXTMAX
 10
150.02738872515911
 20
81.008771872968296
 30
0.0000000814935747
  9
$LIMMIN
 10
0.0
 20
0.0
  9
$LIMMAX
 10
297.0
 20
210.0
  9
$ORTHOMODE
 70
     0
  9
$REGENMODE
 70
     1
  9
$FILLMODE
 70
     1
  9
$QTEXTMODE
 70
     0
  9
$MIRRTEXT
 70
     1
  9
$DRAGMODE
 70
     2
  9
$LTSCALE
 40
10.0
  9
$OSMODE
 70
    63
  9
$ATTMODE
 70
     1
  9
$TEXTSIZE
 40
3.0
  9
$TRACEWID
 40
1.0
  9
$TEXTSTYLE
  7
YOKO
  9
$CLAYER
  8
240
  9
$CELTYPE
  6
BYLAYER
  9
$CECOLOR
 62
   256
  9
$DIMSCALE
 40
1.0
  9
$DIMASZ
 40
2.2299999999999991
  9
$DIMEXO
 40
0.5
  9
$DIMDLI
 40
7.0
  9
$DIMRND
 40
0.0
  9
$DIMDLE
 40
0.0
  9
$DIMEXE
 40
1.0
  9
$DIMTP
 40
0.0
  9
$DIMTM
 40
0.01
  9
$DIMTXT
 40
2.799999999999998
  9
$DIMCEN
 40
0.0
  9
$DIMTSZ
 40
0.0
  9
$DIMTOL
 70
     0
  9
$DIMLIM
 70
     0
  9
$DIMTIH
 70
     0
  9
$DIMTOH
 70
     0
  9
$DIMSE1
 70
     0
  9
$DIMSE2
 70
     0
  9
$DIMTAD
 70
     3
  9
$DIMZIN
 70
     9
  9
$DIMBLK
  1
OPEN
  9
$DIMASO
 70
     1
  9
$DIMSHO
 70
     1
  9
$DIMPOST
  1

  9
$DIMAPOST
  1

  9
$DIMALT
 70
     0
  9
$DIMALTD
 70
     2
  9
$DIMALTF
 40
25.399999999999999
  9
$DIMLFAC
 40
1.0
  9
$DIMTOFL
 70
     1
  9
$DIMTVP
 40
0.0
  9
$DIMTIX
 70
     1
  9
$DIMSOXD
 70
     0
  9
$DIMSAH
 70
     0
  9
$DIMBLK1
  1

  9
$DIMBLK2
  1

  9
$DIMSTYLE
  2
BIGT
  9
$DIMCLRD
 70
   256
  9
$DIMCLRE
 70
   256
  9
$DIMCLRT
 70
    40
  9
$DIMTFAC
 40
1.0
  9
$DIMGAP
 40
1.0
  9
$LUNITS
 70
     2
  9
$LUPREC
 70
     6
  9
$SKETCHINC
 40
1.0
  9
$FILLETRAD
 40
0.0
  9
$AUNITS
 70
     0
  9
$AUPREC
 70
     6
  9
$MENU
  1
.
  9
$ELEVATION
 40
0.0
  9
$PELEVATION
 40
0.0
  9
$THICKNESS
 40
0.0
  9
$LIMCHECK
 70
     0
  9
$BLIPMODE
 70
     0
  9
$CHAMFERA
 40
0.2
  9
$CHAMFERB
 40
0.2
  9
$SKPOLY
 70
     0
  9
$TDCREATE
 40
2457241.7713473379
  9
$TDUPDATE
 40
2457242.3953226041
  9
$TDINDWG
 40
0.0156432755
  9
$TDUSRTIMER
 40
0.0156432176
  9
$USRTIMER
 70
     1
  9
$ANGBASE
 50
0.0
  9
$ANGDIR
 70
     0
  9
$PDMODE
 70
     1
  9
$PDSIZE
 40
0.0
  9
$PLINEWID
 40
0.0
  9
$COORDS
 70
     1
  9
$SPLFRAME
 70
     0
  9
$SPLINETYPE
 70
     6
  9
$SPLINESEGS
 70
     4
  9
$ATTDIA
 70
     1
  9
$ATTREQ
 70
     1
  9
$HANDLING
 70
     1
  9
$HANDSEED
  5
5058
  9
$SURFTAB1
 70
     6
  9
$SURFTAB2
 70
     6
  9
$SURFTYPE
 70
     6
  9
$SURFU
 70
     6
  9
$SURFV
 70
     6
  9
$UCSNAME
  2

  9
$UCSORG
 10
0.0
 20
0.0
 30
0.0
  9
$UCSXDIR
 10
1.0
 20
0.0
 30
0.0
  9
$UCSYDIR
 10
0.0
 20
1.0
 30
0.0
  9
$PUCSNAME
  2

  9
$PUCSORG
 10
0.0
 20
0.0
 30
0.0
  9
$PUCSXDIR
 10
1.0
 20
0.0
 30
0.0
  9
$PUCSYDIR
 10
0.0
 20
1.0
 30
0.0
  9
$USERI1
 70
     1
  9
$USERI2
 70
     0
  9
$USERI3
 70
     0
  9
$USERI4
 70
     0
  9
$USERI5
 70
     0
  9
$USERR1
 40
0.0
  9
$USERR2
 40
0.0
  9
$USERR3
 40
0.0
  9
$USERR4
 40
0.0
  9
$USERR5
 40
0.0
  9
$WORLDVIEW
 70
     1
  9
$SHADEDGE
 70
     3
  9
$SHADEDIF
 70
    70
  9
$TILEMODE
 70
     1
  9
$MAXACTVP
 70
    16
  9
$PLIMCHECK
 70
     0
  9
$PEXTMIN
 10
1.0000000000000000E+020
 20
1.0000000000000000E+020
 30
1.0000000000000000E+020
  9
$PEXTMAX
 10
-1.0000000000000000E+020
 20
-1.0000000000000000E+020
 30
-1.0000000000000000E+020
  9
$PLIMMIN
 10
0.0
 20
0.0
  9
$PLIMMAX
 10
420.0
 20
297.0
  9
$UNITMODE
 70
     0
  9
$VISRETAIN
 70
     1
  9
$PLINEGEN
 70
     0
  9
$PSLTSCALE
 70
     1
  0
ENDSEC
  0
SECTION
  2
TABLES
  0
TABLE
  2
VPORT
 70
     1
  0
VPORT
  2
*ACTIVE
 70
     0
 10
0.0
 20
0.0
 11
1.0
 21
1.0
 12
41.277221309277863
 22
22.49668700151588
 13
0.0
 23
0.0
 14
7.0
 24
7.0
 15
7.0
 25
7.0
 16
0.0
 26
0.0
 36
1.0
 17
0.0
 27
0.0
 37
0.0
 40
152.21266801216149
 41
1.4355016538037479
 42
50.0
 43
0.0
 44
0.0
 50
0.0
 51
0.0
 71
     0
 72
  2000
 73
     1
 74
     0
 75
     0
 76
     1
 77
     0
 78
     0
  0
ENDTAB
  0
TABLE
  2
LTYPE
 70
    22
  0
LTYPE
  2
CONTINUOUS
 70
     0
  3
Solid line
 72
    65
 73
     0
 40
0.0
  0
LTYPE
  2
CENTER2
 70
     0
  3
___ _ ___ _ ___ _ ___ _ ___ _ ___ _ ___ _ ___ _
 72
    65
 73
     4
 40
1.125
 49
0.75
 49
-0.125
 49
0.125
 49
-0.125
  0
LTYPE
  2
HIDDEN2
 70
     0
  3
_ _ _ _ _ _ _ _ _ _ _ _ _ _ _ _ _ _ _ _ _ _ _ _
 72
    65
 73
     2
 40
0.1875
 49
0.125
 49
-0.0625
  0
LTYPE
  2
PHANTOM2
 70
     0
  3
___ _ _ ___ _ _ ___ _ _ ___ _ _ ___ _ _ ___ _ _
 72
    65
 73
     6
 40
1.25
 49
0.625
 49
-0.125
 49
0.125
 49
-0.125
 49
0.125
 49
-0.125
  0
LTYPE
  2
AMCONSTR
 70
     0
  3
_______________________
 72
    65
 73
     2
 40
9999.0
 49
9999.0
 49
0.0
  0
LTYPE
  2
HIDDEN
 70
     0
  3
Hidden __ __ __ __ __ __ __ __ __ __ __ __ __ _
 72
    65
 73
     2
 40
0.375
 49
0.25
 49
-0.125
  0
LTYPE
  2
CENTER
 70
     0
  3
Center ____ _ ____ _ ____ _ ____ _ ____ _ ____
 72
    65
 73
     4
 40
2.0
 49
1.25
 49
-0.25
 49
0.25
 49
-0.25
  0
LTYPE
  2
AMZIGZAG2
 70
     0
  3
/\/-/\/-/\/-/\/-/\/-/\/
 72
    65
 73
     2
 40
0.4401
 49
0.0001
 49
-0.4400000000000001
  0
LTYPE
  2
ACANSTGB
 70
     0
  3
__ . . __ . .
 72
    65
 73
     6
 40
0.35433070866
 49
0.15748031496
 49
-0.03937007874
 49
0.03937007874
 49
-0.03937007874
 49
0.03937007874
 49
-0.03937007874
  0
LTYPE
  2
ACANSTGL
 70
     0
  3
_ _ _ _ _
 72
    65
 73
     2
 40
0.11811023622
 49
0.07874015748
 49
-0.03937007874
  0
ENDTAB
  0
TABLE
  2
LAYER
 70
     8
  0
LAYER
  2
0
 70
     0
 62
     7
  6
CONTINUOUS
  0
LAYER
  2
241
 70
     0
 62
   211
  6
CONTINUOUS
  0
LAYER
  2
DEFPOINTS
 70
     0
 62
     7
  6
CONTINUOUS
  0
LAYER
  2
245
 70
     0
 62
     2
  6
CENTER2
  0
LAYER
  2
240
 70
     0
 62
     4
  6
CONTINUOUS
  0
LAYER
  2
242
 70
     0
 62
     3
  6
CONTINUOUS
  0
LAYER
  2
243
 70
     0
 62
   211
  6
HIDDEN2
  0
LAYER
  2
250
 70
     0
 62
     3
  6
CONTINUOUS
  0
ENDTAB
  0
TABLE
  2
STYLE
 70
    10
  0
STYLE
  2
STANDARD
 70
     0
 40
0.0
 41
1.0
 50
0.0
 71
     0
 42
3.0
  3
romans.shx
  4
extfont.shx
  0
STYLE
  2
YOKO
 70
     0
 40
0.0
 41
1.0
 50
0.0
 71
     0
 42
3.0
  3
romans.shx
  4
extfont.shx
  0
STYLE
  2

 70
     1
 40
0.0
 41
1.0
 50
0.0
 71
     0
 42
3.0
  3
genltshp.shx
  4

  0
STYLE
  2
ACANSGDT
 70
     0
 40
0.0
 41
1.0
 50
0.0
 71
     0
 42
3.0
  3
amgdt.shx
  4

  0
ENDTAB
  0
TABLE
  2
VIEW
 70
     0
  0
ENDTAB
  0
TABLE
  2
UCS
 70
     0
  0
ENDTAB
  0
TABLE
  2
APPID
 70
    39
  0
APPID
  2
ACAD
 70
     0
  0
APPID
  2
ACADANNOTATIVE
 70
     0
  0
APPID
  2
GLOBAL
 70
     0
  0
APPID
  2
DETAIL
 70
     0
  0
APPID
  2
GRPNAME
 70
     0
  0
APPID
  2
GPARA
 70
     0
  0
APPID
  2
MCAD_NO_VIS
 70
     0
  0
APPID
  2
ACAD_TEMP_GRAPHIC
 70
     0
  0
APPID
  2
ACATTRIBSERVICES
 70
     0
  0
APPID
  2
GENIUS_GENSCREG_15
 70
     0
  0
APPID
  2
GENIUS_GENODEF_13
 70
     0
  0
APPID
  2
GENIUS_GENOBJ-N-SDF_13
 70
     0
  0
APPID
  2
GENIUS_GENREC_14
 70
     0
  0
APPID
  2
GENIUS_GENOBJ-N-REC_13
 70
     0
  0
APPID
  2
GENIUS_GENDIMSH_14
 70
     0
  0
APPID
  2
GENIUS_GENOBJ-N-DIM_13
 70
     0
  0
APPID
  2
GENIUS_GENDIM_13
 70
     0
  0
APPID
  2
GENIUS_GENDTOL_13
 70
     0
  0
APPID
  2
GENIUS_GENOLIS_13
 70
     0
  0
APPID
  2
GENIUS_GENOENT_13
 70
     0
  0
APPID
  2
GENIUS_GENOBJ-F-FEM_13
 70
     0
  0
APPID
  2
GENIUS_GENOREF_13
 70
     0
  0
APPID
  2
GENIUS_GEFFEM_13
 70
     0
  0
APPID
  2
GENIUS_GEFFEMP_13
 70
     0
  0
APPID
  2
AD_DRAW
 70
     0
  0
APPID
  2
DESIGNERASSEMBLIES
 70
     0
  0
APPID
  2
ACADM_DIM_EDIT
 70
     0
  0
APPID
  2
AMDT_DM_ADJ
 70
     0
  0
APPID
  2
ITEMNAME
 70
     0
  0
APPID
  2
GENIUS_GENOBJ-N-FIL_13
 70
     0
  0
APPID
  2
GENIUS_GENFIL_13
 70
     0
  0
APPID
  2
GENIUS_GENOBJ-N-CHA_13
 70
     0
  0
APPID
  2
ACAD_NAV_VCDISPLAY
 70
     0
  0
APPID
  2
ASK_MEN_XD
 70
     0
  0
APPID
  2
ACAD_DSTYLE_DIMINSPECT
 70
     0
  0
APPID
  2
ACAD_EXEMPT_FROM_CAD_STANDARDS
 70
     0
  0
APPID
  2
ACAD_MLEADERVER
 70
     0
  0
APPID
  2
ACAD_DSTYLE_DIMJAG
 70
     0
  0
APPID
  2
ACAD_DSTYLE_DIMBREAK
 70
     0
  0
ENDTAB
  0
TABLE
  2
DIMSTYLE
 70
    32
  0
DIMSTYLE
  2
STANDARD
 70
     0
  3

  4

  5

  6

  7

 40
1.0
 41
0.18
 42
0.0625
 43
0.38
 44
0.18
 45
0.0
 46
0.0
 47
0.0
 48
0.0
140
0.18
141
0.09
142
0.0
143
25.399999999999999
144
1.0
145
0.0
146
1.0
147
0.09
 71
     0
 72
     0
 73
     1
 74
     1
 75
     0
 76
     0
 77
     0
 78
     0
170
     0
171
     2
172
     0
173
     0
174
     0
175
     0
176
     0
177
     0
178
     0
  0
DIMSTYLE
  2
BIGT
 70
     0
  3

  4

  5

  6

  7

 40
1.0
 41
2.2299999999999991
 42
0.5
 43
7.0
 44
1.0
 45
0.0
 46
0.0
 47
0.0
 48
0.01
140
2.799999999999998
141
0.0
142
0.0
143
25.399999999999999
144
1.0
145
0.0
146
1.0
147
1.0
 71
     0
 72
     0
 73
     0
 74
     0
 75
     0
 76
     0
 77
     3
 78
     9
170
     0
171
     2
172
     1
173
     0
174
     1
175
     0
176
   256
177
   256
178
    40
  0
DIMSTYLE
  2
AM_ANSI
 70
     0
  3

  4
mm
  5

  6

  7

 40
1.0
 41
0.12
 42
0.05
 43
0.5
 44
0.1
 45
0.0
 46
0.0
 47
0.1
 48
0.1
140
0.12
141
0.0
142
0.0
143
25.399999999999999
144
1.0
145
0.0
146
0.71
147
0.06
 71
     0
 72
     0
 73
     1
 74
     1
 75
     0
 76
     0
 77
     0
 78
     7
170
     0
171
     2
172
     0
173
     0
174
     0
175
     0
176
   256
177
   256
178
     2
  0
DIMSTYLE
  2
AM_ANSI$3
 70
     0
  3

  4
mm
  5

  6

  7

 40
1.0
 41
0.12
 42
0.05
 43
0.5
 44
0.1
 45
0.0
 46
0.0
 47
0.1
 48
0.1
140
0.12
141
0.0
142
0.0
143
25.399999999999999
144
1.0
145
0.0
146
0.71
147
0.06
 71
     0
 72
     0
 73
     1
 74
     1
 75
     0
 76
     0
 77
     0
 78
     7
170
     0
171
     2
172
     0
173
     0
174
     0
175
     0
176
   256
177
   256
178
     2
  0
DIMSTYLE
  2
AM_ANSI$4
 70
     0
  3

  4
mm
  5

  6

  7

 40
1.0
 41
0.12
 42
0.05
 43
0.5
 44
0.1
 45
0.0
 46
0.0
 47
0.1
 48
0.1
140
0.12
141
0.0
142
0.0
143
25.399999999999999
144
1.0
145
0.0
146
0.71
147
0.06
 71
     0
 72
     0
 73
     1
 74
     1
 75
     0
 76
     0
 77
     0
 78
     7
170
     0
171
     2
172
     0
173
     0
174
     0
175
     0
176
   256
177
   256
178
     2
  0
DIMSTYLE
  2
AM_ANSI$7
 70
     0
  3

  4
mm
  5

  6

  7

 40
1.0
 41
0.12
 42
0.05
 43
0.5
 44
0.1
 45
0.0
 46
0.0
 47
0.1
 48
0.1
140
0.12
141
0.0
142
0.0
143
25.399999999999999
144
1.0
145
0.0
146
0.71
147
0.06
 71
     0
 72
     0
 73
     1
 74
     1
 75
     0
 76
     0
 77
     0
 78
     7
170
     0
171
     2
172
     0
173
     0
174
     0
175
     0
176
   256
177
   256
178
     2
  0
DIMSTYLE
  2
AM_ANSI$SF
 70
     0
  3

  4
mm
  5

  6

  7

 40
1.0
 41
0.12
 42
0.05
 43
0.5
 44
0.1
 45
0.0
 46
0.0
 47
0.1
 48
0.1
140
0.12
141
0.0
142
0.0
143
25.399999999999999
144
1.0
145
0.0
146
0.71
147
0.06
 71
     0
 72
     0
 73
     1
 74
     1
 75
     1
 76
     1
 77
     0
 78
     7
170
     0
171
     2
172
     0
173
     0
174
     0
175
     0
176
   256
177
   256
178
     2
  0
DIMSTYLE
  2
AM_ANSI$SH
 70
     0
  3

  4
mm
  5

  6
GENAXEH
  7

 40
1.0
 41
0.12
 42
0.05
 43
0.5
 44
0.1
 45
0.0
 46
0.0
 47
0.1
 48
0.1
140
0.12
141
0.0
142
0.0
143
25.399999999999999
144
1.0
145
0.0
146
0.71
147
0.06
 71
     0
 72
     0
 73
     1
 74
     1
 75
     1
 76
     1
 77
     0
 78
     7
170
     0
171
     2
172
     0
173
     1
174
     0
175
     0
176
   256
177
   256
178
     2
  0
ENDTAB
  0
ENDSEC
  0
SECTION
  2
BLOCKS
  0
BLOCK
  8
0
  2
$MODEL_SPACE
 70
     0
 10
0.0
 20
0.0
 30
0.0
  3
$MODEL_SPACE
  1

  0
ENDBLK
  5
4F10
  8
0
  0
BLOCK
 67
     1
  8
0
  2
$PAPER_SPACE
 70
     0
 10
0.0
 20
0.0
 30
0.0
  3
$PAPER_SPACE
  1

  0
ENDBLK
  5
4F0C
 67
     1
  8
0
  0
BLOCK
  8
0
  2
_OPEN
 70
     0
 10
0.0
 20
0.0
 30
0.0
  3
_OPEN
  1

  0
LINE
  5
4990
  8
0
  6
BYBLOCK
 62
     0
 10
-1.0
 20
0.1666666666666666
 30
0.0
 11
0.0
 21
0.0
 31
0.0
  0
LINE
  5
4991
  8
0
  6
BYBLOCK
 62
     0
 10
-1.0
 20
-0.1666666666666666
 30
0.0
 11
0.0
 21
0.0
 31
0.0
  0
LINE
  5
4992
  8
0
  6
BYBLOCK
 62
     0
 10
0.0
 20
0.0
 30
0.0
 11
-1.0
 21
0.0
 31
0.0
  0
ENDBLK
  5
4993
  8
0
  0
BLOCK
  8
0
  2
GENAXEH
 70
     0
 10
0.0
 20
0.0
 30
0.0
  3
GENAXEH
  1

  0
LINE
  5
49CB
  8
0
 10
-1.0
 20
0.0
 30
0.0
 11
1.0
 21
0.0
 31
0.0
  0
ENDBLK
  5
49CC
  8
0
  0
BLOCK
  8
0
  2
_ACMFILLEDHALF
 70
     0
 10
0.0
 20
0.0
 30
0.0
  3
_ACMFILLEDHALF
  1

  0
TRACE
  5
4FD1
  8
241
 62
     0
 10
-0.8
 20
0.0
 30
0.0
 11
-1.0
 21
0.166666666
 31
0.0
 12
0.0
 22
0.0
 32
0.0
 13
0.0
 23
0.0
 33
0.0
  0
LINE
  5
4FD2
  8
241
 62
     0
 10
-1.0
 20
0.0
 30
0.0
 11
-0.8
 21
0.0
 31
0.0
  0
ENDBLK
  5
4FD0
  8
0
  0
ENDSEC
  0
SECTION
  2
ENTITIES
  0
LINE
  5
43E2
  8
245
 10
-67.38895229956978
 20
-0.0000000000000284
 30
0.0
 11
59.283581633687838
 21
-0.0000000000000284
 31
0.0
  0
LINE
  5
43E3
  8
245
 10
65.174266503030594
 20
-0.0000000000000284
 30
0.0
 11
67.616295680716433
 21
-0.0000000000000284
 31
0.0
  0
LINE
  5
43E4
  8
245
 10
72.592823046248057
 20
-0.0000000000000284
 30
0.0
 11
136.86786346278211
 21
0.0
 31
0.0
  0
LINE
  5
43E5
  8
240
 10
26.750000000006281
 20
31.500000000000028
 30
0.0
 11
26.99999999999989
 21
31.250000000006452
 31
0.0
  0
LINE
  5
43E6
  8
240
 10
26.99999999999989
 20
31.250000000006452
 30
0.0
 11
34.422649730810122
 21
31.250000000006342
 31
0.0
  0
LINE
  5
43E7
  8
240
 10
26.99999999999989
 20
-31.250000000006281
 30
0.0
 11
34.422649730810413
 21
-31.250000000006231
 31
0.0
  0
LINE
  5
43E8
  8
241
 10
34.999999999999957
 20
-31.433503419078569
 30
0.0
 11
34.999999999999957
 21
31.433503419078651
 31
0.0
  0
LINE
  5
43E9
  8
241
 10
37.453738644052287
 20
-35.316496580927861
 30
0.0
 11
37.453738644052351
 21
35.316496580928117
 31
0.0
  0
LINE
  5
43EA
  8
241
 10
26.999999999999861
 20
-31.250000000006281
 30
0.0
 11
26.99999999999994
 21
31.25000000000643
 31
0.0
  0
LINE
  5
43EB
  8
240
 10
26.750000000006398
 20
-31.499999999999972
 30
0.0
 11
26.99999999999994
 21
-31.250000000006452
 31
0.0
  0
LINE
  5
43F7
  8
240
 10
46.250000000000448
 20
35.500000000000213
 30
0.0
 11
38.031088913241661
 21
35.500000000000099
 31
0.0
  0
LINE
  5
43F8
  8
240
 10
46.250000000000448
 20
35.500000000000213
 30
0.0
 11
46.500000000000448
 21
35.250000000000213
 31
0.0
1001
GENIUS_GENFIL_13
1070
     0
1040
0.25
1040
0.25
1040
0.2500000000000284
1040
45.00000000000162
1002
{
1002
}
1001
GENIUS_GENODEF_13
1002
{
1000
HIER
1070
     0
1002
}
1002
{
1000
MANEDIT
1070
     0
1002
}
1002
{
1000
NOSEL
1070
     0
1002
}
1002
{
1000
BEHIND
1070
     0
1002
}
1002
{
1000
OTHER
1070
     0
1002
}
1002
{
1000
REACTOR
1002
}
1001
GENIUS_GENOBJ-N-CHA_13
1002
{
1000
OWNER
1000
GEN
1002
}
  0
LINE
  5
43F9
  8
240
 10
35.288675134594541
 20
31.750000000006342
 30
0.0
 11
37.165063509457241
 21
35.000000000000092
 31
0.0
  0
ARC
  5
43FA
  8
240
 10
34.422649730810122
 20
32.250000000006231
 30
0.0
 40
1.0
 50
269.99999999999352
 51
330.00000000000028
1001
GENIUS_GENODEF_13
1002
{
1000
HIER
1070
     0
1002
}
1002
{
1000
MANEDIT
1070
     0
1002
}
1002
{
1000
NOSEL
1070
     0
1002
}
1002
{
1000
BEHIND
1070
     0
1002
}
1002
{
1000
OTHER
1070
     0
1002
}
1002
{
1000
REACTOR
1002
}
1001
GENIUS_GENOBJ-N-FIL_13
1002
{
1000
OWNER
1000
GEN
1002
}
  0
ARC
  5
43FB
  8
240
 10
38.031088913241547
 20
34.500000000000092
 30
0.0
 40
1.0
 50
89.999999999993477
 51
150.00000000000031
1001
GENIUS_GENODEF_13
1002
{
1000
HIER
1070
     0
1002
}
1002
{
1000
MANEDIT
1070
     0
1002
}
1002
{
1000
NOSEL
1070
     0
1002
}
1002
{
1000
BEHIND
1070
     0
1002
}
1002
{
1000
OTHER
1070
     0
1002
}
1002
{
1000
REACTOR
1002
}
1001
GENIUS_GENOBJ-N-FIL_13
1002
{
1000
OWNER
1000
GEN
1002
}
  0
LINE
  5
43FE
  8
240
 10
46.250000000000448
 20
-35.50000000000027
 30
0.0
 11
38.031088913241661
 21
-35.500000000000149
 31
0.0
  0
LINE
  5
43FF
  8
240
 10
46.250000000000448
 20
-35.50000000000027
 30
0.0
 11
46.500000000000448
 21
-35.25000000000027
 31
0.0
1001
GENIUS_GENFIL_13
1070
     0
1040
0.25
1040
0.25
1040
0.2500000000000284
1040
45.00000000000162
1002
{
1002
}
1001
GENIUS_GENODEF_13
1002
{
1000
HIER
1070
     0
1002
}
1002
{
1000
MANEDIT
1070
     0
1002
}
1002
{
1000
NOSEL
1070
     0
1002
}
1002
{
1000
BEHIND
1070
     0
1002
}
1002
{
1000
OTHER
1070
     0
1002
}
1002
{
1000
REACTOR
1002
}
1001
GENIUS_GENOBJ-N-CHA_13
1002
{
1000
OWNER
1000
GEN
1002
}
  0
LINE
  5
4400
  8
240
 10
35.288675134594541
 20
-31.750000000006398
 30
0.0
 11
37.165063509457241
 21
-35.000000000000142
 31
0.0
  0
ARC
  5
4401
  8
240
 10
34.422649730810122
 20
-32.250000000006281
 30
0.0
 40
1.0
 50
29.999999999999719
 51
90.000000000006537
1001
GENIUS_GENODEF_13
1002
{
1000
HIER
1070
     0
1002
}
1002
{
1000
MANEDIT
1070
     0
1002
}
1002
{
1000
NOSEL
1070
     0
1002
}
1002
{
1000
BEHIND
1070
     0
1002
}
1002
{
1000
OTHER
1070
     0
1002
}
1002
{
1000
REACTOR
1002
}
1001
GENIUS_GENOBJ-N-FIL_13
1002
{
1000
OWNER
1000
GEN
1002
}
  0
ARC
  5
4402
  8
240
 10
38.031088913241547
 20
-34.500000000000142
 30
0.0
 40
1.0
 50
209.99999999999969
 51
270.00000000000648
1001
GENIUS_GENODEF_13
1002
{
1000
HIER
1070
     0
1002
}
1002
{
1000
MANEDIT
1070
     0
1002
}
1002
{
1000
NOSEL
1070
     0
1002
}
1002
{
1000
BEHIND
1070
     0
1002
}
1002
{
1000
OTHER
1070
     0
1002
}
1002
{
1000
REACTOR
1002
}
1001
GENIUS_GENOBJ-N-FIL_13
1002
{
1000
OWNER
1000
GEN
1002
}
  0
LINE
  5
4403
  8
241
 10
46.50000000000027
 20
-35.250000000000441
 30
0.0
 11
46.500000000000341
 21
35.250000000000313
 31
0.0
  0
LINE
  5
4404
  8
240
 10
-65.39999999999992
 20
0.0000000000003126
 30
0.0
 11
-65.399999999999977
 21
-10.9580111940609
 31
0.0
  0
LINE
  5
4405
  8
240
 10
-65.39999999999992
 20
-0.0000000000003695
 30
0.0
 11
-65.399999999999977
 21
10.958011194060839
 31
0.0
  0
LINE
  5
4406
  8
240
 10
-0.0000000000000568
 20
22.225000000000001
 30
0.0
 11
-63.688613786143442
 21
12.937077156187399
 31
0.0
  0
LINE
  5
4408
  8
240
 10
-0.0000000000000568
 20
-22.225000000000051
 30
0.0
 11
-63.688613786143442
 21
-12.937077156187479
 31
0.0
  0
LINE
  5
440D
  8
240
 10
0.9999999999999431
 20
31.000000000000028
 30
0.0
 11
0.9999999999999431
 21
22.225000000000001
 31
0.0
  0
LINE
  5
440E
  8
240
 10
0.9999999999999431
 20
-31.000000000000082
 30
0.0
 11
0.9999999999999431
 21
-22.225000000000051
 31
0.0
  0
ARC
  5
4410
  8
240
 10
1.499999999999942
 20
31.000000000000028
 30
0.0
 40
0.5
 50
90.0
 51
180.0
  0
ARC
  5
4411
  8
240
 10
1.499999999999942
 20
-31.000000000000082
 30
0.0
 40
0.5
 50
180.0
 51
270.0
  0
LINE
  5
4412
  8
241
 10
0.0000000000000568
 20
-22.225000000000051
 30
0.0
 11
-0.0000000000000568
 21
22.225000000000001
 31
0.0
  0
LINE
  5
4413
  8
241
 10
0.9999999999999431
 20
22.225000000000001
 30
0.0
 11
0.9999999999999431
 21
-22.225000000000051
 31
0.0
  0
LINE
  5
4427
  8
245
 10
-19.178882901802289
 20
-0.0000000000000284
 30
0.0
 11
-67.450703158701117
 21
-0.0000000000000284
 31
0.0
  0
LINE
  5
442A
  8
243
 10
22.99999999999994
 20
-22.500000000000028
 30
0.0
 11
0.9999999999999431
 21
-22.500000000000028
 31
0.0
  0
LINE
  5
442B
  8
243
 10
22.99999999999994
 20
-22.500000000000028
 30
0.0
 11
22.99999999999994
 21
-31.500000000000028
 31
0.0
  0
LINE
  5
442C
  8
243
 10
22.99999999999994
 20
22.499999999999972
 30
0.0
 11
22.99999999999994
 21
31.499999999999972
 31
0.0
  0
LINE
  5
442D
  8
243
 10
22.99999999999994
 20
22.499999999999972
 30
0.0
 11
0.9999999999999431
 21
22.499999999999829
 31
0.0
  0
ARC
  5
4434
  8
240
 10
-63.399999999999977
 20
10.958011194060839
 30
0.0
 40
2.0
 50
98.29714496983685
 51
180.0
  0
ARC
  5
4435
  8
240
 10
-63.399999999999977
 20
-10.9580111940609
 30
0.0
 40
2.0
 50
180.0
 51
261.70285503016322
  0
LINE
  5
4437
  8
250
 10
-34.398026462734492
 20
-32.38377282771863
 30
0.0
 11
-53.398026462734492
 21
-32.38377282771863
 31
0.0
1001
ITEMNAME
1000
LNSP2
  0
LINE
  5
443A
  8
241
 10
11.56550565266622
 20
-0.0000000000004263
 30
0.0
 11
11.56550565266474
 21
31.326794919240889
 31
0.0
  0
LINE
  5
443B
  8
241
 10
14.452256998613731
 20
-0.0000000000003126
 30
0.0
 11
14.45225699861248
 21
26.555051025722349
 31
0.0
  0
LINE
  5
443C
  8
241
 10
18.74774300138483
 20
-0.0000000000001421
 30
0.0
 11
18.747743001383569
 21
26.555051025720768
 31
0.0
  0
LINE
  5
443D
  8
241
 10
21.63449434733355
 20
-0.0000000000000284
 30
0.0
 11
21.634494347332069
 21
31.326794919244261
 31
0.0
  0
LINE
  5
443E
  8
240
 10
1.4999999999998861
 20
31.500000000000028
 30
0.0
 11
11.265505652666491
 21
31.499999999999581
 31
0.0
  0
LINE
  5
443F
  8
240
 10
21.93449434733208
 20
31.500000000000028
 30
0.0
 11
26.75000000000637
 21
31.499999999999972
 31
0.0
  0
LINE
  5
4440
  8
240
 10
11.26550565266586
 20
31.499999999999911
 30
0.0
 11
11.715505652665851
 21
31.240192378864581
 31
0.0
  0
LINE
  5
4441
  8
240
 10
11.715505652665851
 20
31.240192378864581
 30
0.0
 11
14.365654458235319
 21
26.650000000000521
 31
0.0
  0
ARC
  5
4442
  8
240
 10
18.574537920627961
 20
26.79999999999907
 30
0.0
 40
0.3
 50
269.99999999998039
 51
330.00000000000028
  0
ARC
  5
4443
  8
240
 10
14.62546207937066
 20
26.800000000000491
 30
0.0
 40
0.3
 50
209.99999999999611
 51
269.99999999998039
  0
LINE
  5
4444
  8
240
 10
18.57453792062784
 20
26.499999999999059
 30
0.0
 11
14.62546207937055
 21
26.50000000000048
 31
0.0
  0
LINE
  5
4445
  8
240
 10
21.48449434733249
 20
31.240192378864919
 30
0.0
 11
18.834345541763302
 21
26.6499999999991
 31
0.0
  0
LINE
  5
4446
  8
240
 10
21.48449434733249
 20
31.240192378864919
 30
0.0
 11
21.934494347332471
 21
31.500000000000249
 31
0.0
  0
LINE
  5
4447
  8
240
 10
1.4999999999998861
 20
-31.500000000000089
 30
0.0
 11
11.265505652667059
 21
-31.500000000000089
 31
0.0
  0
LINE
  5
4448
  8
240
 10
21.934494347331171
 20
-31.500000000000028
 30
0.0
 11
26.75000000000631
 21
-31.500000000000028
 31
0.0
  0
LINE
  5
4449
  8
240
 10
21.48449434733271
 20
-31.240192378865551
 30
0.0
 11
21.934494347332699
 21
-31.500000000000881
 31
0.0
  0
ARC
  5
444A
  8
240
 10
18.574537920628192
 20
-26.79999999999977
 30
0.0
 40
0.3
 50
29.999999999999719
 51
90.000000000019526
  0
ARC
  5
444B
  8
240
 10
14.625462079370889
 20
-26.80000000000118
 30
0.0
 40
0.3
 50
90.000000000019526
 51
150.00000000000381
  0
LINE
  5
444C
  8
240
 10
18.574537920628071
 20
-26.499999999999751
 30
0.0
 11
14.625462079370781
 21
-26.50000000000118
 31
0.0
  0
LINE
  5
444D
  8
240
 10
11.265505652666089
 20
-31.500000000000661
 30
0.0
 11
11.71550565266608
 21
-31.24019237886532
 31
0.0
  0
LINE
  5
444E
  8
240
 10
11.71550565266608
 20
-31.24019237886532
 30
0.0
 11
14.36565445823555
 21
-26.650000000001199
 31
0.0
  0
LINE
  5
444F
  8
240
 10
21.48449434733271
 20
-31.240192378865551
 30
0.0
 11
18.834345541763518
 21
-26.649999999999771
 31
0.0
  0
LINE
  5
4450
  8
241
 10
21.63449434733355
 20
-0.0000000000003695
 30
0.0
 11
21.63449434733355
 21
-31.326794919244691
 31
0.0
  0
LINE
  5
4451
  8
241
 10
18.74774300138483
 20
-0.0000000000004263
 30
0.0
 11
18.74774300138483
 21
-26.555051025721269
 31
0.0
  0
LINE
  5
4452
  8
241
 10
11.56550565266622
 20
-0.0000000000004263
 30
0.0
 11
11.56550565266622
 21
-31.326794919241738
 31
0.0
  0
LINE
  5
4453
  8
241
 10
14.452256998613731
 20
-0.0000000000004263
 30
0.0
 11
14.452256998613731
 21
-26.555051025723088
 31
0.0
  0
LINE
  5
4456
  8
241
  6
CONTINUOUS
 10
83.923021468514648
 20
-21.90000000000208
 30
0.0
 11
83.923021468514648
 21
21.900000000001999
 31
0.0
  0
LINE
  5
4459
  8
241
  6
CONTINUOUS
 10
46.499999999999943
 20
-35.500384114493869
 30
0.0
 11
46.500000000000668
 21
35.500384114497422
 31
0.0
  0
LINE
  5
445A
  8
241
  6
CONTINUOUS
 10
60.50000000000054
 20
35.500384114497621
 30
0.0
 11
60.500000000000611
 21
-35.500384114495041
 31
0.0
  0
ARC
  5
445B
  8
240
 10
60.000000000000561
 20
35.500384114497621
 30
0.0
 40
0.5
 50
0.0
 51
90.0
1001
GENIUS_GENODEF_13
1002
{
1000
HIER
1070
     0
1002
}
1002
{
1000
MANEDIT
1070
     0
1002
}
1002
{
1000
NOSEL
1070
     0
1002
}
1002
{
1000
BEHIND
1070
     0
1002
}
1002
{
1000
OTHER
1070
     0
1002
}
1002
{
1000
REACTOR
1002
}
1001
GENIUS_GENOBJ-N-FIL_13
1002
{
1000
OWNER
1000
GEN
1002
}
  0
ARC
  5
445C
  8
240
 10
60.000000000000597
 20
-35.500384114494842
 30
0.0
 40
0.5
 50
270.0
 51
0.0
1001
GENIUS_GENOBJ-N-FIL_13
1002
{
1000
OWNER
1000
GEN
1002
}
1001
GENIUS_GENODEF_13
1002
{
1000
HIER
1070
     0
1002
}
1002
{
1000
MANEDIT
1070
     0
1002
}
1002
{
1000
NOSEL
1070
     0
1002
}
1002
{
1000
BEHIND
1070
     0
1002
}
1002
{
1000
OTHER
1070
     0
1002
}
1002
{
1000
REACTOR
1002
}
  0
LINE
  5
445D
  8
240
 10
60.000000000000561
 20
36.000384114497621
 30
0.0
 11
47.000000000000888
 21
36.000384114497621
 31
0.0
  0
LINE
  5
445E
  8
240
 10
46.500000000000668
 20
35.5003841144974
 30
0.0
 11
47.000000000000888
 21
36.000384114497621
 31
0.0
1001
GENIUS_GENFIL_13
1070
     0
1040
0.5
1040
0.5
1040
0.4999999999999716
1040
45.000000000004889
1000
~T
  0
LINE
  5
445F
  8
240
 10
60.000000000000597
 20
-36.000384114494842
 30
0.0
 11
47.000000000000888
 21
-36.000384114494842
 31
0.0
  0
LINE
  5
4460
  8
240
 10
46.500000000000668
 20
-35.500384114494608
 30
0.0
 11
47.000000000000888
 21
-36.000384114494842
 31
0.0
1001
GENIUS_GENFIL_13
1070
     0
1040
0.500000000000938
1040
0.5000000000009665
1040
0.500000000000938
1040
45.000000000003247
1002
{
1002
}
1001
GENIUS_GENOREF_13
1005
0
  0
POLYLINE
  5
4461
  8
241
 66
     1
 10
0.0
 20
0.0
 30
0.0
 70
     1
  0
VERTEX
  5
4A85
  8
241
 10
51.000000000000902
 20
30.155084652876411
 30
0.0
  0
VERTEX
  5
4A86
  8
241
 10
51.000000000000902
 20
27.845683576117921
 30
0.0
  0
VERTEX
  5
4A87
  8
241
 10
53.000000000000888
 20
26.690983037738679
 30
0.0
  0
VERTEX
  5
4A88
  8
241
 10
55.000000000000888
 20
27.845683576117921
 30
0.0
  0
VERTEX
  5
4A89
  8
241
 10
55.000000000000888
 20
30.155084652876411
 30
0.0
  0
VERTEX
  5
4A8A
  8
241
 10
53.000000000000888
 20
31.30978519125566
 30
0.0
  0
SEQEND
  5
4A8B
  8
241
  0
LINE
  5
4462
  8
241
 10
60.500000000000568
 20
-5.1457893831304187
 30
0.0
 11
46.500000000000263
 21
-5.1457893831304187
 31
0.0
  0
LINE
  5
4463
  8
241
 10
60.500000000000568
 20
-13.358977778696209
 30
0.0
 11
46.500000000000171
 21
-13.358977778696209
 31
0.0
  0
LINE
  5
4464
  8
241
 10
60.500000000000568
 20
-22.271746435327461
 30
0.0
 11
46.500000000000078
 21
-22.271746435327461
 31
0.0
  0
LINE
  5
4465
  8
241
 10
60.500000000000611
 20
-28.284217633017221
 30
0.0
 11
46.500000000000021
 21
-28.284217633017221
 31
0.0
  0
LINE
  5
4466
  8
241
 10
60.500000000000611
 20
-33.430007016147023
 30
0.0
 11
46.499999999999972
 21
-33.430007016147023
 31
0.0
  0
LINE
  5
4467
  8
240
 10
84.000000000001307
 20
-25.17157287525194
 30
0.0
 11
84.000000000001307
 21
-21.900000000002109
 31
0.0
  0
LINE
  5
4468
  8
240
 10
73.671572875254185
 20
35.500000000001847
 30
0.0
 11
60.750000000000497
 21
35.500000000002082
 31
0.0
  0
LINE
  5
4469
  8
241
  6
CONTINUOUS
 10
60.500000000000568
 20
35.250000000002103
 30
0.0
 11
60.500000000000611
 21
-35.249999999999382
 31
0.0
  0
LINE
  5
446A
  8
240
 10
60.750000000000497
 20
35.500000000002082
 30
0.0
 11
60.500000000000497
 21
35.250000000002082
 31
0.0
1001
GENIUS_GENFIL_13
1070
     0
1040
0.25
1040
0.25
1040
0.2500000000000284
1040
45.00000000000162
1002
{
1002
}
1001
GENIUS_GENOBJ-N-CHA_13
1002
{
1000
OWNER
1000
GEN
1002
}
1001
GENIUS_GENODEF_13
1002
{
1000
HIER
1070
     0
1002
}
1002
{
1000
MANEDIT
1070
     0
1002
}
1002
{
1000
NOSEL
1070
     0
1002
}
1002
{
1000
BEHIND
1070
     0
1002
}
1002
{
1000
OTHER
1070
     0
1002
}
1002
{
1000
REACTOR
1002
}
  0
LINE
  5
446B
  8
240
 10
75.085786437627291
 20
34.914213562374947
 30
0.0
 11
83.414213562374414
 21
26.585786437627831
 31
0.0
  0
ARC
  5
446C
  8
240
 10
73.67157287525427
 20
33.500000000001961
 30
0.0
 40
2.0
 50
45.0
 51
90.0
1001
GENIUS_GENODEF_13
1002
{
1000
HIER
1070
     0
1002
}
1002
{
1000
MANEDIT
1070
     0
1002
}
1002
{
1000
NOSEL
1070
     0
1002
}
1002
{
1000
BEHIND
1070
     0
1002
}
1002
{
1000
OTHER
1070
     0
1002
}
1002
{
1000
REACTOR
1002
}
1001
GENIUS_GENOBJ-N-FIL_13
1002
{
1000
OWNER
1000
GEN
1002
}
  0
ARC
  5
446D
  8
240
 10
82.000000000001279
 20
25.171572875254729
 30
0.0
 40
2.0
 50
0.0
 51
45.0
1001
GENIUS_GENODEF_13
1002
{
1000
HIER
1070
     0
1002
}
1002
{
1000
MANEDIT
1070
     0
1002
}
1002
{
1000
NOSEL
1070
     0
1002
}
1002
{
1000
BEHIND
1070
     0
1002
}
1002
{
1000
OTHER
1070
     0
1002
}
1002
{
1000
REACTOR
1002
}
1001
GENIUS_GENOBJ-N-FIL_13
1002
{
1000
OWNER
1000
GEN
1002
}
  0
LINE
  5
446E
  8
240
 10
73.671572875254185
 20
-35.499999999999069
 30
0.0
 11
60.750000000000497
 21
-35.499999999999289
 31
0.0
  0
LINE
  5
446F
  8
240
 10
60.750000000000497
 20
-35.499999999999289
 30
0.0
 11
60.500000000000497
 21
-35.249999999999289
 31
0.0
1001
GENIUS_GENFIL_13
1070
     0
1040
0.25
1040
0.25
1040
0.2500000000000284
1040
45.00000000000162
1002
{
1002
}
1001
GENIUS_GENOBJ-N-CHA_13
1002
{
1000
OWNER
1000
GEN
1002
}
1001
GENIUS_GENODEF_13
1002
{
1000
HIER
1070
     0
1002
}
1002
{
1000
MANEDIT
1070
     0
1002
}
1002
{
1000
NOSEL
1070
     0
1002
}
1002
{
1000
BEHIND
1070
     0
1002
}
1002
{
1000
OTHER
1070
     0
1002
}
1002
{
1000
REACTOR
1002
}
  0
ARC
  5
4470
  8
240
 10
73.67157287525427
 20
-33.499999999999183
 30
0.0
 40
2.0
 50
270.0
 51
315.0
1001
GENIUS_GENODEF_13
1002
{
1000
HIER
1070
     0
1002
}
1002
{
1000
MANEDIT
1070
     0
1002
}
1002
{
1000
NOSEL
1070
     0
1002
}
1002
{
1000
BEHIND
1070
     0
1002
}
1002
{
1000
OTHER
1070
     0
1002
}
1002
{
1000
REACTOR
1002
}
1001
GENIUS_GENOBJ-N-FIL_13
1002
{
1000
OWNER
1000
GEN
1002
}
  0
ARC
  5
4471
  8
240
 10
82.000000000001279
 20
-25.17157287525194
 30
0.0
 40
2.0
 50
315.0
 51
0.0
1001
GENIUS_GENODEF_13
1002
{
1000
HIER
1070
     0
1002
}
1002
{
1000
MANEDIT
1070
     0
1002
}
1002
{
1000
NOSEL
1070
     0
1002
}
1002
{
1000
BEHIND
1070
     0
1002
}
1002
{
1000
OTHER
1070
     0
1002
}
1002
{
1000
REACTOR
1002
}
1001
GENIUS_GENOBJ-N-FIL_13
1002
{
1000
OWNER
1000
GEN
1002
}
  0
LINE
  5
4472
  8
240
 10
75.085786437627291
 20
-34.914213562375011
 30
0.0
 11
83.414213562374414
 21
-26.585786437627888
 31
0.0
  0
LINE
  5
4473
  8
241
  6
CONTINUOUS
 10
74.500000000003226
 20
-35.32035944224684
 30
0.0
 11
74.500000000003226
 21
35.320359442249611
 31
0.0
  0
LINE
  5
4474
  8
241
 10
61.000000000000583
 20
-0.0000000000000568
 30
0.0
 11
64.000000000000568
 21
-0.0000000000014211
 31
0.0
  0
LINE
  5
4475
  8
241
 10
61.000000000000583
 20
-3.0940288675434431
 30
0.0
 11
63.000000000000568
 21
-3.0940288675434431
 31
0.0
  0
LINE
  5
4476
  8
241
 10
61.000000000000583
 20
-6.1645103071778049
 30
0.0
 11
64.000000000000568
 21
-6.1645103071778049
 31
0.0
  0
LINE
  5
4477
  8
241
 10
61.000000000000583
 20
-9.1880761011414052
 30
0.0
 11
63.000000000000568
 21
-9.1880761011414052
 31
0.0
  0
LINE
  5
4478
  8
241
 10
61.000000000000583
 20
-12.09551219646926
 30
0.0
 11
64.000000000000568
 21
-12.09551219646926
 31
0.0
  0
LINE
  5
4479
  8
241
 10
61.000000000000583
 20
-14.88898404380012
 30
0.0
 11
63.000000000000568
 21
-14.88898404380012
 31
0.0
  0
LINE
  5
447A
  8
241
 10
61.000000000000583
 20
-17.750000000002441
 30
0.0
 11
64.000000000000568
 21
-17.750000000002441
 31
0.0
  0
LINE
  5
447B
  8
241
 10
61.000000000000583
 20
-20.361963490464689
 30
0.0
 11
63.000000000000568
 21
-20.361963490464689
 31
0.0
  0
LINE
  5
447C
  8
241
 10
61.000000000000583
 20
-22.732127111295028
 30
0.0
 11
64.000000000000568
 21
-22.732127111295028
 31
0.0
  0
LINE
  5
447D
  8
241
 10
61.000000000000583
 20
-25.102290732125269
 30
0.0
 11
63.000000000000568
 21
-25.102290732125269
 31
0.0
  0
LINE
  5
447E
  8
241
 10
61.000000000000583
 20
-27.194577730726682
 30
0.0
 11
64.000000000000625
 21
-27.194577730726682
 31
0.0
  0
LINE
  5
447F
  8
241
 10
61.000000000000583
 20
-29.079897572262318
 30
0.0
 11
63.000000000000611
 21
-29.079897572262318
 31
0.0
  0
LINE
  5
4480
  8
241
 10
61.000000000000583
 20
-30.743901834350709
 30
0.0
 11
64.000000000000625
 21
-30.743901834350709
 31
0.0
  0
LINE
  5
4481
  8
241
 10
61.000000000000611
 20
-32.173926439804347
 30
0.0
 11
63.000000000000611
 21
-32.173926439804347
 31
0.0
  0
LINE
  5
4482
  8
241
 10
61.000000000000611
 20
-33.359088037903071
 30
0.0
 11
64.000000000000625
 21
-33.359088037903071
 31
0.0
  0
LINE
  5
4483
  8
241
 10
61.000000000000611
 20
-34.290366833265239
 30
0.0
 11
63.000000000000611
 21
-34.290366833265239
 31
0.0
  0
LINE
  5
4484
  8
241
 10
61.000000000000611
 20
-34.960675231936818
 30
0.0
 11
64.000000000000625
 21
-34.960675231936818
 31
0.0
  0
CIRCLE
  5
4485
  8
241
 10
53.000000000000888
 20
29.000384114497169
 30
0.0
 40
4.0000000000000231
  0
ARC
  5
4487
  8
241
  6
CONTINUOUS
 10
53.000000000000888
 20
29.000384114497169
 30
0.0
 40
4.25
 50
180.0
 51
0.0
  0
LINE
  5
4488
  8
241
  6
CONTINUOUS
 10
48.750000000000888
 20
33.25038411449718
 30
0.0
 11
48.750000000000888
 21
29.000384114497169
 31
0.0
  0
LINE
  5
4489
  8
241
  6
CONTINUOUS
 10
57.250000000000902
 20
33.25038411449718
 30
0.0
 11
57.250000000000902
 21
29.000384114497169
 31
0.0
  0
LINE
  5
448A
  8
241
  6
CONTINUOUS
 10
48.750000000000888
 20
33.25038411449718
 30
0.0
 11
57.250000000000902
 21
33.25038411449718
 31
0.0
  0
LINE
  5
448B
  8
241
 10
60.500000000000568
 20
5.145789383130305
 30
0.0
 11
46.500000000000263
 21
5.145789383130305
 31
0.0
  0
LINE
  5
448C
  8
241
 10
61.000000000000583
 20
3.0940288675433281
 30
0.0
 11
63.000000000000568
 21
3.0940288675433281
 31
0.0
  0
LINE
  5
448D
  8
241
 10
61.000000000000583
 20
6.1645103071776921
 30
0.0
 11
64.000000000000568
 21
6.1645103071776921
 31
0.0
  0
LINE
  5
448E
  8
241
 10
61.000000000000583
 20
9.1880761011412933
 30
0.0
 11
63.000000000000568
 21
9.1880761011412933
 31
0.0
  0
LINE
  5
448F
  8
241
 10
61.000000000000583
 20
12.095512196469141
 30
0.0
 11
64.000000000000568
 21
12.095512196469141
 31
0.0
  0
LINE
  5
4490
  8
241
 10
61.000000000000583
 20
14.88898404380001
 30
0.0
 11
63.000000000000568
 21
14.88898404380001
 31
0.0
  0
LINE
  5
4491
  8
241
 10
61.000000000000583
 20
17.750000000002331
 30
0.0
 11
64.000000000000568
 21
17.750000000002331
 31
0.0
  0
LINE
  5
4492
  8
241
 10
61.000000000000583
 20
20.361963490464561
 30
0.0
 11
63.000000000000568
 21
20.361963490464561
 31
0.0
  0
LINE
  5
4493
  8
241
 10
61.000000000000583
 20
22.732127111294918
 30
0.0
 11
64.000000000000568
 21
22.732127111294918
 31
0.0
  0
LINE
  5
4494
  8
241
 10
61.000000000000583
 20
25.102290732125141
 30
0.0
 11
63.000000000000568
 21
25.102290732125141
 31
0.0
  0
LINE
  5
4495
  8
241
 10
61.000000000000583
 20
27.194577730726571
 30
0.0
 11
64.000000000000625
 21
27.194577730726571
 31
0.0
  0
LINE
  5
4496
  8
241
 10
61.000000000000583
 20
29.079897572262212
 30
0.0
 11
63.000000000000611
 21
29.079897572262212
 31
0.0
  0
LINE
  5
4497
  8
241
 10
61.000000000000583
 20
30.743901834350599
 30
0.0
 11
64.000000000000625
 21
30.743901834350599
 31
0.0
  0
LINE
  5
4498
  8
241
 10
61.000000000000611
 20
32.173926439804227
 30
0.0
 11
63.000000000000611
 21
32.173926439804227
 31
0.0
  0
LINE
  5
4499
  8
241
 10
61.000000000000611
 20
33.35908803790295
 30
0.0
 11
64.000000000000625
 21
33.35908803790295
 31
0.0
  0
LINE
  5
449A
  8
241
 10
61.000000000000611
 20
34.290366833265132
 30
0.0
 11
63.000000000000611
 21
34.290366833265132
 31
0.0
  0
LINE
  5
449B
  8
241
 10
61.000000000000611
 20
34.960675231936712
 30
0.0
 11
64.000000000000625
 21
34.960675231936712
 31
0.0
  0
ARC
  5
449D
  8
240
  6
CONTINUOUS
 10
85.500000000003723
 20
-21.40000000000208
 30
0.0
 40
0.5
 50
270.00000001286469
 51
0.0000000128647076
1001
GRPNAME
1000
PASTMD3D
  0
LINE
  5
449E
  8
240
  6
CONTINUOUS
 10
84.000000000001364
 20
-21.90000000000208
 30
0.0
 11
85.500000000003723
 21
-21.90000000000208
 31
0.0
1001
GRPNAME
1000
PASTMD3D
  0
LINE
  5
449F
  8
240
  6
CONTINUOUS
 10
84.000000000001307
 20
-21.900000000002109
 30
0.0
 11
85.500000000003723
 21
-21.90000000000208
 31
0.0
1001
GRPNAME
1000
PASTMD3D
  0
LINE
  5
44A0
  8
241
  6
CONTINUOUS
 10
84.000000000001364
 20
-21.90000000000208
 30
0.0
 11
84.000000000001364
 21
21.900000000001999
 31
0.0
  0
LINE
  5
44A1
  8
240
 10
86.500000000002288
 20
-25.34999999999874
 30
0.0
 11
89.999999999998536
 21
-25.3500000000002
 31
0.0
  0
LINE
  5
44A2
  8
240
  6
CONTINUOUS
 10
86.000000000002501
 20
-24.849999999998801
 30
0.0
 11
86.00000000000216
 21
-21.400000000002031
 31
0.0
1001
GRPNAME
1000
PASTMD0F
  0
ARC
  5
44A3
  8
240
 10
86.500000000002501
 20
-24.849999999998751
 30
0.0
 40
0.5
 50
180.00000000000469
 51
269.9999999999755
1001
GRPNAME
1000
PASTMD0F
1001
ASK_MEN_XD
1005
44A1
1070
     1
1005
44A2
1070
     1
  0
LINE
  5
44A4
  8
240
 10
123.4782956878274
 20
-23.887743264609298
 30
0.0
 11
116.5660254037893
 21
-24.249999999999432
 31
0.0
  0
LINE
  5
44A5
  8
241
 10
104.6999999999998
 20
-24.999999999999829
 30
0.0
 11
104.6999999999998
 21
-0.0000000000000568
 31
0.0
  0
LINE
  5
44A6
  8
241
 10
89.999999999998536
 20
-25.350000000000879
 30
0.0
 11
89.999999999998494
 21
-0.0000000000000568
 31
0.0
  0
LINE
  5
44A7
  8
241
 10
92.000000000000483
 20
-24.999999999999751
 30
0.0
 11
92.000000000000625
 21
-0.0000000000000568
 31
0.0
  0
LINE
  5
44A8
  8
240
  6
CONTINUOUS
 10
105.64999999999969
 20
-24.049999999999841
 30
0.0
 11
106.9999999999998
 21
-24.049999999999841
 31
0.0
  0
LINE
  5
44A9
  8
240
  6
CONTINUOUS
 10
92.000000000000483
 20
-24.999999999999751
 30
0.0
 11
104.6999999999998
 21
-24.999999999999829
 31
0.0
  0
LINE
  5
44AA
  8
241
 10
90.550000000000651
 20
-24.799999999999809
 30
0.0
 11
90.550000000000651
 21
-21.58968556564415
 31
0.0
  0
LINE
  5
44AB
  8
241
 10
91.800000000000651
 20
-24.799999999999841
 30
0.0
 11
91.800000000000651
 21
-21.551481264506378
 31
0.0
  0
LINE
  5
44AC
  8
240
  6
CONTINUOUS
 10
92.000000000000625
 20
-24.999999999999829
 30
0.0
 11
91.800000000000651
 21
-24.799999999999841
 31
0.0
  0
LINE
  5
44AD
  8
240
  6
CONTINUOUS
 10
89.999999999998536
 20
-25.350000000000879
 30
0.0
 11
90.550000000000651
 21
-24.799999999999841
 31
0.0
  0
LINE
  5
44AE
  8
240
  6
CONTINUOUS
 10
90.550000000000651
 20
-24.799999999999841
 30
0.0
 11
91.800000000000651
 21
-24.799999999999841
 31
0.0
  0
LINE
  5
44AF
  8
241
 10
105.64999999999969
 20
-24.049999999999841
 30
0.0
 11
105.64999999999969
 21
-21.548804731621399
 31
0.0
  0
LINE
  5
44B0
  8
241
 10
105.64999999999969
 20
-21.00336912589168
 30
0.0
 11
105.64999999999969
 21
-0.5454356057297221
 31
0.0
  0
LINE
  5
44B1
  8
240
  6
CONTINUOUS
 10
105.64999999999969
 20
-24.049999999999841
 30
0.0
 11
104.6999999999998
 21
-24.999999999999829
 31
0.0
  0
LINE
  5
44B2
  8
240
  6
CONTINUOUS
 10
107.6999999999997
 20
-24.749999999999829
 30
0.0
 11
114.6999999999999
 21
-24.749999999999719
 31
0.0
  0
LINE
  5
44B3
  8
241
 10
106.9999999999998
 20
-24.049999999999869
 30
0.0
 11
106.9999999999998
 21
-22.54494468280134
 31
0.0
  0
LINE
  5
44B4
  8
241
 10
106.9999999999998
 20
-20.007229174711739
 30
0.0
 11
106.9999999999998
 21
-2.5377155080897169
 31
0.0
  0
LINE
  5
44B5
  8
241
 10
107.6999999999997
 20
-24.749999999999801
 30
0.0
 11
107.6999999999997
 21
-22.706995730881879
 31
0.0
  0
LINE
  5
44B6
  8
241
 10
107.6999999999997
 20
-19.8451781266312
 30
0.0
 11
107.6999999999998
 21
-2.8618176042507741
 31
0.0
  0
LINE
  5
44B7
  8
240
  6
CONTINUOUS
 10
106.9999999999998
 20
-24.049999999999841
 30
0.0
 11
107.6999999999997
 21
-24.749999999999801
 31
0.0
  0
LINE
  5
44B8
  8
241
 10
114.6999999999999
 20
-24.749999999999751
 30
0.0
 11
114.6999999999998
 21
-22.667375852246892
 31
0.0
  0
LINE
  5
44B9
  8
241
 10
114.6999999999998
 20
-19.884798005266159
 30
0.0
 11
114.6999999999996
 21
-2.777427157487693
 31
0.0
  0
LINE
  5
44BA
  8
240
  6
CONTINUOUS
 10
116.5660254037893
 20
-24.249999999999432
 30
0.0
 11
114.6999999999999
 21
-24.749999999999719
 31
0.0
  0
LINE
  5
44BB
  8
241
 10
116.5660254037891
 20
-24.24999999999946
 30
0.0
 11
116.5660254037891
 21
-21.499937501344931
 31
0.0
  0
LINE
  5
44BC
  8
241
 10
116.5660254037891
 20
-21.052236356168208
 30
0.0
 11
116.5660254037894
 21
-0.0000000000000568
 31
0.0
  0
LINE
  5
44DF
  8
240
 10
129.5
 20
-20.78867513459485
 30
0.0
 11
124.8212878190987
 21
-23.489930871698899
 31
0.0
  0
ARC
  5
44E0
  8
240
 10
123.3212878190987
 20
-20.891854660345562
 30
0.0
 40
3.0
 50
272.99999999999591
 51
299.99999999999972
1001
ASK_MEN_XD
1005
44A4
1070
     1
1005
44DF
1070
     1
  0
ARC
  5
44E1
  8
240
 10
129.0
 20
-19.922649730810381
 30
0.0
 40
1.0
 50
299.99999999999972
 51
0.0
1001
ASK_MEN_XD
1005
0
1070
     1
1005
0
1070
     1
  0
LINE
  5
44E2
  8
241
 10
124.19754490628139
 20
-23.76103111312122
 30
0.0
 11
124.19754490628139
 21
-0.1005458820945932
 31
0.0
  0
LINE
  5
44E5
  8
241
 10
108.59999999999999
 20
-19.776086928756541
 30
0.0
 11
113.5660254037894
 21
-19.776086928756541
 31
0.0
  0
LINE
  5
44E6
  8
241
 10
108.59999999999999
 20
-22.776086928756541
 30
0.0
 11
113.5660254037894
 21
-22.776086928756541
 31
0.0
  0
LINE
  5
44E7
  8
241
 10
113.5660254037894
 20
-3.0000000000000551
 30
0.0
 11
108.59999999999999
 21
-3.0000000000000551
 31
0.0
  0
LINE
  5
44E8
  8
241
 10
113.5660254037894
 20
2.9999999999999432
 30
0.0
 11
108.59999999999999
 21
2.9999999999999432
 31
0.0
  0
ARC
  5
44E9
  8
241
 10
108.59999999999999
 20
-0.0000000000000568
 30
0.0
 40
3.0
 50
90.0
 51
270.0
  0
ARC
  5
44EA
  8
241
 10
113.5660254037894
 20
-0.0000000000000568
 30
0.0
 40
2.999999999999984
 50
270.0
 51
90.0
  0
POLYLINE
  5
44EB
  8
241
 66
     1
 10
0.0
 20
0.0
 30
0.0
 70
     8
  0
VERTEX
  5
4A90
  8
241
 10
108.59999999999999
 20
-19.7761
 30
0.0
 70
    32
  0
VERTEX
  5
4A91
  8
241
 10
108.526
 20
-19.776499999999999
 30
0.0
 70
    32
  0
VERTEX
  5
4A92
  8
241
 10
108.453
 20
-19.777899999999999
 30
0.0
 70
    32
  0
VERTEX
  5
4A93
  8
241
 10
108.379
 20
-19.780200000000001
 30
0.0
 70
    32
  0
VERTEX
  5
4A94
  8
241
 10
108.306
 20
-19.783300000000001
 30
0.0
 70
    32
  0
VERTEX
  5
4A95
  8
241
 10
108.233
 20
-19.787400000000002
 30
0.0
 70
    32
  0
VERTEX
  5
4A96
  8
241
 10
108.16
 20
-19.792300000000001
 30
0.0
 70
    32
  0
VERTEX
  5
4A97
  8
241
 10
108.087
 20
-19.798200000000001
 30
0.0
 70
    32
  0
VERTEX
  5
4A98
  8
241
 10
108.015
 20
-19.8049
 30
0.0
 70
    32
  0
VERTEX
  5
4A99
  8
241
 10
107.943
 20
-19.8125
 30
0.0
 70
    32
  0
VERTEX
  5
4A9A
  8
241
 10
107.871
 20
-19.821000000000002
 30
0.0
 70
    32
  0
VERTEX
  5
4A9B
  8
241
 10
107.8
 20
-19.830400000000001
 30
0.0
 70
    32
  0
VERTEX
  5
4A9C
  8
241
 10
107.729
 20
-19.840699999999998
 30
0.0
 70
    32
  0
VERTEX
  5
4A9D
  8
241
 10
107.65900000000001
 20
-19.851800000000001
 30
0.0
 70
    32
  0
VERTEX
  5
4A9E
  8
241
 10
107.589
 20
-19.863800000000001
 30
0.0
 70
    32
  0
VERTEX
  5
4A9F
  8
241
 10
107.52
 20
-19.8766
 30
0.0
 70
    32
  0
VERTEX
  5
4AA0
  8
241
 10
107.452
 20
-19.8903
 30
0.0
 70
    32
  0
VERTEX
  5
4AA1
  8
241
 10
107.384
 20
-19.904800000000002
 30
0.0
 70
    32
  0
VERTEX
  5
4AA2
  8
241
 10
107.31699999999999
 20
-19.920100000000001
 30
0.0
 70
    32
  0
VERTEX
  5
4AA3
  8
241
 10
107.251
 20
-19.936299999999999
 30
0.0
 70
    32
  0
VERTEX
  5
4AA4
  8
241
 10
107.18600000000001
 20
-19.953199999999999
 30
0.0
 70
    32
  0
VERTEX
  5
4AA5
  8
241
 10
107.121
 20
-19.971
 30
0.0
 70
    32
  0
VERTEX
  5
4AA6
  8
241
 10
107.05800000000001
 20
-19.9895
 30
0.0
 70
    32
  0
VERTEX
  5
4AA7
  8
241
 10
106.995
 20
-20.008800000000001
 30
0.0
 70
    32
  0
VERTEX
  5
4AA8
  8
241
 10
106.93300000000001
 20
-20.0289
 30
0.0
 70
    32
  0
VERTEX
  5
4AA9
  8
241
 10
106.873
 20
-20.049700000000001
 30
0.0
 70
    32
  0
VERTEX
  5
4AAA
  8
241
 10
106.813
 20
-20.071300000000001
 30
0.0
 70
    32
  0
VERTEX
  5
4AAB
  8
241
 10
106.754
 20
-20.093599999999999
 30
0.0
 70
    32
  0
VERTEX
  5
4AAC
  8
241
 10
106.697
 20
-20.116599999999998
 30
0.0
 70
    32
  0
VERTEX
  5
4AAD
  8
241
 10
106.64
 20
-20.1403
 30
0.0
 70
    32
  0
VERTEX
  5
4AAE
  8
241
 10
106.58499999999999
 20
-20.1647
 30
0.0
 70
    32
  0
VERTEX
  5
4AAF
  8
241
 10
106.53100000000001
 20
-20.189699999999998
 30
0.0
 70
    32
  0
VERTEX
  5
4AB0
  8
241
 10
106.479
 20
-20.215399999999999
 30
0.0
 70
    32
  0
VERTEX
  5
4AB1
  8
241
 10
106.42700000000001
 20
-20.241800000000001
 30
0.0
 70
    32
  0
VERTEX
  5
4AB2
  8
241
 10
106.377
 20
-20.268699999999999
 30
0.0
 70
    32
  0
VERTEX
  5
4AB3
  8
241
 10
106.328
 20
-20.296299999999999
 30
0.0
 70
    32
  0
VERTEX
  5
4AB4
  8
241
 10
106.28100000000001
 20
-20.3245
 30
0.0
 70
    32
  0
VERTEX
  5
4AB5
  8
241
 10
106.235
 20
-20.353200000000001
 30
0.0
 70
    32
  0
VERTEX
  5
4AB6
  8
241
 10
106.19
 20
-20.3825
 30
0.0
 70
    32
  0
VERTEX
  5
4AB7
  8
241
 10
106.14700000000001
 20
-20.412400000000002
 30
0.0
 70
    32
  0
VERTEX
  5
4AB8
  8
241
 10
106.10599999999999
 20
-20.442699999999999
 30
0.0
 70
    32
  0
VERTEX
  5
4AB9
  8
241
 10
106.065
 20
-20.473600000000001
 30
0.0
 70
    32
  0
VERTEX
  5
4ABA
  8
241
 10
106.027
 20
-20.504899999999999
 30
0.0
 70
    32
  0
VERTEX
  5
4ABB
  8
241
 10
105.98999999999999
 20
-20.5367
 30
0.0
 70
    32
  0
VERTEX
  5
4ABC
  8
241
 10
105.95399999999999
 20
-20.568999999999999
 30
0.0
 70
    32
  0
VERTEX
  5
4ABD
  8
241
 10
105.92
 20
-20.601700000000001
 30
0.0
 70
    32
  0
VERTEX
  5
4ABE
  8
241
 10
105.88800000000001
 20
-20.634799999999998
 30
0.0
 70
    32
  0
VERTEX
  5
4ABF
  8
241
 10
105.857
 20
-20.668199999999999
 30
0.0
 70
    32
  0
VERTEX
  5
4AC0
  8
241
 10
105.828
 20
-20.702100000000002
 30
0.0
 70
    32
  0
VERTEX
  5
4AC1
  8
241
 10
105.801
 20
-20.7362
 30
0.0
 70
    32
  0
VERTEX
  5
4AC2
  8
241
 10
105.77500000000001
 20
-20.770800000000001
 30
0.0
 70
    32
  0
VERTEX
  5
4AC3
  8
241
 10
105.751
 20
-20.805599999999998
 30
0.0
 70
    32
  0
VERTEX
  5
4AC4
  8
241
 10
105.729
 20
-20.840699999999998
 30
0.0
 70
    32
  0
VERTEX
  5
4AC5
  8
241
 10
105.709
 20
-20.876000000000001
 30
0.0
 70
    32
  0
VERTEX
  5
4AC6
  8
241
 10
105.69
 20
-20.9116
 30
0.0
 70
    32
  0
VERTEX
  5
4AC7
  8
241
 10
105.673
 20
-20.947399999999998
 30
0.0
 70
    32
  0
VERTEX
  5
4AC8
  8
241
 10
105.658
 20
-20.983499999999999
 30
0.0
 70
    32
  0
VERTEX
  5
4AC9
  8
241
 10
105.64400000000001
 20
-21.019600000000001
 30
0.0
 70
    32
  0
VERTEX
  5
4ACA
  8
241
 10
105.63200000000001
 20
-21.056000000000001
 30
0.0
 70
    32
  0
VERTEX
  5
4ACB
  8
241
 10
105.623
 20
-21.092500000000001
 30
0.0
 70
    32
  0
VERTEX
  5
4ACC
  8
241
 10
105.614
 20
-21.129100000000001
 30
0.0
 70
    32
  0
VERTEX
  5
4ACD
  8
241
 10
105.608
 20
-21.165700000000001
 30
0.0
 70
    32
  0
VERTEX
  5
4ACE
  8
241
 10
105.604
 20
-21.202500000000001
 30
0.0
 70
    32
  0
VERTEX
  5
4ACF
  8
241
 10
105.601
 20
-21.2393
 30
0.0
 70
    32
  0
VERTEX
  5
4AD0
  8
241
 10
105.59999999999999
 20
-21.2761
 30
0.0
 70
    32
  0
VERTEX
  5
4AD1
  8
241
 10
105.601
 20
-21.312899999999999
 30
0.0
 70
    32
  0
VERTEX
  5
4AD2
  8
241
 10
105.604
 20
-21.349699999999999
 30
0.0
 70
    32
  0
VERTEX
  5
4AD3
  8
241
 10
105.608
 20
-21.386399999999998
 30
0.0
 70
    32
  0
VERTEX
  5
4AD4
  8
241
 10
105.614
 20
-21.423100000000002
 30
0.0
 70
    32
  0
VERTEX
  5
4AD5
  8
241
 10
105.623
 20
-21.459700000000002
 30
0.0
 70
    32
  0
VERTEX
  5
4AD6
  8
241
 10
105.63200000000001
 20
-21.496200000000002
 30
0.0
 70
    32
  0
VERTEX
  5
4AD7
  8
241
 10
105.64400000000001
 20
-21.532499999999999
 30
0.0
 70
    32
  0
VERTEX
  5
4AD8
  8
241
 10
105.658
 20
-21.5687
 30
0.0
 70
    32
  0
VERTEX
  5
4AD9
  8
241
 10
105.673
 20
-21.604700000000001
 30
0.0
 70
    32
  0
VERTEX
  5
4ADA
  8
241
 10
105.69
 20
-21.640599999999999
 30
0.0
 70
    32
  0
VERTEX
  5
4ADB
  8
241
 10
105.709
 20
-21.676200000000001
 30
0.0
 70
    32
  0
VERTEX
  5
4ADC
  8
241
 10
105.729
 20
-21.711500000000001
 30
0.0
 70
    32
  0
VERTEX
  5
4ADD
  8
241
 10
105.751
 20
-21.746600000000001
 30
0.0
 70
    32
  0
VERTEX
  5
4ADE
  8
241
 10
105.77500000000001
 20
-21.781400000000001
 30
0.0
 70
    32
  0
VERTEX
  5
4ADF
  8
241
 10
105.801
 20
-21.815899999999999
 30
0.0
 70
    32
  0
VERTEX
  5
4AE0
  8
241
 10
105.828
 20
-21.850100000000001
 30
0.0
 70
    32
  0
VERTEX
  5
4AE1
  8
241
 10
105.857
 20
-21.883900000000001
 30
0.0
 70
    32
  0
VERTEX
  5
4AE2
  8
241
 10
105.88800000000001
 20
-21.917400000000001
 30
0.0
 70
    32
  0
VERTEX
  5
4AE3
  8
241
 10
105.92
 20
-21.950500000000002
 30
0.0
 70
    32
  0
VERTEX
  5
4AE4
  8
241
 10
105.95399999999999
 20
-21.9832
 30
0.0
 70
    32
  0
VERTEX
  5
4AE5
  8
241
 10
105.98999999999999
 20
-22.0154
 30
0.0
 70
    32
  0
VERTEX
  5
4AE6
  8
241
 10
106.027
 20
-22.0472
 30
0.0
 70
    32
  0
VERTEX
  5
4AE7
  8
241
 10
106.065
 20
-22.078600000000002
 30
0.0
 70
    32
  0
VERTEX
  5
4AE8
  8
241
 10
106.10599999999999
 20
-22.109400000000001
 30
0.0
 70
    32
  0
VERTEX
  5
4AE9
  8
241
 10
106.14700000000001
 20
-22.139800000000001
 30
0.0
 70
    32
  0
VERTEX
  5
4AEA
  8
241
 10
106.19
 20
-22.169599999999999
 30
0.0
 70
    32
  0
VERTEX
  5
4AEB
  8
241
 10
106.235
 20
-22.198899999999998
 30
0.0
 70
    32
  0
VERTEX
  5
4AEC
  8
241
 10
106.28100000000001
 20
-22.227699999999999
 30
0.0
 70
    32
  0
VERTEX
  5
4AED
  8
241
 10
106.328
 20
-22.255800000000001
 30
0.0
 70
    32
  0
VERTEX
  5
4AEE
  8
241
 10
106.377
 20
-22.2834
 30
0.0
 70
    32
  0
VERTEX
  5
4AEF
  8
241
 10
106.42700000000001
 20
-22.310400000000001
 30
0.0
 70
    32
  0
VERTEX
  5
4AF0
  8
241
 10
106.479
 20
-22.3367
 30
0.0
 70
    32
  0
VERTEX
  5
4AF1
  8
241
 10
106.53100000000001
 20
-22.362500000000001
 30
0.0
 70
    32
  0
VERTEX
  5
4AF2
  8
241
 10
106.58499999999999
 20
-22.387499999999999
 30
0.0
 70
    32
  0
VERTEX
  5
4AF3
  8
241
 10
106.64
 20
-22.411899999999999
 30
0.0
 70
    32
  0
VERTEX
  5
4AF4
  8
241
 10
106.697
 20
-22.435600000000001
 30
0.0
 70
    32
  0
VERTEX
  5
4AF5
  8
241
 10
106.754
 20
-22.458600000000001
 30
0.0
 70
    32
  0
VERTEX
  5
4AF6
  8
241
 10
106.813
 20
-22.480899999999998
 30
0.0
 70
    32
  0
VERTEX
  5
4AF7
  8
241
 10
106.873
 20
-22.502500000000001
 30
0.0
 70
    32
  0
VERTEX
  5
4AF8
  8
241
 10
106.93300000000001
 20
-22.523299999999999
 30
0.0
 70
    32
  0
VERTEX
  5
4AF9
  8
241
 10
106.995
 20
-22.543399999999998
 30
0.0
 70
    32
  0
VERTEX
  5
4AFA
  8
241
 10
107.05800000000001
 20
-22.5627
 30
0.0
 70
    32
  0
VERTEX
  5
4AFB
  8
241
 10
107.121
 20
-22.581199999999999
 30
0.0
 70
    32
  0
VERTEX
  5
4AFC
  8
241
 10
107.18600000000001
 20
-22.599
 30
0.0
 70
    32
  0
VERTEX
  5
4AFD
  8
241
 10
107.251
 20
-22.6159
 30
0.0
 70
    32
  0
VERTEX
  5
4AFE
  8
241
 10
107.31699999999999
 20
-22.632100000000001
 30
0.0
 70
    32
  0
VERTEX
  5
4AFF
  8
241
 10
107.384
 20
-22.647400000000001
 30
0.0
 70
    32
  0
VERTEX
  5
4B00
  8
241
 10
107.452
 20
-22.661899999999999
 30
0.0
 70
    32
  0
VERTEX
  5
4B01
  8
241
 10
107.52
 20
-22.675599999999999
 30
0.0
 70
    32
  0
VERTEX
  5
4B02
  8
241
 10
107.589
 20
-22.688400000000001
 30
0.0
 70
    32
  0
VERTEX
  5
4B03
  8
241
 10
107.65900000000001
 20
-22.700399999999998
 30
0.0
 70
    32
  0
VERTEX
  5
4B04
  8
241
 10
107.729
 20
-22.711500000000001
 30
0.0
 70
    32
  0
VERTEX
  5
4B05
  8
241
 10
107.8
 20
-22.721800000000002
 30
0.0
 70
    32
  0
VERTEX
  5
4B06
  8
241
 10
107.871
 20
-22.731100000000001
 30
0.0
 70
    32
  0
VERTEX
  5
4B07
  8
241
 10
107.943
 20
-22.739599999999999
 30
0.0
 70
    32
  0
VERTEX
  5
4B08
  8
241
 10
108.015
 20
-22.747299999999999
 30
0.0
 70
    32
  0
VERTEX
  5
4B09
  8
241
 10
108.087
 20
-22.754000000000001
 30
0.0
 70
    32
  0
VERTEX
  5
4B0A
  8
241
 10
108.16
 20
-22.759899999999998
 30
0.0
 70
    32
  0
VERTEX
  5
4B0B
  8
241
 10
108.233
 20
-22.764800000000001
 30
0.0
 70
    32
  0
VERTEX
  5
4B0C
  8
241
 10
108.306
 20
-22.768899999999999
 30
0.0
 70
    32
  0
VERTEX
  5
4B0D
  8
241
 10
108.379
 20
-22.771999999999998
 30
0.0
 70
    32
  0
VERTEX
  5
4B0E
  8
241
 10
108.453
 20
-22.7743
 30
0.0
 70
    32
  0
VERTEX
  5
4B0F
  8
241
 10
108.526
 20
-22.775600000000001
 30
0.0
 70
    32
  0
VERTEX
  5
4B10
  8
241
 10
108.59999999999999
 20
-22.7761
 30
0.0
 70
    32
  0
SEQEND
  5
4B11
  8
241
  0
POLYLINE
  5
44EC
  8
241
 66
     1
 10
0.0
 20
0.0
 30
0.0
 70
     8
  0
VERTEX
  5
4B12
  8
241
 10
113.566
 20
-22.7761
 30
0.0
 70
    32
  0
VERTEX
  5
4B13
  8
241
 10
113.64
 20
-22.775600000000001
 30
0.0
 70
    32
  0
VERTEX
  5
4B14
  8
241
 10
113.715
 20
-22.7743
 30
0.0
 70
    32
  0
VERTEX
  5
4B15
  8
241
 10
113.789
 20
-22.771999999999998
 30
0.0
 70
    32
  0
VERTEX
  5
4B16
  8
241
 10
113.863
 20
-22.768899999999999
 30
0.0
 70
    32
  0
VERTEX
  5
4B17
  8
241
 10
113.937
 20
-22.764800000000001
 30
0.0
 70
    32
  0
VERTEX
  5
4B18
  8
241
 10
114.011
 20
-22.759899999999998
 30
0.0
 70
    32
  0
VERTEX
  5
4B19
  8
241
 10
114.08499999999999
 20
-22.754000000000001
 30
0.0
 70
    32
  0
VERTEX
  5
4B1A
  8
241
 10
114.158
 20
-22.747299999999999
 30
0.0
 70
    32
  0
VERTEX
  5
4B1B
  8
241
 10
114.23099999999999
 20
-22.739599999999999
 30
0.0
 70
    32
  0
VERTEX
  5
4B1C
  8
241
 10
114.303
 20
-22.731100000000001
 30
0.0
 70
    32
  0
VERTEX
  5
4B1D
  8
241
 10
114.375
 20
-22.721800000000002
 30
0.0
 70
    32
  0
VERTEX
  5
4B1E
  8
241
 10
114.447
 20
-22.711500000000001
 30
0.0
 70
    32
  0
VERTEX
  5
4B1F
  8
241
 10
114.518
 20
-22.700399999999998
 30
0.0
 70
    32
  0
VERTEX
  5
4B20
  8
241
 10
114.58799999999999
 20
-22.688400000000001
 30
0.0
 70
    32
  0
VERTEX
  5
4B21
  8
241
 10
114.658
 20
-22.675599999999999
 30
0.0
 70
    32
  0
VERTEX
  5
4B22
  8
241
 10
114.727
 20
-22.661899999999999
 30
0.0
 70
    32
  0
VERTEX
  5
4B23
  8
241
 10
114.79600000000001
 20
-22.647400000000001
 30
0.0
 70
    32
  0
VERTEX
  5
4B24
  8
241
 10
114.863
 20
-22.632100000000001
 30
0.0
 70
    32
  0
VERTEX
  5
4B25
  8
241
 10
114.93000000000001
 20
-22.6159
 30
0.0
 70
    32
  0
VERTEX
  5
4B26
  8
241
 10
114.996
 20
-22.599
 30
0.0
 70
    32
  0
VERTEX
  5
4B27
  8
241
 10
115.06100000000001
 20
-22.581199999999999
 30
0.0
 70
    32
  0
VERTEX
  5
4B28
  8
241
 10
115.126
 20
-22.5627
 30
0.0
 70
    32
  0
VERTEX
  5
4B29
  8
241
 10
115.18899999999999
 20
-22.543399999999998
 30
0.0
 70
    32
  0
VERTEX
  5
4B2A
  8
241
 10
115.252
 20
-22.523299999999999
 30
0.0
 70
    32
  0
VERTEX
  5
4B2B
  8
241
 10
115.313
 20
-22.502500000000001
 30
0.0
 70
    32
  0
VERTEX
  5
4B2C
  8
241
 10
115.373
 20
-22.480899999999998
 30
0.0
 70
    32
  0
VERTEX
  5
4B2D
  8
241
 10
115.43300000000001
 20
-22.458600000000001
 30
0.0
 70
    32
  0
VERTEX
  5
4B2E
  8
241
 10
115.491
 20
-22.435600000000001
 30
0.0
 70
    32
  0
VERTEX
  5
4B2F
  8
241
 10
115.548
 20
-22.411899999999999
 30
0.0
 70
    32
  0
VERTEX
  5
4B30
  8
241
 10
115.604
 20
-22.387499999999999
 30
0.0
 70
    32
  0
VERTEX
  5
4B31
  8
241
 10
115.658
 20
-22.362500000000001
 30
0.0
 70
    32
  0
VERTEX
  5
4B32
  8
241
 10
115.711
 20
-22.3367
 30
0.0
 70
    32
  0
VERTEX
  5
4B33
  8
241
 10
115.76300000000001
 20
-22.310400000000001
 30
0.0
 70
    32
  0
VERTEX
  5
4B34
  8
241
 10
115.81399999999999
 20
-22.2834
 30
0.0
 70
    32
  0
VERTEX
  5
4B35
  8
241
 10
115.863
 20
-22.255800000000001
 30
0.0
 70
    32
  0
VERTEX
  5
4B36
  8
241
 10
115.911
 20
-22.227699999999999
 30
0.0
 70
    32
  0
VERTEX
  5
4B37
  8
241
 10
115.958
 20
-22.198899999999998
 30
0.0
 70
    32
  0
VERTEX
  5
4B38
  8
241
 10
116.003
 20
-22.169599999999999
 30
0.0
 70
    32
  0
VERTEX
  5
4B39
  8
241
 10
116.047
 20
-22.139800000000001
 30
0.0
 70
    32
  0
VERTEX
  5
4B3A
  8
241
 10
116.089
 20
-22.109400000000001
 30
0.0
 70
    32
  0
VERTEX
  5
4B3B
  8
241
 10
116.129
 20
-22.078600000000002
 30
0.0
 70
    32
  0
VERTEX
  5
4B3C
  8
241
 10
116.16800000000001
 20
-22.0472
 30
0.0
 70
    32
  0
VERTEX
  5
4B3D
  8
241
 10
116.206
 20
-22.0154
 30
0.0
 70
    32
  0
VERTEX
  5
4B3E
  8
241
 10
116.242
 20
-21.9832
 30
0.0
 70
    32
  0
VERTEX
  5
4B3F
  8
241
 10
116.276
 20
-21.950500000000002
 30
0.0
 70
    32
  0
VERTEX
  5
4B40
  8
241
 10
116.309
 20
-21.917400000000001
 30
0.0
 70
    32
  0
VERTEX
  5
4B41
  8
241
 10
116.34
 20
-21.883900000000001
 30
0.0
 70
    32
  0
VERTEX
  5
4B42
  8
241
 10
116.369
 20
-21.850100000000001
 30
0.0
 70
    32
  0
VERTEX
  5
4B43
  8
241
 10
116.39700000000001
 20
-21.815899999999999
 30
0.0
 70
    32
  0
VERTEX
  5
4B44
  8
241
 10
116.423
 20
-21.781400000000001
 30
0.0
 70
    32
  0
VERTEX
  5
4B45
  8
241
 10
116.447
 20
-21.746600000000001
 30
0.0
 70
    32
  0
VERTEX
  5
4B46
  8
241
 10
116.46899999999999
 20
-21.711500000000001
 30
0.0
 70
    32
  0
VERTEX
  5
4B47
  8
241
 10
116.48999999999999
 20
-21.676200000000001
 30
0.0
 70
    32
  0
VERTEX
  5
4B48
  8
241
 10
116.509
 20
-21.640599999999999
 30
0.0
 70
    32
  0
VERTEX
  5
4B49
  8
241
 10
116.526
 20
-21.604700000000001
 30
0.0
 70
    32
  0
VERTEX
  5
4B4A
  8
241
 10
116.542
 20
-21.5687
 30
0.0
 70
    32
  0
VERTEX
  5
4B4B
  8
241
 10
116.55500000000001
 20
-21.532499999999999
 30
0.0
 70
    32
  0
VERTEX
  5
4B4C
  8
241
 10
116.56699999999999
 20
-21.496200000000002
 30
0.0
 70
    32
  0
VERTEX
  5
4B4D
  8
241
 10
116.577
 20
-21.459700000000002
 30
0.0
 70
    32
  0
VERTEX
  5
4B4E
  8
241
 10
116.58499999999999
 20
-21.423100000000002
 30
0.0
 70
    32
  0
VERTEX
  5
4B4F
  8
241
 10
116.592
 20
-21.386399999999998
 30
0.0
 70
    32
  0
VERTEX
  5
4B50
  8
241
 10
116.596
 20
-21.349699999999999
 30
0.0
 70
    32
  0
VERTEX
  5
4B51
  8
241
 10
116.599
 20
-21.312899999999999
 30
0.0
 70
    32
  0
VERTEX
  5
4B52
  8
241
 10
116.59999999999999
 20
-21.2761
 30
0.0
 70
    32
  0
VERTEX
  5
4B53
  8
241
 10
116.599
 20
-21.2393
 30
0.0
 70
    32
  0
VERTEX
  5
4B54
  8
241
 10
116.596
 20
-21.202500000000001
 30
0.0
 70
    32
  0
VERTEX
  5
4B55
  8
241
 10
116.592
 20
-21.165700000000001
 30
0.0
 70
    32
  0
VERTEX
  5
4B56
  8
241
 10
116.58499999999999
 20
-21.129100000000001
 30
0.0
 70
    32
  0
VERTEX
  5
4B57
  8
241
 10
116.577
 20
-21.092500000000001
 30
0.0
 70
    32
  0
VERTEX
  5
4B58
  8
241
 10
116.56699999999999
 20
-21.056000000000001
 30
0.0
 70
    32
  0
VERTEX
  5
4B59
  8
241
 10
116.55500000000001
 20
-21.019600000000001
 30
0.0
 70
    32
  0
VERTEX
  5
4B5A
  8
241
 10
116.542
 20
-20.983499999999999
 30
0.0
 70
    32
  0
VERTEX
  5
4B5B
  8
241
 10
116.526
 20
-20.947399999999998
 30
0.0
 70
    32
  0
VERTEX
  5
4B5C
  8
241
 10
116.509
 20
-20.9116
 30
0.0
 70
    32
  0
VERTEX
  5
4B5D
  8
241
 10
116.48999999999999
 20
-20.876000000000001
 30
0.0
 70
    32
  0
VERTEX
  5
4B5E
  8
241
 10
116.46899999999999
 20
-20.840699999999998
 30
0.0
 70
    32
  0
VERTEX
  5
4B5F
  8
241
 10
116.447
 20
-20.805599999999998
 30
0.0
 70
    32
  0
VERTEX
  5
4B60
  8
241
 10
116.423
 20
-20.770800000000001
 30
0.0
 70
    32
  0
VERTEX
  5
4B61
  8
241
 10
116.39700000000001
 20
-20.7362
 30
0.0
 70
    32
  0
VERTEX
  5
4B62
  8
241
 10
116.369
 20
-20.702100000000002
 30
0.0
 70
    32
  0
VERTEX
  5
4B63
  8
241
 10
116.34
 20
-20.668199999999999
 30
0.0
 70
    32
  0
VERTEX
  5
4B64
  8
241
 10
116.309
 20
-20.634799999999998
 30
0.0
 70
    32
  0
VERTEX
  5
4B65
  8
241
 10
116.276
 20
-20.601700000000001
 30
0.0
 70
    32
  0
VERTEX
  5
4B66
  8
241
 10
116.242
 20
-20.568999999999999
 30
0.0
 70
    32
  0
VERTEX
  5
4B67
  8
241
 10
116.206
 20
-20.5367
 30
0.0
 70
    32
  0
VERTEX
  5
4B68
  8
241
 10
116.16800000000001
 20
-20.504899999999999
 30
0.0
 70
    32
  0
VERTEX
  5
4B69
  8
241
 10
116.129
 20
-20.473600000000001
 30
0.0
 70
    32
  0
VERTEX
  5
4B6A
  8
241
 10
116.089
 20
-20.442699999999999
 30
0.0
 70
    32
  0
VERTEX
  5
4B6B
  8
241
 10
116.047
 20
-20.412400000000002
 30
0.0
 70
    32
  0
VERTEX
  5
4B6C
  8
241
 10
116.003
 20
-20.3825
 30
0.0
 70
    32
  0
VERTEX
  5
4B6D
  8
241
 10
115.958
 20
-20.353200000000001
 30
0.0
 70
    32
  0
VERTEX
  5
4B6E
  8
241
 10
115.911
 20
-20.3245
 30
0.0
 70
    32
  0
VERTEX
  5
4B6F
  8
241
 10
115.863
 20
-20.296299999999999
 30
0.0
 70
    32
  0
VERTEX
  5
4B70
  8
241
 10
115.81399999999999
 20
-20.268699999999999
 30
0.0
 70
    32
  0
VERTEX
  5
4B71
  8
241
 10
115.76300000000001
 20
-20.241800000000001
 30
0.0
 70
    32
  0
VERTEX
  5
4B72
  8
241
 10
115.711
 20
-20.215399999999999
 30
0.0
 70
    32
  0
VERTEX
  5
4B73
  8
241
 10
115.658
 20
-20.189699999999998
 30
0.0
 70
    32
  0
VERTEX
  5
4B74
  8
241
 10
115.604
 20
-20.1647
 30
0.0
 70
    32
  0
VERTEX
  5
4B75
  8
241
 10
115.548
 20
-20.1403
 30
0.0
 70
    32
  0
VERTEX
  5
4B76
  8
241
 10
115.491
 20
-20.116599999999998
 30
0.0
 70
    32
  0
VERTEX
  5
4B77
  8
241
 10
115.43300000000001
 20
-20.093599999999999
 30
0.0
 70
    32
  0
VERTEX
  5
4B78
  8
241
 10
115.373
 20
-20.071300000000001
 30
0.0
 70
    32
  0
VERTEX
  5
4B79
  8
241
 10
115.313
 20
-20.049700000000001
 30
0.0
 70
    32
  0
VERTEX
  5
4B7A
  8
241
 10
115.252
 20
-20.0289
 30
0.0
 70
    32
  0
VERTEX
  5
4B7B
  8
241
 10
115.18899999999999
 20
-20.008800000000001
 30
0.0
 70
    32
  0
VERTEX
  5
4B7C
  8
241
 10
115.126
 20
-19.9895
 30
0.0
 70
    32
  0
VERTEX
  5
4B7D
  8
241
 10
115.06100000000001
 20
-19.971
 30
0.0
 70
    32
  0
VERTEX
  5
4B7E
  8
241
 10
114.996
 20
-19.953199999999999
 30
0.0
 70
    32
  0
VERTEX
  5
4B7F
  8
241
 10
114.93000000000001
 20
-19.936299999999999
 30
0.0
 70
    32
  0
VERTEX
  5
4B80
  8
241
 10
114.863
 20
-19.920100000000001
 30
0.0
 70
    32
  0
VERTEX
  5
4B81
  8
241
 10
114.79600000000001
 20
-19.904800000000002
 30
0.0
 70
    32
  0
VERTEX
  5
4B82
  8
241
 10
114.727
 20
-19.8903
 30
0.0
 70
    32
  0
VERTEX
  5
4B83
  8
241
 10
114.658
 20
-19.8766
 30
0.0
 70
    32
  0
VERTEX
  5
4B84
  8
241
 10
114.58799999999999
 20
-19.863800000000001
 30
0.0
 70
    32
  0
VERTEX
  5
4B85
  8
241
 10
114.518
 20
-19.851800000000001
 30
0.0
 70
    32
  0
VERTEX
  5
4B86
  8
241
 10
114.447
 20
-19.840699999999998
 30
0.0
 70
    32
  0
VERTEX
  5
4B87
  8
241
 10
114.375
 20
-19.830400000000001
 30
0.0
 70
    32
  0
VERTEX
  5
4B88
  8
241
 10
114.303
 20
-19.821000000000002
 30
0.0
 70
    32
  0
VERTEX
  5
4B89
  8
241
 10
114.23099999999999
 20
-19.8125
 30
0.0
 70
    32
  0
VERTEX
  5
4B8A
  8
241
 10
114.158
 20
-19.8049
 30
0.0
 70
    32
  0
VERTEX
  5
4B8B
  8
241
 10
114.08499999999999
 20
-19.798200000000001
 30
0.0
 70
    32
  0
VERTEX
  5
4B8C
  8
241
 10
114.011
 20
-19.792300000000001
 30
0.0
 70
    32
  0
VERTEX
  5
4B8D
  8
241
 10
113.937
 20
-19.787400000000002
 30
0.0
 70
    32
  0
VERTEX
  5
4B8E
  8
241
 10
113.863
 20
-19.783300000000001
 30
0.0
 70
    32
  0
VERTEX
  5
4B8F
  8
241
 10
113.789
 20
-19.780200000000001
 30
0.0
 70
    32
  0
VERTEX
  5
4B90
  8
241
 10
113.715
 20
-19.777899999999999
 30
0.0
 70
    32
  0
VERTEX
  5
4B91
  8
241
 10
113.64
 20
-19.776499999999999
 30
0.0
 70
    32
  0
VERTEX
  5
4B92
  8
241
 10
113.566
 20
-19.7761
 30
0.0
 70
    32
  0
SEQEND
  5
4B93
  8
241
  0
LINE
  5
44ED
  8
241
 10
108.59999999999999
 20
-20.769065234203921
 30
0.0
 11
113.5660254037894
 21
-20.769065234203921
 31
0.0
  0
POLYLINE
  5
44EE
  8
241
 66
     1
 10
0.0
 20
0.0
 30
0.0
 70
     8
  0
VERTEX
  5
4B94
  8
241
 10
106.37
 20
-20.272600000000001
 30
0.0
 70
    32
  0
VERTEX
  5
4B95
  8
241
 10
106.383
 20
-20.279900000000001
 30
0.0
 70
    32
  0
VERTEX
  5
4B96
  8
241
 10
106.39700000000001
 20
-20.287099999999999
 30
0.0
 70
    32
  0
VERTEX
  5
4B97
  8
241
 10
106.41
 20
-20.2943
 30
0.0
 70
    32
  0
VERTEX
  5
4B98
  8
241
 10
106.42400000000001
 20
-20.301400000000001
 30
0.0
 70
    32
  0
VERTEX
  5
4B99
  8
241
 10
106.437
 20
-20.308499999999999
 30
0.0
 70
    32
  0
VERTEX
  5
4B9A
  8
241
 10
106.45099999999999
 20
-20.3156
 30
0.0
 70
    32
  0
VERTEX
  5
4B9B
  8
241
 10
106.465
 20
-20.322600000000001
 30
0.0
 70
    32
  0
VERTEX
  5
4B9C
  8
241
 10
106.47799999999999
 20
-20.329599999999999
 30
0.0
 70
    32
  0
VERTEX
  5
4B9D
  8
241
 10
106.492
 20
-20.336500000000001
 30
0.0
 70
    32
  0
VERTEX
  5
4B9E
  8
241
 10
106.506
 20
-20.343399999999999
 30
0.0
 70
    32
  0
VERTEX
  5
4B9F
  8
241
 10
106.52
 20
-20.350200000000001
 30
0.0
 70
    32
  0
VERTEX
  5
4BA0
  8
241
 10
106.535
 20
-20.356999999999999
 30
0.0
 70
    32
  0
VERTEX
  5
4BA1
  8
241
 10
106.54900000000001
 20
-20.363700000000001
 30
0.0
 70
    32
  0
VERTEX
  5
4BA2
  8
241
 10
106.563
 20
-20.3704
 30
0.0
 70
    32
  0
VERTEX
  5
4BA3
  8
241
 10
106.578
 20
-20.376999999999999
 30
0.0
 70
    32
  0
VERTEX
  5
4BA4
  8
241
 10
106.592
 20
-20.383600000000001
 30
0.0
 70
    32
  0
VERTEX
  5
4BA5
  8
241
 10
106.607
 20
-20.3902
 30
0.0
 70
    32
  0
VERTEX
  5
4BA6
  8
241
 10
106.622
 20
-20.396699999999999
 30
0.0
 70
    32
  0
VERTEX
  5
4BA7
  8
241
 10
106.636
 20
-20.403099999999998
 30
0.0
 70
    32
  0
VERTEX
  5
4BA8
  8
241
 10
106.651
 20
-20.409500000000001
 30
0.0
 70
    32
  0
VERTEX
  5
4BA9
  8
241
 10
106.666
 20
-20.415900000000001
 30
0.0
 70
    32
  0
VERTEX
  5
4BAA
  8
241
 10
106.681
 20
-20.4222
 30
0.0
 70
    32
  0
VERTEX
  5
4BAB
  8
241
 10
106.697
 20
-20.4285
 30
0.0
 70
    32
  0
VERTEX
  5
4BAC
  8
241
 10
106.712
 20
-20.434699999999999
 30
0.0
 70
    32
  0
VERTEX
  5
4BAD
  8
241
 10
106.727
 20
-20.440799999999999
 30
0.0
 70
    32
  0
VERTEX
  5
4BAE
  8
241
 10
106.742
 20
-20.446899999999999
 30
0.0
 70
    32
  0
VERTEX
  5
4BAF
  8
241
 10
106.758
 20
-20.452999999999999
 30
0.0
 70
    32
  0
VERTEX
  5
4BB0
  8
241
 10
106.773
 20
-20.459
 30
0.0
 70
    32
  0
VERTEX
  5
4BB1
  8
241
 10
106.789
 20
-20.4649
 30
0.0
 70
    32
  0
VERTEX
  5
4BB2
  8
241
 10
106.80500000000001
 20
-20.470800000000001
 30
0.0
 70
    32
  0
VERTEX
  5
4BB3
  8
241
 10
106.81999999999999
 20
-20.476700000000001
 30
0.0
 70
    32
  0
VERTEX
  5
4BB4
  8
241
 10
106.836
 20
-20.482500000000002
 30
0.0
 70
    32
  0
VERTEX
  5
4BB5
  8
241
 10
106.852
 20
-20.488199999999999
 30
0.0
 70
    32
  0
VERTEX
  5
4BB6
  8
241
 10
106.86799999999999
 20
-20.4939
 30
0.0
 70
    32
  0
VERTEX
  5
4BB7
  8
241
 10
106.884
 20
-20.499600000000001
 30
0.0
 70
    32
  0
VERTEX
  5
4BB8
  8
241
 10
106.90000000000001
 20
-20.505199999999999
 30
0.0
 70
    32
  0
VERTEX
  5
4BB9
  8
241
 10
106.917
 20
-20.5107
 30
0.0
 70
    32
  0
VERTEX
  5
4BBA
  8
241
 10
106.93300000000001
 20
-20.516200000000001
 30
0.0
 70
    32
  0
VERTEX
  5
4BBB
  8
241
 10
106.949
 20
-20.521599999999999
 30
0.0
 70
    32
  0
VERTEX
  5
4BBC
  8
241
 10
106.96599999999999
 20
-20.527000000000001
 30
0.0
 70
    32
  0
VERTEX
  5
4BBD
  8
241
 10
106.982
 20
-20.532299999999999
 30
0.0
 70
    32
  0
VERTEX
  5
4BBE
  8
241
 10
106.999
 20
-20.537600000000001
 30
0.0
 70
    32
  0
VERTEX
  5
4BBF
  8
241
 10
107.01600000000001
 20
-20.5428
 30
0.0
 70
    32
  0
VERTEX
  5
4BC0
  8
241
 10
107.032
 20
-20.547899999999998
 30
0.0
 70
    32
  0
VERTEX
  5
4BC1
  8
241
 10
107.04900000000001
 20
-20.553000000000001
 30
0.0
 70
    32
  0
VERTEX
  5
4BC2
  8
241
 10
107.066
 20
-20.5581
 30
0.0
 70
    32
  0
VERTEX
  5
4BC3
  8
241
 10
107.083
 20
-20.563099999999999
 30
0.0
 70
    32
  0
VERTEX
  5
4BC4
  8
241
 10
107.09999999999999
 20
-20.568000000000001
 30
0.0
 70
    32
  0
VERTEX
  5
4BC5
  8
241
 10
107.117
 20
-20.572900000000001
 30
0.0
 70
    32
  0
VERTEX
  5
4BC6
  8
241
 10
107.134
 20
-20.5777
 30
0.0
 70
    32
  0
VERTEX
  5
4BC7
  8
241
 10
107.151
 20
-20.5825
 30
0.0
 70
    32
  0
VERTEX
  5
4BC8
  8
241
 10
107.16800000000001
 20
-20.587199999999999
 30
0.0
 70
    32
  0
VERTEX
  5
4BC9
  8
241
 10
107.18600000000001
 20
-20.591899999999999
 30
0.0
 70
    32
  0
VERTEX
  5
4BCA
  8
241
 10
107.203
 20
-20.596499999999999
 30
0.0
 70
    32
  0
VERTEX
  5
4BCB
  8
241
 10
107.22
 20
-20.600999999999999
 30
0.0
 70
    32
  0
VERTEX
  5
4BCC
  8
241
 10
107.238
 20
-20.605499999999999
 30
0.0
 70
    32
  0
VERTEX
  5
4BCD
  8
241
 10
107.255
 20
-20.6099
 30
0.0
 70
    32
  0
VERTEX
  5
4BCE
  8
241
 10
107.273
 20
-20.6143
 30
0.0
 70
    32
  0
VERTEX
  5
4BCF
  8
241
 10
107.291
 20
-20.618600000000001
 30
0.0
 70
    32
  0
VERTEX
  5
4BD0
  8
241
 10
107.30800000000001
 20
-20.622900000000001
 30
0.0
 70
    32
  0
VERTEX
  5
4BD1
  8
241
 10
107.32599999999999
 20
-20.627099999999999
 30
0.0
 70
    32
  0
VERTEX
  5
4BD2
  8
241
 10
107.34399999999999
 20
-20.6312
 30
0.0
 70
    32
  0
VERTEX
  5
4BD3
  8
241
 10
107.36199999999999
 20
-20.635300000000001
 30
0.0
 70
    32
  0
VERTEX
  5
4BD4
  8
241
 10
107.38
 20
-20.639299999999999
 30
0.0
 70
    32
  0
VERTEX
  5
4BD5
  8
241
 10
107.398
 20
-20.6433
 30
0.0
 70
    32
  0
VERTEX
  5
4BD6
  8
241
 10
107.416
 20
-20.647200000000002
 30
0.0
 70
    32
  0
VERTEX
  5
4BD7
  8
241
 10
107.434
 20
-20.6511
 30
0.0
 70
    32
  0
VERTEX
  5
4BD8
  8
241
 10
107.452
 20
-20.654800000000002
 30
0.0
 70
    32
  0
VERTEX
  5
4BD9
  8
241
 10
107.47
 20
-20.6586
 30
0.0
 70
    32
  0
VERTEX
  5
4BDA
  8
241
 10
107.488
 20
-20.662199999999999
 30
0.0
 70
    32
  0
VERTEX
  5
4BDB
  8
241
 10
107.506
 20
-20.665800000000001
 30
0.0
 70
    32
  0
VERTEX
  5
4BDC
  8
241
 10
107.52500000000001
 20
-20.6694
 30
0.0
 70
    32
  0
VERTEX
  5
4BDD
  8
241
 10
107.54300000000001
 20
-20.672899999999998
 30
0.0
 70
    32
  0
VERTEX
  5
4BDE
  8
241
 10
107.56100000000001
 20
-20.676300000000001
 30
0.0
 70
    32
  0
VERTEX
  5
4BDF
  8
241
 10
107.58
 20
-20.6797
 30
0.0
 70
    32
  0
VERTEX
  5
4BE0
  8
241
 10
107.598
 20
-20.683
 30
0.0
 70
    32
  0
VERTEX
  5
4BE1
  8
241
 10
107.617
 20
-20.686199999999999
 30
0.0
 70
    32
  0
VERTEX
  5
4BE2
  8
241
 10
107.63500000000001
 20
-20.689399999999999
 30
0.0
 70
    32
  0
VERTEX
  5
4BE3
  8
241
 10
107.654
 20
-20.692599999999999
 30
0.0
 70
    32
  0
VERTEX
  5
4BE4
  8
241
 10
107.673
 20
-20.695599999999999
 30
0.0
 70
    32
  0
VERTEX
  5
4BE5
  8
241
 10
107.691
 20
-20.698599999999999
 30
0.0
 70
    32
  0
VERTEX
  5
4BE6
  8
241
 10
107.70999999999999
 20
-20.701599999999999
 30
0.0
 70
    32
  0
VERTEX
  5
4BE7
  8
241
 10
107.729
 20
-20.704499999999999
 30
0.0
 70
    32
  0
VERTEX
  5
4BE8
  8
241
 10
107.748
 20
-20.7073
 30
0.0
 70
    32
  0
VERTEX
  5
4BE9
  8
241
 10
107.767
 20
-20.710000000000001
 30
0.0
 70
    32
  0
VERTEX
  5
4BEA
  8
241
 10
107.786
 20
-20.712700000000002
 30
0.0
 70
    32
  0
VERTEX
  5
4BEB
  8
241
 10
107.804
 20
-20.715399999999999
 30
0.0
 70
    32
  0
VERTEX
  5
4BEC
  8
241
 10
107.82299999999999
 20
-20.7179
 30
0.0
 70
    32
  0
VERTEX
  5
4BED
  8
241
 10
107.842
 20
-20.720400000000001
 30
0.0
 70
    32
  0
VERTEX
  5
4BEE
  8
241
 10
107.861
 20
-20.722899999999999
 30
0.0
 70
    32
  0
VERTEX
  5
4BEF
  8
241
 10
107.88
 20
-20.725300000000001
 30
0.0
 70
    32
  0
VERTEX
  5
4BF0
  8
241
 10
107.90000000000001
 20
-20.727599999999999
 30
0.0
 70
    32
  0
VERTEX
  5
4BF1
  8
241
 10
107.919
 20
-20.729900000000001
 30
0.0
 70
    32
  0
VERTEX
  5
4BF2
  8
241
 10
107.938
 20
-20.732099999999999
 30
0.0
 70
    32
  0
VERTEX
  5
4BF3
  8
241
 10
107.95699999999999
 20
-20.734200000000001
 30
0.0
 70
    32
  0
VERTEX
  5
4BF4
  8
241
 10
107.976
 20
-20.7363
 30
0.0
 70
    32
  0
VERTEX
  5
4BF5
  8
241
 10
107.995
 20
-20.738299999999999
 30
0.0
 70
    32
  0
VERTEX
  5
4BF6
  8
241
 10
108.015
 20
-20.740200000000002
 30
0.0
 70
    32
  0
VERTEX
  5
4BF7
  8
241
 10
108.03400000000001
 20
-20.742100000000001
 30
0.0
 70
    32
  0
VERTEX
  5
4BF8
  8
241
 10
108.053
 20
-20.7439
 30
0.0
 70
    32
  0
VERTEX
  5
4BF9
  8
241
 10
108.07299999999999
 20
-20.745699999999999
 30
0.0
 70
    32
  0
VERTEX
  5
4BFA
  8
241
 10
108.092
 20
-20.747399999999999
 30
0.0
 70
    32
  0
VERTEX
  5
4BFB
  8
241
 10
108.111
 20
-20.748999999999999
 30
0.0
 70
    32
  0
VERTEX
  5
4BFC
  8
241
 10
108.131
 20
-20.750599999999999
 30
0.0
 70
    32
  0
VERTEX
  5
4BFD
  8
241
 10
108.15000000000001
 20
-20.752099999999999
 30
0.0
 70
    32
  0
VERTEX
  5
4BFE
  8
241
 10
108.169
 20
-20.753499999999999
 30
0.0
 70
    32
  0
VERTEX
  5
4BFF
  8
241
 10
108.18899999999999
 20
-20.754899999999999
 30
0.0
 70
    32
  0
VERTEX
  5
4C00
  8
241
 10
108.208
 20
-20.7562
 30
0.0
 70
    32
  0
VERTEX
  5
4C01
  8
241
 10
108.22799999999999
 20
-20.7575
 30
0.0
 70
    32
  0
VERTEX
  5
4C02
  8
241
 10
108.247
 20
-20.758700000000001
 30
0.0
 70
    32
  0
VERTEX
  5
4C03
  8
241
 10
108.267
 20
-20.759799999999998
 30
0.0
 70
    32
  0
VERTEX
  5
4C04
  8
241
 10
108.286
 20
-20.7608
 30
0.0
 70
    32
  0
VERTEX
  5
4C05
  8
241
 10
108.306
 20
-20.761800000000001
 30
0.0
 70
    32
  0
VERTEX
  5
4C06
  8
241
 10
108.325
 20
-20.762799999999999
 30
0.0
 70
    32
  0
VERTEX
  5
4C07
  8
241
 10
108.345
 20
-20.7636
 30
0.0
 70
    32
  0
VERTEX
  5
4C08
  8
241
 10
108.36499999999999
 20
-20.764399999999998
 30
0.0
 70
    32
  0
VERTEX
  5
4C09
  8
241
 10
108.384
 20
-20.7652
 30
0.0
 70
    32
  0
VERTEX
  5
4C0A
  8
241
 10
108.404
 20
-20.765899999999998
 30
0.0
 70
    32
  0
VERTEX
  5
4C0B
  8
241
 10
108.423
 20
-20.766500000000001
 30
0.0
 70
    32
  0
VERTEX
  5
4C0C
  8
241
 10
108.443
 20
-20.766999999999999
 30
0.0
 70
    32
  0
VERTEX
  5
4C0D
  8
241
 10
108.46299999999999
 20
-20.767499999999998
 30
0.0
 70
    32
  0
VERTEX
  5
4C0E
  8
241
 10
108.482
 20
-20.767900000000001
 30
0.0
 70
    32
  0
VERTEX
  5
4C0F
  8
241
 10
108.502
 20
-20.7683
 30
0.0
 70
    32
  0
VERTEX
  5
4C10
  8
241
 10
108.521
 20
-20.768599999999999
 30
0.0
 70
    32
  0
VERTEX
  5
4C11
  8
241
 10
108.541
 20
-20.768799999999999
 30
0.0
 70
    32
  0
VERTEX
  5
4C12
  8
241
 10
108.56100000000001
 20
-20.768899999999999
 30
0.0
 70
    32
  0
VERTEX
  5
4C13
  8
241
 10
108.58
 20
-20.768999999999998
 30
0.0
 70
    32
  0
VERTEX
  5
4C14
  8
241
 10
108.59999999999999
 20
-20.769100000000002
 30
0.0
 70
    32
  0
SEQEND
  5
4C15
  8
241
  0
POLYLINE
  5
44EF
  8
241
 66
     1
 10
0.0
 20
0.0
 30
0.0
 70
     8
  0
VERTEX
  5
4C16
  8
241
 10
113.566
 20
-20.769100000000002
 30
0.0
 70
    32
  0
VERTEX
  5
4C17
  8
241
 10
113.586
 20
-20.768999999999998
 30
0.0
 70
    32
  0
VERTEX
  5
4C18
  8
241
 10
113.60599999999999
 20
-20.768899999999999
 30
0.0
 70
    32
  0
VERTEX
  5
4C19
  8
241
 10
113.626
 20
-20.768799999999999
 30
0.0
 70
    32
  0
VERTEX
  5
4C1A
  8
241
 10
113.645
 20
-20.768599999999999
 30
0.0
 70
    32
  0
VERTEX
  5
4C1B
  8
241
 10
113.66500000000001
 20
-20.7683
 30
0.0
 70
    32
  0
VERTEX
  5
4C1C
  8
241
 10
113.685
 20
-20.767900000000001
 30
0.0
 70
    32
  0
VERTEX
  5
4C1D
  8
241
 10
113.705
 20
-20.767499999999998
 30
0.0
 70
    32
  0
VERTEX
  5
4C1E
  8
241
 10
113.72499999999999
 20
-20.766999999999999
 30
0.0
 70
    32
  0
VERTEX
  5
4C1F
  8
241
 10
113.745
 20
-20.766500000000001
 30
0.0
 70
    32
  0
VERTEX
  5
4C20
  8
241
 10
113.764
 20
-20.765899999999998
 30
0.0
 70
    32
  0
VERTEX
  5
4C21
  8
241
 10
113.78400000000001
 20
-20.7652
 30
0.0
 70
    32
  0
VERTEX
  5
4C22
  8
241
 10
113.804
 20
-20.764399999999998
 30
0.0
 70
    32
  0
VERTEX
  5
4C23
  8
241
 10
113.824
 20
-20.7636
 30
0.0
 70
    32
  0
VERTEX
  5
4C24
  8
241
 10
113.84399999999999
 20
-20.762799999999999
 30
0.0
 70
    32
  0
VERTEX
  5
4C25
  8
241
 10
113.863
 20
-20.761800000000001
 30
0.0
 70
    32
  0
VERTEX
  5
4C26
  8
241
 10
113.883
 20
-20.7608
 30
0.0
 70
    32
  0
VERTEX
  5
4C27
  8
241
 10
113.90300000000001
 20
-20.759799999999998
 30
0.0
 70
    32
  0
VERTEX
  5
4C28
  8
241
 10
113.923
 20
-20.758700000000001
 30
0.0
 70
    32
  0
VERTEX
  5
4C29
  8
241
 10
113.94199999999999
 20
-20.7575
 30
0.0
 70
    32
  0
VERTEX
  5
4C2A
  8
241
 10
113.962
 20
-20.7562
 30
0.0
 70
    32
  0
VERTEX
  5
4C2B
  8
241
 10
113.982
 20
-20.754899999999999
 30
0.0
 70
    32
  0
VERTEX
  5
4C2C
  8
241
 10
114.001
 20
-20.753499999999999
 30
0.0
 70
    32
  0
VERTEX
  5
4C2D
  8
241
 10
114.021
 20
-20.752099999999999
 30
0.0
 70
    32
  0
VERTEX
  5
4C2E
  8
241
 10
114.041
 20
-20.750599999999999
 30
0.0
 70
    32
  0
VERTEX
  5
4C2F
  8
241
 10
114.06
 20
-20.748999999999999
 30
0.0
 70
    32
  0
VERTEX
  5
4C30
  8
241
 10
114.08
 20
-20.747399999999999
 30
0.0
 70
    32
  0
VERTEX
  5
4C31
  8
241
 10
114.099
 20
-20.745699999999999
 30
0.0
 70
    32
  0
VERTEX
  5
4C32
  8
241
 10
114.119
 20
-20.7439
 30
0.0
 70
    32
  0
VERTEX
  5
4C33
  8
241
 10
114.139
 20
-20.742100000000001
 30
0.0
 70
    32
  0
VERTEX
  5
4C34
  8
241
 10
114.158
 20
-20.740200000000002
 30
0.0
 70
    32
  0
VERTEX
  5
4C35
  8
241
 10
114.178
 20
-20.738299999999999
 30
0.0
 70
    32
  0
VERTEX
  5
4C36
  8
241
 10
114.197
 20
-20.7363
 30
0.0
 70
    32
  0
VERTEX
  5
4C37
  8
241
 10
114.21599999999999
 20
-20.734200000000001
 30
0.0
 70
    32
  0
VERTEX
  5
4C38
  8
241
 10
114.236
 20
-20.732099999999999
 30
0.0
 70
    32
  0
VERTEX
  5
4C39
  8
241
 10
114.255
 20
-20.729900000000001
 30
0.0
 70
    32
  0
VERTEX
  5
4C3A
  8
241
 10
114.274
 20
-20.727599999999999
 30
0.0
 70
    32
  0
VERTEX
  5
4C3B
  8
241
 10
114.294
 20
-20.725300000000001
 30
0.0
 70
    32
  0
VERTEX
  5
4C3C
  8
241
 10
114.313
 20
-20.722899999999999
 30
0.0
 70
    32
  0
VERTEX
  5
4C3D
  8
241
 10
114.33199999999999
 20
-20.720400000000001
 30
0.0
 70
    32
  0
VERTEX
  5
4C3E
  8
241
 10
114.351
 20
-20.7179
 30
0.0
 70
    32
  0
VERTEX
  5
4C3F
  8
241
 10
114.371
 20
-20.715399999999999
 30
0.0
 70
    32
  0
VERTEX
  5
4C40
  8
241
 10
114.39
 20
-20.712700000000002
 30
0.0
 70
    32
  0
VERTEX
  5
4C41
  8
241
 10
114.40900000000001
 20
-20.710000000000001
 30
0.0
 70
    32
  0
VERTEX
  5
4C42
  8
241
 10
114.428
 20
-20.7073
 30
0.0
 70
    32
  0
VERTEX
  5
4C43
  8
241
 10
114.447
 20
-20.704499999999999
 30
0.0
 70
    32
  0
VERTEX
  5
4C44
  8
241
 10
114.46599999999999
 20
-20.701599999999999
 30
0.0
 70
    32
  0
VERTEX
  5
4C45
  8
241
 10
114.485
 20
-20.698599999999999
 30
0.0
 70
    32
  0
VERTEX
  5
4C46
  8
241
 10
114.504
 20
-20.695599999999999
 30
0.0
 70
    32
  0
VERTEX
  5
4C47
  8
241
 10
114.523
 20
-20.692599999999999
 30
0.0
 70
    32
  0
VERTEX
  5
4C48
  8
241
 10
114.541
 20
-20.689399999999999
 30
0.0
 70
    32
  0
VERTEX
  5
4C49
  8
241
 10
114.56
 20
-20.686199999999999
 30
0.0
 70
    32
  0
VERTEX
  5
4C4A
  8
241
 10
114.57899999999999
 20
-20.683
 30
0.0
 70
    32
  0
VERTEX
  5
4C4B
  8
241
 10
114.598
 20
-20.6797
 30
0.0
 70
    32
  0
VERTEX
  5
4C4C
  8
241
 10
114.616
 20
-20.676300000000001
 30
0.0
 70
    32
  0
VERTEX
  5
4C4D
  8
241
 10
114.63500000000001
 20
-20.672899999999998
 30
0.0
 70
    32
  0
VERTEX
  5
4C4E
  8
241
 10
114.654
 20
-20.6694
 30
0.0
 70
    32
  0
VERTEX
  5
4C4F
  8
241
 10
114.672
 20
-20.665800000000001
 30
0.0
 70
    32
  0
VERTEX
  5
4C50
  8
241
 10
114.69
 20
-20.662199999999999
 30
0.0
 70
    32
  0
VERTEX
  5
4C51
  8
241
 10
114.709
 20
-20.6586
 30
0.0
 70
    32
  0
VERTEX
  5
4C52
  8
241
 10
114.727
 20
-20.654800000000002
 30
0.0
 70
    32
  0
VERTEX
  5
4C53
  8
241
 10
114.746
 20
-20.6511
 30
0.0
 70
    32
  0
VERTEX
  5
4C54
  8
241
 10
114.764
 20
-20.647200000000002
 30
0.0
 70
    32
  0
VERTEX
  5
4C55
  8
241
 10
114.782
 20
-20.6433
 30
0.0
 70
    32
  0
VERTEX
  5
4C56
  8
241
 10
114.8
 20
-20.639299999999999
 30
0.0
 70
    32
  0
VERTEX
  5
4C57
  8
241
 10
114.818
 20
-20.635300000000001
 30
0.0
 70
    32
  0
VERTEX
  5
4C58
  8
241
 10
114.836
 20
-20.6312
 30
0.0
 70
    32
  0
VERTEX
  5
4C59
  8
241
 10
114.854
 20
-20.627099999999999
 30
0.0
 70
    32
  0
VERTEX
  5
4C5A
  8
241
 10
114.872
 20
-20.622900000000001
 30
0.0
 70
    32
  0
VERTEX
  5
4C5B
  8
241
 10
114.89
 20
-20.618600000000001
 30
0.0
 70
    32
  0
VERTEX
  5
4C5C
  8
241
 10
114.908
 20
-20.6143
 30
0.0
 70
    32
  0
VERTEX
  5
4C5D
  8
241
 10
114.926
 20
-20.6099
 30
0.0
 70
    32
  0
VERTEX
  5
4C5E
  8
241
 10
114.944
 20
-20.605499999999999
 30
0.0
 70
    32
  0
VERTEX
  5
4C5F
  8
241
 10
114.961
 20
-20.600999999999999
 30
0.0
 70
    32
  0
VERTEX
  5
4C60
  8
241
 10
114.979
 20
-20.596499999999999
 30
0.0
 70
    32
  0
VERTEX
  5
4C61
  8
241
 10
114.996
 20
-20.591899999999999
 30
0.0
 70
    32
  0
VERTEX
  5
4C62
  8
241
 10
115.014
 20
-20.587199999999999
 30
0.0
 70
    32
  0
VERTEX
  5
4C63
  8
241
 10
115.03100000000001
 20
-20.5825
 30
0.0
 70
    32
  0
VERTEX
  5
4C64
  8
241
 10
115.04900000000001
 20
-20.5777
 30
0.0
 70
    32
  0
VERTEX
  5
4C65
  8
241
 10
115.066
 20
-20.572900000000001
 30
0.0
 70
    32
  0
VERTEX
  5
4C66
  8
241
 10
115.083
 20
-20.568000000000001
 30
0.0
 70
    32
  0
VERTEX
  5
4C67
  8
241
 10
115.09999999999999
 20
-20.563099999999999
 30
0.0
 70
    32
  0
VERTEX
  5
4C68
  8
241
 10
115.11799999999999
 20
-20.5581
 30
0.0
 70
    32
  0
VERTEX
  5
4C69
  8
241
 10
115.13500000000001
 20
-20.553000000000001
 30
0.0
 70
    32
  0
VERTEX
  5
4C6A
  8
241
 10
115.152
 20
-20.547899999999998
 30
0.0
 70
    32
  0
VERTEX
  5
4C6B
  8
241
 10
115.16800000000001
 20
-20.5428
 30
0.0
 70
    32
  0
VERTEX
  5
4C6C
  8
241
 10
115.185
 20
-20.537600000000001
 30
0.0
 70
    32
  0
VERTEX
  5
4C6D
  8
241
 10
115.202
 20
-20.532299999999999
 30
0.0
 70
    32
  0
VERTEX
  5
4C6E
  8
241
 10
115.21899999999999
 20
-20.527000000000001
 30
0.0
 70
    32
  0
VERTEX
  5
4C6F
  8
241
 10
115.235
 20
-20.521599999999999
 30
0.0
 70
    32
  0
VERTEX
  5
4C70
  8
241
 10
115.252
 20
-20.516200000000001
 30
0.0
 70
    32
  0
VERTEX
  5
4C71
  8
241
 10
115.268
 20
-20.5107
 30
0.0
 70
    32
  0
VERTEX
  5
4C72
  8
241
 10
115.285
 20
-20.505199999999999
 30
0.0
 70
    32
  0
VERTEX
  5
4C73
  8
241
 10
115.301
 20
-20.499600000000001
 30
0.0
 70
    32
  0
VERTEX
  5
4C74
  8
241
 10
115.31699999999999
 20
-20.4939
 30
0.0
 70
    32
  0
VERTEX
  5
4C75
  8
241
 10
115.334
 20
-20.488199999999999
 30
0.0
 70
    32
  0
VERTEX
  5
4C76
  8
241
 10
115.34999999999999
 20
-20.482500000000002
 30
0.0
 70
    32
  0
VERTEX
  5
4C77
  8
241
 10
115.366
 20
-20.476700000000001
 30
0.0
 70
    32
  0
VERTEX
  5
4C78
  8
241
 10
115.38200000000001
 20
-20.470800000000001
 30
0.0
 70
    32
  0
VERTEX
  5
4C79
  8
241
 10
115.398
 20
-20.4649
 30
0.0
 70
    32
  0
VERTEX
  5
4C7A
  8
241
 10
115.413
 20
-20.459
 30
0.0
 70
    32
  0
VERTEX
  5
4C7B
  8
241
 10
115.429
 20
-20.452999999999999
 30
0.0
 70
    32
  0
VERTEX
  5
4C7C
  8
241
 10
115.44499999999999
 20
-20.446899999999999
 30
0.0
 70
    32
  0
VERTEX
  5
4C7D
  8
241
 10
115.45999999999999
 20
-20.440799999999999
 30
0.0
 70
    32
  0
VERTEX
  5
4C7E
  8
241
 10
115.476
 20
-20.434699999999999
 30
0.0
 70
    32
  0
VERTEX
  5
4C7F
  8
241
 10
115.491
 20
-20.4285
 30
0.0
 70
    32
  0
VERTEX
  5
4C80
  8
241
 10
115.506
 20
-20.4222
 30
0.0
 70
    32
  0
VERTEX
  5
4C81
  8
241
 10
115.52200000000001
 20
-20.415900000000001
 30
0.0
 70
    32
  0
VERTEX
  5
4C82
  8
241
 10
115.53700000000001
 20
-20.409500000000001
 30
0.0
 70
    32
  0
VERTEX
  5
4C83
  8
241
 10
115.55200000000001
 20
-20.403099999999998
 30
0.0
 70
    32
  0
VERTEX
  5
4C84
  8
241
 10
115.56699999999999
 20
-20.396699999999999
 30
0.0
 70
    32
  0
VERTEX
  5
4C85
  8
241
 10
115.58199999999999
 20
-20.3902
 30
0.0
 70
    32
  0
VERTEX
  5
4C86
  8
241
 10
115.596
 20
-20.383600000000001
 30
0.0
 70
    32
  0
VERTEX
  5
4C87
  8
241
 10
115.611
 20
-20.376999999999999
 30
0.0
 70
    32
  0
VERTEX
  5
4C88
  8
241
 10
115.626
 20
-20.3704
 30
0.0
 70
    32
  0
VERTEX
  5
4C89
  8
241
 10
115.64
 20
-20.363700000000001
 30
0.0
 70
    32
  0
VERTEX
  5
4C8A
  8
241
 10
115.655
 20
-20.356999999999999
 30
0.0
 70
    32
  0
VERTEX
  5
4C8B
  8
241
 10
115.669
 20
-20.350200000000001
 30
0.0
 70
    32
  0
VERTEX
  5
4C8C
  8
241
 10
115.68300000000001
 20
-20.343399999999999
 30
0.0
 70
    32
  0
VERTEX
  5
4C8D
  8
241
 10
115.69799999999999
 20
-20.336500000000001
 30
0.0
 70
    32
  0
VERTEX
  5
4C8E
  8
241
 10
115.712
 20
-20.329599999999999
 30
0.0
 70
    32
  0
VERTEX
  5
4C8F
  8
241
 10
115.726
 20
-20.322600000000001
 30
0.0
 70
    32
  0
VERTEX
  5
4C90
  8
241
 10
115.73999999999999
 20
-20.3156
 30
0.0
 70
    32
  0
VERTEX
  5
4C91
  8
241
 10
115.753
 20
-20.308499999999999
 30
0.0
 70
    32
  0
VERTEX
  5
4C92
  8
241
 10
115.767
 20
-20.301400000000001
 30
0.0
 70
    32
  0
VERTEX
  5
4C93
  8
241
 10
115.78100000000001
 20
-20.2943
 30
0.0
 70
    32
  0
VERTEX
  5
4C94
  8
241
 10
115.794
 20
-20.287099999999999
 30
0.0
 70
    32
  0
VERTEX
  5
4C95
  8
241
 10
115.80800000000001
 20
-20.279900000000001
 30
0.0
 70
    32
  0
VERTEX
  5
4C96
  8
241
 10
115.821
 20
-20.272600000000001
 30
0.0
 70
    32
  0
SEQEND
  5
4C97
  8
241
  0
LINE
  5
44F0
  8
240
 10
86.500000000002288
 20
25.349999999998602
 30
0.0
 11
89.999999999998536
 21
25.350000000000051
 31
0.0
  0
LINE
  5
44F1
  8
240
  6
CONTINUOUS
 10
86.000000000002501
 20
24.849999999998658
 30
0.0
 11
86.00000000000216
 21
21.40000000000191
 31
0.0
1001
GRPNAME
1000
PASTMD0F
  0
LINE
  5
44F2
  8
241
 10
86.000000000002117
 20
21.40000000000191
 30
0.0
 11
85.999999999997726
 21
-21.400000000002141
 31
0.0
1001
GRPNAME
1000
PASTMD0F
  0
ARC
  5
44F3
  8
240
 10
86.500000000002501
 20
24.849999999998602
 30
0.0
 40
0.5
 50
90.000000000024414
 51
179.99999999999341
1001
GRPNAME
1000
PASTMD0F
1001
ASK_MEN_XD
1005
44A1
1070
     1
1005
44A2
1070
     1
  0
LINE
  5
44F4
  8
240
 10
123.4782956878274
 20
23.88774326460916
 30
0.0
 11
116.5660254037893
 21
24.249999999999289
 31
0.0
  0
LINE
  5
44F5
  8
241
 10
104.6999999999998
 20
24.999999999999691
 30
0.0
 11
104.6999999999998
 21
-0.0000000000000568
 31
0.0
  0
LINE
  5
44F6
  8
241
 10
89.999999999998536
 20
25.35000000000073
 30
0.0
 11
89.999999999998494
 21
-0.0000000000000568
 31
0.0
  0
LINE
  5
44F7
  8
241
 10
92.000000000000483
 20
24.999999999999599
 30
0.0
 11
92.000000000000625
 21
-0.0000000000000568
 31
0.0
  0
LINE
  5
44F8
  8
240
  6
CONTINUOUS
 10
105.64999999999969
 20
24.049999999999699
 30
0.0
 11
106.9999999999998
 21
24.049999999999699
 31
0.0
  0
LINE
  5
44F9
  8
240
  6
CONTINUOUS
 10
92.000000000000483
 20
24.999999999999599
 30
0.0
 11
104.6999999999998
 21
24.999999999999691
 31
0.0
  0
LINE
  5
44FA
  8
241
 10
90.550000000000651
 20
24.79999999999967
 30
0.0
 11
90.550000000000651
 21
21.589685565644029
 31
0.0
  0
LINE
  5
44FB
  8
241
 10
91.800000000000651
 20
24.799999999999699
 30
0.0
 11
91.800000000000651
 21
21.55148126450624
 31
0.0
  0
LINE
  5
44FC
  8
240
  6
CONTINUOUS
 10
92.000000000000625
 20
24.999999999999691
 30
0.0
 11
91.800000000000651
 21
24.799999999999699
 31
0.0
  0
LINE
  5
44FD
  8
240
  6
CONTINUOUS
 10
89.999999999998536
 20
25.35000000000073
 30
0.0
 11
90.550000000000651
 21
24.799999999999699
 31
0.0
  0
LINE
  5
44FE
  8
240
  6
CONTINUOUS
 10
90.550000000000651
 20
24.799999999999699
 30
0.0
 11
91.800000000000651
 21
24.799999999999699
 31
0.0
  0
LINE
  5
44FF
  8
241
 10
105.64999999999969
 20
24.049999999999699
 30
0.0
 11
105.64999999999969
 21
21.54880473162126
 31
0.0
  0
LINE
  5
4500
  8
241
 10
105.64999999999969
 20
21.00336912589157
 30
0.0
 11
105.64999999999969
 21
0.5454356057296083
 31
0.0
  0
LINE
  5
4501
  8
240
  6
CONTINUOUS
 10
105.64999999999969
 20
24.049999999999699
 30
0.0
 11
104.6999999999998
 21
24.999999999999691
 31
0.0
  0
LINE
  5
4502
  8
240
  6
CONTINUOUS
 10
107.6999999999997
 20
24.749999999999691
 30
0.0
 11
114.6999999999999
 21
24.74999999999957
 31
0.0
  0
LINE
  5
4503
  8
241
 10
106.9999999999998
 20
24.049999999999731
 30
0.0
 11
106.9999999999998
 21
22.54494468280123
 31
0.0
  0
LINE
  5
4504
  8
241
 10
106.9999999999998
 20
20.0072291747116
 30
0.0
 11
106.9999999999998
 21
2.5377155080896041
 31
0.0
  0
LINE
  5
4505
  8
241
 10
107.6999999999997
 20
24.749999999999691
 30
0.0
 11
107.6999999999997
 21
22.70699573088174
 31
0.0
  0
LINE
  5
4506
  8
241
 10
107.6999999999997
 20
19.845178126631051
 30
0.0
 11
107.6999999999998
 21
2.86181760425066
 31
0.0
  0
LINE
  5
4507
  8
240
  6
CONTINUOUS
 10
106.9999999999998
 20
24.049999999999699
 30
0.0
 11
107.6999999999997
 21
24.749999999999691
 31
0.0
  0
LINE
  5
4508
  8
241
 10
114.6999999999999
 20
24.749999999999609
 30
0.0
 11
114.6999999999998
 21
22.667375852246749
 31
0.0
  0
LINE
  5
4509
  8
241
 10
114.6999999999998
 20
19.884798005266038
 30
0.0
 11
114.6999999999996
 21
2.777427157487578
 31
0.0
  0
LINE
  5
450A
  8
240
  6
CONTINUOUS
 10
116.5660254037893
 20
24.249999999999289
 30
0.0
 11
114.6999999999999
 21
24.74999999999957
 31
0.0
  0
LINE
  5
450B
  8
241
 10
116.5660254037891
 20
24.24999999999935
 30
0.0
 11
116.5660254037891
 21
21.499937501344789
 31
0.0
  0
LINE
  5
450C
  8
241
 10
116.5660254037891
 20
21.05223635616807
 30
0.0
 11
116.5660254037894
 21
-0.0000000000000568
 31
0.0
  0
LINE
  5
450D
  8
242
  6
CONTINUOUS
 10
112.5684877971853
 20
24.749999999999631
 30
0.0
 11
114.6394130349675
 21
22.679074671694451
 31
0.0
1001
GRPNAME
1000
0000000F
  0
LINE
  5
450E
  8
242
  6
CONTINUOUS
 10
111.4371169720137
 20
24.749999999999631
 30
0.0
 11
113.4110299569745
 21
22.776086928756431
 31
0.0
1001
GRPNAME
1000
0000000F
  0
LINE
  5
450F
  8
242
  6
CONTINUOUS
 10
110.3057461468422
 20
24.749999999999659
 30
0.0
 11
112.2796591318029
 21
22.776086928756431
 31
0.0
1001
GRPNAME
1000
0000000F
  0
LINE
  5
4510
  8
242
  6
CONTINUOUS
 10
109.1743753216705
 20
24.749999999999691
 30
0.0
 11
111.1482883066312
 21
22.776086928756431
 31
0.0
1001
GRPNAME
1000
0000000F
  0
LINE
  5
4511
  8
242
  6
CONTINUOUS
 10
114.122812840732
 20
19.801562264635152
 30
0.0
 11
114.6999999999999
 21
19.224375080137541
 31
0.0
1001
GRPNAME
1000
0000000F
  0
LINE
  5
4512
  8
242
  6
CONTINUOUS
 10
108.04300449649899
 20
24.749999999999691
 30
0.0
 11
110.0169174814597
 21
22.776086928756431
 31
0.0
1001
GRPNAME
1000
0000000F
  0
LINE
  5
4513
  8
242
  6
CONTINUOUS
 10
113.0169173503255
 20
19.776086928756431
 30
0.0
 11
114.6999999999999
 21
18.093004205512131
 31
0.0
1001
GRPNAME
1000
0000000F
  0
LINE
  5
4514
  8
242
  6
CONTINUOUS
 10
107.6999999999997
 20
23.961633636866761
 30
0.0
 11
108.8855466562882
 21
22.776086928756431
 31
0.0
1001
GRPNAME
1000
0000000F
  0
LINE
  5
4515
  8
242
  6
CONTINUOUS
 10
111.8855465251541
 20
19.776086928756399
 30
0.0
 11
114.6999999999999
 21
16.96163333088688
 31
0.0
1001
GRPNAME
1000
0000000F
  0
LINE
  5
4516
  8
241
 10
107.6999999999998
 20
22.83026276224135
 30
0.0
 11
107.8074650467177
 21
22.722797710826001
 31
0.0
1001
GRPNAME
1000
0000000F
  0
LINE
  5
4517
  8
242
  6
CONTINUOUS
 10
110.7541756999825
 20
19.776086928756399
 30
0.0
 11
114.6999999999998
 21
15.830262456261581
 31
0.0
1001
GRPNAME
1000
0000000F
  0
LINE
  5
4518
  8
242
  6
CONTINUOUS
 10
109.6228048748108
 20
19.776086928756399
 30
0.0
 11
114.6999999999998
 21
14.698891581636071
 31
0.0
1001
GRPNAME
1000
0000000F
  0
LINE
  5
4519
  8
242
  6
CONTINUOUS
 10
108.4904333109105
 20
19.777087667528932
 30
0.0
 11
113.7963471632895
 21
14.47117358322177
 31
0.0
1001
GRPNAME
1000
0000000F
  0
LINE
  5
451A
  8
242
  6
CONTINUOUS
 10
107.6999999999998
 20
22.72437523312712
 30
0.0
 11
109.7256246783295
 21
24.749999999999691
 31
0.0
1001
GRPNAME
1000
0000000H
  0
LINE
  5
451B
  8
242
  6
CONTINUOUS
 10
108.88308251854031
 20
22.776086928756431
 30
0.0
 11
110.8569955035009
 21
24.749999999999659
 31
0.0
1001
GRPNAME
1000
0000000H
  0
LINE
  5
451C
  8
242
  6
CONTINUOUS
 10
110.01445334371191
 20
22.776086928756431
 30
0.0
 11
111.9883663286726
 21
24.749999999999631
 31
0.0
1001
GRPNAME
1000
0000000H
  0
LINE
  5
451D
  8
242
  6
CONTINUOUS
 10
107.6999999999998
 20
19.330262609250919
 30
0.0
 11
108.1619044647237
 21
19.792167094165361
 31
0.0
1001
GRPNAME
1000
0000000H
  0
LINE
  5
451E
  8
242
  6
CONTINUOUS
 10
111.14582416888349
 20
22.776086928756431
 30
0.0
 11
113.1197371538442
 21
24.749999999999631
 31
0.0
1001
GRPNAME
1000
0000000H
  0
LINE
  5
451F
  8
242
  6
CONTINUOUS
 10
107.6999999999998
 20
18.198891734625558
 30
0.0
 11
109.27719512518919
 21
19.776086928756431
 31
0.0
1001
GRPNAME
1000
0000000H
  0
LINE
  5
4520
  8
242
  6
CONTINUOUS
 10
112.27719499405499
 20
22.776086928756431
 30
0.0
 11
114.2511079790157
 21
24.74999999999957
 31
0.0
1001
GRPNAME
1000
0000000H
  0
LINE
  5
4521
  8
242
  6
CONTINUOUS
 10
107.6999999999998
 20
17.067520860000201
 30
0.0
 11
110.4085659503608
 21
19.776086928756431
 31
0.0
1001
GRPNAME
1000
0000000H
  0
LINE
  5
4522
  8
242
  6
CONTINUOUS
 10
113.4085658192266
 20
22.776086928756431
 30
0.0
 11
114.6999999999999
 21
24.06752116598005
 31
0.0
1001
GRPNAME
1000
0000000H
  0
LINE
  5
4523
  8
242
  6
CONTINUOUS
 10
107.6999999999997
 20
15.936149985374749
 30
0.0
 11
111.5399367755324
 21
19.776086928756431
 31
0.0
1001
GRPNAME
1000
0000000H
  0
LINE
  5
4524
  8
242
  6
CONTINUOUS
 10
114.4715665955143
 20
22.70771687688395
 30
0.0
 11
114.7
 21
22.936150291354721
 31
0.0
1001
GRPNAME
1000
0000000H
  0
LINE
  5
4525
  8
242
  6
CONTINUOUS
 10
107.6999999999997
 20
14.804779110749759
 30
0.0
 11
112.6713076007039
 21
19.776086928756431
 31
0.0
1001
GRPNAME
1000
0000000H
  0
LINE
  5
4526
  8
242
  6
CONTINUOUS
 10
108.4977653122257
 20
14.47117358322177
 30
0.0
 11
113.8074343294961
 21
19.780842832584849
 31
0.0
1001
GRPNAME
1000
0000000H
  0
LINE
  5
4527
  8
242
  6
CONTINUOUS
 10
109.6291361373973
 20
14.4711735832218
 30
0.0
 11
114.6999999999999
 21
19.542037667478692
 31
0.0
1001
GRPNAME
1000
0000000H
  0
LINE
  5
4528
  8
242
  6
CONTINUOUS
 10
110.7605069625687
 20
14.47117358322177
 30
0.0
 11
114.6999999999999
 21
18.410666792853451
 31
0.0
1001
GRPNAME
1000
0000000H
  0
LINE
  5
4529
  8
242
  6
CONTINUOUS
 10
111.8918777877404
 20
14.47117358322177
 30
0.0
 11
114.6999999999999
 21
17.2792959182282
 31
0.0
1001
GRPNAME
1000
0000000H
  0
LINE
  5
452A
  8
242
  6
CONTINUOUS
 10
107.6999999999998
 20
19.436150138365551
 30
0.0
 11
112.66497633811819
 21
14.4711735832218
 31
0.0
1001
GRPNAME
1000
0000000F
  0
LINE
  5
452B
  8
242
  6
CONTINUOUS
 10
107.6999999999998
 20
18.304779263740471
 30
0.0
 11
111.53360551294671
 21
14.47117358322177
 31
0.0
1001
GRPNAME
1000
0000000F
  0
LINE
  5
452C
  8
242
  6
CONTINUOUS
 10
107.6999999999998
 20
17.173408389115451
 30
0.0
 11
110.40223468777521
 21
14.4711735832218
 31
0.0
1001
GRPNAME
1000
0000000F
  0
LINE
  5
452D
  8
242
  6
CONTINUOUS
 10
107.6999999999997
 20
16.042037514490431
 30
0.0
 11
109.2708638626038
 21
14.47117358322177
 31
0.0
1001
GRPNAME
1000
0000000F
  0
LINE
  5
452E
  8
242
  6
CONTINUOUS
 10
113.0232486129119
 20
14.47117358322177
 30
0.0
 11
114.6999999999998
 21
16.147925043602779
 31
0.0
1001
GRPNAME
1000
0000000H
  0
LINE
  5
452F
  8
240
 10
130.0
 20
19.92264973081026
 30
0.0
 11
130.0
 21
-19.922649730810381
 31
0.0
  0
LINE
  5
4530
  8
240
 10
129.5
 20
20.788675134594708
 30
0.0
 11
124.8212878190987
 21
23.48993087169876
 31
0.0
  0
ARC
  5
4531
  8
240
 10
123.3212878190987
 20
20.891854660345441
 30
0.0
 40
3.0
 50
60.000000000000277
 51
87.000000000004164
1001
ASK_MEN_XD
1005
44A4
1070
     1
1005
44DF
1070
     1
  0
ARC
  5
4532
  8
240
 10
129.0
 20
19.92264973081026
 30
0.0
 40
1.0
 50
0.0
 51
60.000000000000277
1001
ASK_MEN_XD
1005
0
1070
     1
1005
0
1070
     1
  0
LINE
  5
4533
  8
241
 10
124.19754490628139
 20
23.761031113121081
 30
0.0
 11
124.19754490628139
 21
0.1005458820944796
 31
0.0
  0
LINE
  5
4534
  8
242
 10
114.6999999999999
 20
23.749858578639049
 30
0.0
 11
113.6998586223569
 21
24.749999999999609
 31
0.0
  0
LINE
  5
4535
  8
242
 10
107.6999999999997
 20
23.85574610775237
 30
0.0
 11
108.59425385315789
 21
24.749999999999691
 31
0.0
  0
LINE
  5
4536
  8
241
 10
108.59999999999999
 20
19.776086928756431
 30
0.0
 11
113.5660254037894
 21
19.776086928756431
 31
0.0
  0
LINE
  5
4537
  8
241
 10
108.59999999999999
 20
22.776086928756431
 30
0.0
 11
113.5660254037894
 21
22.776086928756431
 31
0.0
  0
POLYLINE
  5
4538
  8
241
 66
     1
 10
0.0
 20
0.0
 30
0.0
 70
     8
  0
VERTEX
  5
4C98
  8
241
 10
108.59999999999999
 20
19.7761
 30
0.0
 70
    32
  0
VERTEX
  5
4C99
  8
241
 10
108.526
 20
19.776499999999999
 30
0.0
 70
    32
  0
VERTEX
  5
4C9A
  8
241
 10
108.453
 20
19.777899999999999
 30
0.0
 70
    32
  0
VERTEX
  5
4C9B
  8
241
 10
108.379
 20
19.780200000000001
 30
0.0
 70
    32
  0
VERTEX
  5
4C9C
  8
241
 10
108.306
 20
19.783300000000001
 30
0.0
 70
    32
  0
VERTEX
  5
4C9D
  8
241
 10
108.233
 20
19.787400000000002
 30
0.0
 70
    32
  0
VERTEX
  5
4C9E
  8
241
 10
108.16
 20
19.792300000000001
 30
0.0
 70
    32
  0
VERTEX
  5
4C9F
  8
241
 10
108.087
 20
19.798200000000001
 30
0.0
 70
    32
  0
VERTEX
  5
4CA0
  8
241
 10
108.015
 20
19.8049
 30
0.0
 70
    32
  0
VERTEX
  5
4CA1
  8
241
 10
107.943
 20
19.8125
 30
0.0
 70
    32
  0
VERTEX
  5
4CA2
  8
241
 10
107.871
 20
19.821000000000002
 30
0.0
 70
    32
  0
VERTEX
  5
4CA3
  8
241
 10
107.8
 20
19.830400000000001
 30
0.0
 70
    32
  0
VERTEX
  5
4CA4
  8
241
 10
107.729
 20
19.840699999999998
 30
0.0
 70
    32
  0
VERTEX
  5
4CA5
  8
241
 10
107.65900000000001
 20
19.851800000000001
 30
0.0
 70
    32
  0
VERTEX
  5
4CA6
  8
241
 10
107.589
 20
19.863800000000001
 30
0.0
 70
    32
  0
VERTEX
  5
4CA7
  8
241
 10
107.52
 20
19.8766
 30
0.0
 70
    32
  0
VERTEX
  5
4CA8
  8
241
 10
107.452
 20
19.8903
 30
0.0
 70
    32
  0
VERTEX
  5
4CA9
  8
241
 10
107.384
 20
19.904800000000002
 30
0.0
 70
    32
  0
VERTEX
  5
4CAA
  8
241
 10
107.31699999999999
 20
19.920100000000001
 30
0.0
 70
    32
  0
VERTEX
  5
4CAB
  8
241
 10
107.251
 20
19.936299999999999
 30
0.0
 70
    32
  0
VERTEX
  5
4CAC
  8
241
 10
107.18600000000001
 20
19.953199999999999
 30
0.0
 70
    32
  0
VERTEX
  5
4CAD
  8
241
 10
107.121
 20
19.971
 30
0.0
 70
    32
  0
VERTEX
  5
4CAE
  8
241
 10
107.05800000000001
 20
19.9895
 30
0.0
 70
    32
  0
VERTEX
  5
4CAF
  8
241
 10
106.995
 20
20.008800000000001
 30
0.0
 70
    32
  0
VERTEX
  5
4CB0
  8
241
 10
106.93300000000001
 20
20.0289
 30
0.0
 70
    32
  0
VERTEX
  5
4CB1
  8
241
 10
106.873
 20
20.049700000000001
 30
0.0
 70
    32
  0
VERTEX
  5
4CB2
  8
241
 10
106.813
 20
20.071300000000001
 30
0.0
 70
    32
  0
VERTEX
  5
4CB3
  8
241
 10
106.754
 20
20.093599999999999
 30
0.0
 70
    32
  0
VERTEX
  5
4CB4
  8
241
 10
106.697
 20
20.116599999999998
 30
0.0
 70
    32
  0
VERTEX
  5
4CB5
  8
241
 10
106.64
 20
20.1403
 30
0.0
 70
    32
  0
VERTEX
  5
4CB6
  8
241
 10
106.58499999999999
 20
20.1647
 30
0.0
 70
    32
  0
VERTEX
  5
4CB7
  8
241
 10
106.53100000000001
 20
20.189699999999998
 30
0.0
 70
    32
  0
VERTEX
  5
4CB8
  8
241
 10
106.479
 20
20.215399999999999
 30
0.0
 70
    32
  0
VERTEX
  5
4CB9
  8
241
 10
106.42700000000001
 20
20.241800000000001
 30
0.0
 70
    32
  0
VERTEX
  5
4CBA
  8
241
 10
106.377
 20
20.268699999999999
 30
0.0
 70
    32
  0
VERTEX
  5
4CBB
  8
241
 10
106.328
 20
20.296299999999999
 30
0.0
 70
    32
  0
VERTEX
  5
4CBC
  8
241
 10
106.28100000000001
 20
20.3245
 30
0.0
 70
    32
  0
VERTEX
  5
4CBD
  8
241
 10
106.235
 20
20.353200000000001
 30
0.0
 70
    32
  0
VERTEX
  5
4CBE
  8
241
 10
106.19
 20
20.3825
 30
0.0
 70
    32
  0
VERTEX
  5
4CBF
  8
241
 10
106.14700000000001
 20
20.412400000000002
 30
0.0
 70
    32
  0
VERTEX
  5
4CC0
  8
241
 10
106.10599999999999
 20
20.442699999999999
 30
0.0
 70
    32
  0
VERTEX
  5
4CC1
  8
241
 10
106.065
 20
20.473600000000001
 30
0.0
 70
    32
  0
VERTEX
  5
4CC2
  8
241
 10
106.027
 20
20.504899999999999
 30
0.0
 70
    32
  0
VERTEX
  5
4CC3
  8
241
 10
105.98999999999999
 20
20.5367
 30
0.0
 70
    32
  0
VERTEX
  5
4CC4
  8
241
 10
105.95399999999999
 20
20.568999999999999
 30
0.0
 70
    32
  0
VERTEX
  5
4CC5
  8
241
 10
105.92
 20
20.601700000000001
 30
0.0
 70
    32
  0
VERTEX
  5
4CC6
  8
241
 10
105.88800000000001
 20
20.634799999999998
 30
0.0
 70
    32
  0
VERTEX
  5
4CC7
  8
241
 10
105.857
 20
20.668199999999999
 30
0.0
 70
    32
  0
VERTEX
  5
4CC8
  8
241
 10
105.828
 20
20.702100000000002
 30
0.0
 70
    32
  0
VERTEX
  5
4CC9
  8
241
 10
105.801
 20
20.7362
 30
0.0
 70
    32
  0
VERTEX
  5
4CCA
  8
241
 10
105.77500000000001
 20
20.770800000000001
 30
0.0
 70
    32
  0
VERTEX
  5
4CCB
  8
241
 10
105.751
 20
20.805599999999998
 30
0.0
 70
    32
  0
VERTEX
  5
4CCC
  8
241
 10
105.729
 20
20.840699999999998
 30
0.0
 70
    32
  0
VERTEX
  5
4CCD
  8
241
 10
105.709
 20
20.876000000000001
 30
0.0
 70
    32
  0
VERTEX
  5
4CCE
  8
241
 10
105.69
 20
20.9116
 30
0.0
 70
    32
  0
VERTEX
  5
4CCF
  8
241
 10
105.673
 20
20.947399999999998
 30
0.0
 70
    32
  0
VERTEX
  5
4CD0
  8
241
 10
105.658
 20
20.983499999999999
 30
0.0
 70
    32
  0
VERTEX
  5
4CD1
  8
241
 10
105.64400000000001
 20
21.019600000000001
 30
0.0
 70
    32
  0
VERTEX
  5
4CD2
  8
241
 10
105.63200000000001
 20
21.056000000000001
 30
0.0
 70
    32
  0
VERTEX
  5
4CD3
  8
241
 10
105.623
 20
21.092500000000001
 30
0.0
 70
    32
  0
VERTEX
  5
4CD4
  8
241
 10
105.614
 20
21.129100000000001
 30
0.0
 70
    32
  0
VERTEX
  5
4CD5
  8
241
 10
105.608
 20
21.165700000000001
 30
0.0
 70
    32
  0
VERTEX
  5
4CD6
  8
241
 10
105.604
 20
21.202500000000001
 30
0.0
 70
    32
  0
VERTEX
  5
4CD7
  8
241
 10
105.601
 20
21.2393
 30
0.0
 70
    32
  0
VERTEX
  5
4CD8
  8
241
 10
105.59999999999999
 20
21.2761
 30
0.0
 70
    32
  0
VERTEX
  5
4CD9
  8
241
 10
105.601
 20
21.312899999999999
 30
0.0
 70
    32
  0
VERTEX
  5
4CDA
  8
241
 10
105.604
 20
21.349699999999999
 30
0.0
 70
    32
  0
VERTEX
  5
4CDB
  8
241
 10
105.608
 20
21.386399999999998
 30
0.0
 70
    32
  0
VERTEX
  5
4CDC
  8
241
 10
105.614
 20
21.423100000000002
 30
0.0
 70
    32
  0
VERTEX
  5
4CDD
  8
241
 10
105.623
 20
21.459700000000002
 30
0.0
 70
    32
  0
VERTEX
  5
4CDE
  8
241
 10
105.63200000000001
 20
21.496200000000002
 30
0.0
 70
    32
  0
VERTEX
  5
4CDF
  8
241
 10
105.64400000000001
 20
21.532499999999999
 30
0.0
 70
    32
  0
VERTEX
  5
4CE0
  8
241
 10
105.658
 20
21.5687
 30
0.0
 70
    32
  0
VERTEX
  5
4CE1
  8
241
 10
105.673
 20
21.604700000000001
 30
0.0
 70
    32
  0
VERTEX
  5
4CE2
  8
241
 10
105.69
 20
21.640599999999999
 30
0.0
 70
    32
  0
VERTEX
  5
4CE3
  8
241
 10
105.709
 20
21.676200000000001
 30
0.0
 70
    32
  0
VERTEX
  5
4CE4
  8
241
 10
105.729
 20
21.711500000000001
 30
0.0
 70
    32
  0
VERTEX
  5
4CE5
  8
241
 10
105.751
 20
21.746600000000001
 30
0.0
 70
    32
  0
VERTEX
  5
4CE6
  8
241
 10
105.77500000000001
 20
21.781400000000001
 30
0.0
 70
    32
  0
VERTEX
  5
4CE7
  8
241
 10
105.801
 20
21.815899999999999
 30
0.0
 70
    32
  0
VERTEX
  5
4CE8
  8
241
 10
105.828
 20
21.850100000000001
 30
0.0
 70
    32
  0
VERTEX
  5
4CE9
  8
241
 10
105.857
 20
21.883900000000001
 30
0.0
 70
    32
  0
VERTEX
  5
4CEA
  8
241
 10
105.88800000000001
 20
21.917400000000001
 30
0.0
 70
    32
  0
VERTEX
  5
4CEB
  8
241
 10
105.92
 20
21.950500000000002
 30
0.0
 70
    32
  0
VERTEX
  5
4CEC
  8
241
 10
105.95399999999999
 20
21.9832
 30
0.0
 70
    32
  0
VERTEX
  5
4CED
  8
241
 10
105.98999999999999
 20
22.0154
 30
0.0
 70
    32
  0
VERTEX
  5
4CEE
  8
241
 10
106.027
 20
22.0472
 30
0.0
 70
    32
  0
VERTEX
  5
4CEF
  8
241
 10
106.065
 20
22.078600000000002
 30
0.0
 70
    32
  0
VERTEX
  5
4CF0
  8
241
 10
106.10599999999999
 20
22.109400000000001
 30
0.0
 70
    32
  0
VERTEX
  5
4CF1
  8
241
 10
106.14700000000001
 20
22.139800000000001
 30
0.0
 70
    32
  0
VERTEX
  5
4CF2
  8
241
 10
106.19
 20
22.169599999999999
 30
0.0
 70
    32
  0
VERTEX
  5
4CF3
  8
241
 10
106.235
 20
22.198899999999998
 30
0.0
 70
    32
  0
VERTEX
  5
4CF4
  8
241
 10
106.28100000000001
 20
22.227699999999999
 30
0.0
 70
    32
  0
VERTEX
  5
4CF5
  8
241
 10
106.328
 20
22.255800000000001
 30
0.0
 70
    32
  0
VERTEX
  5
4CF6
  8
241
 10
106.377
 20
22.2834
 30
0.0
 70
    32
  0
VERTEX
  5
4CF7
  8
241
 10
106.42700000000001
 20
22.310400000000001
 30
0.0
 70
    32
  0
VERTEX
  5
4CF8
  8
241
 10
106.479
 20
22.3367
 30
0.0
 70
    32
  0
VERTEX
  5
4CF9
  8
241
 10
106.53100000000001
 20
22.362500000000001
 30
0.0
 70
    32
  0
VERTEX
  5
4CFA
  8
241
 10
106.58499999999999
 20
22.387499999999999
 30
0.0
 70
    32
  0
VERTEX
  5
4CFB
  8
241
 10
106.64
 20
22.411899999999999
 30
0.0
 70
    32
  0
VERTEX
  5
4CFC
  8
241
 10
106.697
 20
22.435600000000001
 30
0.0
 70
    32
  0
VERTEX
  5
4CFD
  8
241
 10
106.754
 20
22.458600000000001
 30
0.0
 70
    32
  0
VERTEX
  5
4CFE
  8
241
 10
106.813
 20
22.480899999999998
 30
0.0
 70
    32
  0
VERTEX
  5
4CFF
  8
241
 10
106.873
 20
22.502500000000001
 30
0.0
 70
    32
  0
VERTEX
  5
4D00
  8
241
 10
106.93300000000001
 20
22.523299999999999
 30
0.0
 70
    32
  0
VERTEX
  5
4D01
  8
241
 10
106.995
 20
22.543399999999998
 30
0.0
 70
    32
  0
VERTEX
  5
4D02
  8
241
 10
107.05800000000001
 20
22.5627
 30
0.0
 70
    32
  0
VERTEX
  5
4D03
  8
241
 10
107.121
 20
22.581199999999999
 30
0.0
 70
    32
  0
VERTEX
  5
4D04
  8
241
 10
107.18600000000001
 20
22.599
 30
0.0
 70
    32
  0
VERTEX
  5
4D05
  8
241
 10
107.251
 20
22.6159
 30
0.0
 70
    32
  0
VERTEX
  5
4D06
  8
241
 10
107.31699999999999
 20
22.632100000000001
 30
0.0
 70
    32
  0
VERTEX
  5
4D07
  8
241
 10
107.384
 20
22.647400000000001
 30
0.0
 70
    32
  0
VERTEX
  5
4D08
  8
241
 10
107.452
 20
22.661899999999999
 30
0.0
 70
    32
  0
VERTEX
  5
4D09
  8
241
 10
107.52
 20
22.675599999999999
 30
0.0
 70
    32
  0
VERTEX
  5
4D0A
  8
241
 10
107.589
 20
22.688400000000001
 30
0.0
 70
    32
  0
VERTEX
  5
4D0B
  8
241
 10
107.65900000000001
 20
22.700399999999998
 30
0.0
 70
    32
  0
VERTEX
  5
4D0C
  8
241
 10
107.729
 20
22.711500000000001
 30
0.0
 70
    32
  0
VERTEX
  5
4D0D
  8
241
 10
107.8
 20
22.721800000000002
 30
0.0
 70
    32
  0
VERTEX
  5
4D0E
  8
241
 10
107.871
 20
22.731100000000001
 30
0.0
 70
    32
  0
VERTEX
  5
4D0F
  8
241
 10
107.943
 20
22.739599999999999
 30
0.0
 70
    32
  0
VERTEX
  5
4D10
  8
241
 10
108.015
 20
22.747299999999999
 30
0.0
 70
    32
  0
VERTEX
  5
4D11
  8
241
 10
108.087
 20
22.754000000000001
 30
0.0
 70
    32
  0
VERTEX
  5
4D12
  8
241
 10
108.16
 20
22.759899999999998
 30
0.0
 70
    32
  0
VERTEX
  5
4D13
  8
241
 10
108.233
 20
22.764800000000001
 30
0.0
 70
    32
  0
VERTEX
  5
4D14
  8
241
 10
108.306
 20
22.768899999999999
 30
0.0
 70
    32
  0
VERTEX
  5
4D15
  8
241
 10
108.379
 20
22.771999999999998
 30
0.0
 70
    32
  0
VERTEX
  5
4D16
  8
241
 10
108.453
 20
22.7743
 30
0.0
 70
    32
  0
VERTEX
  5
4D17
  8
241
 10
108.526
 20
22.775600000000001
 30
0.0
 70
    32
  0
VERTEX
  5
4D18
  8
241
 10
108.59999999999999
 20
22.7761
 30
0.0
 70
    32
  0
SEQEND
  5
4D19
  8
241
  0
POLYLINE
  5
4539
  8
241
 66
     1
 10
0.0
 20
0.0
 30
0.0
 70
     8
  0
VERTEX
  5
4D1A
  8
241
 10
113.566
 20
22.7761
 30
0.0
 70
    32
  0
VERTEX
  5
4D1B
  8
241
 10
113.64
 20
22.775600000000001
 30
0.0
 70
    32
  0
VERTEX
  5
4D1C
  8
241
 10
113.715
 20
22.7743
 30
0.0
 70
    32
  0
VERTEX
  5
4D1D
  8
241
 10
113.789
 20
22.771999999999998
 30
0.0
 70
    32
  0
VERTEX
  5
4D1E
  8
241
 10
113.863
 20
22.768899999999999
 30
0.0
 70
    32
  0
VERTEX
  5
4D1F
  8
241
 10
113.937
 20
22.764800000000001
 30
0.0
 70
    32
  0
VERTEX
  5
4D20
  8
241
 10
114.011
 20
22.759899999999998
 30
0.0
 70
    32
  0
VERTEX
  5
4D21
  8
241
 10
114.08499999999999
 20
22.754000000000001
 30
0.0
 70
    32
  0
VERTEX
  5
4D22
  8
241
 10
114.158
 20
22.747299999999999
 30
0.0
 70
    32
  0
VERTEX
  5
4D23
  8
241
 10
114.23099999999999
 20
22.739599999999999
 30
0.0
 70
    32
  0
VERTEX
  5
4D24
  8
241
 10
114.303
 20
22.731100000000001
 30
0.0
 70
    32
  0
VERTEX
  5
4D25
  8
241
 10
114.375
 20
22.721800000000002
 30
0.0
 70
    32
  0
VERTEX
  5
4D26
  8
241
 10
114.447
 20
22.711500000000001
 30
0.0
 70
    32
  0
VERTEX
  5
4D27
  8
241
 10
114.518
 20
22.700399999999998
 30
0.0
 70
    32
  0
VERTEX
  5
4D28
  8
241
 10
114.58799999999999
 20
22.688400000000001
 30
0.0
 70
    32
  0
VERTEX
  5
4D29
  8
241
 10
114.658
 20
22.675599999999999
 30
0.0
 70
    32
  0
VERTEX
  5
4D2A
  8
241
 10
114.727
 20
22.661899999999999
 30
0.0
 70
    32
  0
VERTEX
  5
4D2B
  8
241
 10
114.79600000000001
 20
22.647400000000001
 30
0.0
 70
    32
  0
VERTEX
  5
4D2C
  8
241
 10
114.863
 20
22.632100000000001
 30
0.0
 70
    32
  0
VERTEX
  5
4D2D
  8
241
 10
114.93000000000001
 20
22.6159
 30
0.0
 70
    32
  0
VERTEX
  5
4D2E
  8
241
 10
114.996
 20
22.599
 30
0.0
 70
    32
  0
VERTEX
  5
4D2F
  8
241
 10
115.06100000000001
 20
22.581199999999999
 30
0.0
 70
    32
  0
VERTEX
  5
4D30
  8
241
 10
115.126
 20
22.5627
 30
0.0
 70
    32
  0
VERTEX
  5
4D31
  8
241
 10
115.18899999999999
 20
22.543399999999998
 30
0.0
 70
    32
  0
VERTEX
  5
4D32
  8
241
 10
115.252
 20
22.523299999999999
 30
0.0
 70
    32
  0
VERTEX
  5
4D33
  8
241
 10
115.313
 20
22.502500000000001
 30
0.0
 70
    32
  0
VERTEX
  5
4D34
  8
241
 10
115.373
 20
22.480899999999998
 30
0.0
 70
    32
  0
VERTEX
  5
4D35
  8
241
 10
115.43300000000001
 20
22.458600000000001
 30
0.0
 70
    32
  0
VERTEX
  5
4D36
  8
241
 10
115.491
 20
22.435600000000001
 30
0.0
 70
    32
  0
VERTEX
  5
4D37
  8
241
 10
115.548
 20
22.411899999999999
 30
0.0
 70
    32
  0
VERTEX
  5
4D38
  8
241
 10
115.604
 20
22.387499999999999
 30
0.0
 70
    32
  0
VERTEX
  5
4D39
  8
241
 10
115.658
 20
22.362500000000001
 30
0.0
 70
    32
  0
VERTEX
  5
4D3A
  8
241
 10
115.711
 20
22.3367
 30
0.0
 70
    32
  0
VERTEX
  5
4D3B
  8
241
 10
115.76300000000001
 20
22.310400000000001
 30
0.0
 70
    32
  0
VERTEX
  5
4D3C
  8
241
 10
115.81399999999999
 20
22.2834
 30
0.0
 70
    32
  0
VERTEX
  5
4D3D
  8
241
 10
115.863
 20
22.255800000000001
 30
0.0
 70
    32
  0
VERTEX
  5
4D3E
  8
241
 10
115.911
 20
22.227699999999999
 30
0.0
 70
    32
  0
VERTEX
  5
4D3F
  8
241
 10
115.958
 20
22.198899999999998
 30
0.0
 70
    32
  0
VERTEX
  5
4D40
  8
241
 10
116.003
 20
22.169599999999999
 30
0.0
 70
    32
  0
VERTEX
  5
4D41
  8
241
 10
116.047
 20
22.139800000000001
 30
0.0
 70
    32
  0
VERTEX
  5
4D42
  8
241
 10
116.089
 20
22.109400000000001
 30
0.0
 70
    32
  0
VERTEX
  5
4D43
  8
241
 10
116.129
 20
22.078600000000002
 30
0.0
 70
    32
  0
VERTEX
  5
4D44
  8
241
 10
116.16800000000001
 20
22.0472
 30
0.0
 70
    32
  0
VERTEX
  5
4D45
  8
241
 10
116.206
 20
22.0154
 30
0.0
 70
    32
  0
VERTEX
  5
4D46
  8
241
 10
116.242
 20
21.9832
 30
0.0
 70
    32
  0
VERTEX
  5
4D47
  8
241
 10
116.276
 20
21.950500000000002
 30
0.0
 70
    32
  0
VERTEX
  5
4D48
  8
241
 10
116.309
 20
21.917400000000001
 30
0.0
 70
    32
  0
VERTEX
  5
4D49
  8
241
 10
116.34
 20
21.883900000000001
 30
0.0
 70
    32
  0
VERTEX
  5
4D4A
  8
241
 10
116.369
 20
21.850100000000001
 30
0.0
 70
    32
  0
VERTEX
  5
4D4B
  8
241
 10
116.39700000000001
 20
21.815899999999999
 30
0.0
 70
    32
  0
VERTEX
  5
4D4C
  8
241
 10
116.423
 20
21.781400000000001
 30
0.0
 70
    32
  0
VERTEX
  5
4D4D
  8
241
 10
116.447
 20
21.746600000000001
 30
0.0
 70
    32
  0
VERTEX
  5
4D4E
  8
241
 10
116.46899999999999
 20
21.711500000000001
 30
0.0
 70
    32
  0
VERTEX
  5
4D4F
  8
241
 10
116.48999999999999
 20
21.676200000000001
 30
0.0
 70
    32
  0
VERTEX
  5
4D50
  8
241
 10
116.509
 20
21.640599999999999
 30
0.0
 70
    32
  0
VERTEX
  5
4D51
  8
241
 10
116.526
 20
21.604700000000001
 30
0.0
 70
    32
  0
VERTEX
  5
4D52
  8
241
 10
116.542
 20
21.5687
 30
0.0
 70
    32
  0
VERTEX
  5
4D53
  8
241
 10
116.55500000000001
 20
21.532499999999999
 30
0.0
 70
    32
  0
VERTEX
  5
4D54
  8
241
 10
116.56699999999999
 20
21.496200000000002
 30
0.0
 70
    32
  0
VERTEX
  5
4D55
  8
241
 10
116.577
 20
21.459700000000002
 30
0.0
 70
    32
  0
VERTEX
  5
4D56
  8
241
 10
116.58499999999999
 20
21.423100000000002
 30
0.0
 70
    32
  0
VERTEX
  5
4D57
  8
241
 10
116.592
 20
21.386399999999998
 30
0.0
 70
    32
  0
VERTEX
  5
4D58
  8
241
 10
116.596
 20
21.349699999999999
 30
0.0
 70
    32
  0
VERTEX
  5
4D59
  8
241
 10
116.599
 20
21.312899999999999
 30
0.0
 70
    32
  0
VERTEX
  5
4D5A
  8
241
 10
116.59999999999999
 20
21.2761
 30
0.0
 70
    32
  0
VERTEX
  5
4D5B
  8
241
 10
116.599
 20
21.2393
 30
0.0
 70
    32
  0
VERTEX
  5
4D5C
  8
241
 10
116.596
 20
21.202500000000001
 30
0.0
 70
    32
  0
VERTEX
  5
4D5D
  8
241
 10
116.592
 20
21.165700000000001
 30
0.0
 70
    32
  0
VERTEX
  5
4D5E
  8
241
 10
116.58499999999999
 20
21.129100000000001
 30
0.0
 70
    32
  0
VERTEX
  5
4D5F
  8
241
 10
116.577
 20
21.092500000000001
 30
0.0
 70
    32
  0
VERTEX
  5
4D60
  8
241
 10
116.56699999999999
 20
21.056000000000001
 30
0.0
 70
    32
  0
VERTEX
  5
4D61
  8
241
 10
116.55500000000001
 20
21.019600000000001
 30
0.0
 70
    32
  0
VERTEX
  5
4D62
  8
241
 10
116.542
 20
20.983499999999999
 30
0.0
 70
    32
  0
VERTEX
  5
4D63
  8
241
 10
116.526
 20
20.947399999999998
 30
0.0
 70
    32
  0
VERTEX
  5
4D64
  8
241
 10
116.509
 20
20.9116
 30
0.0
 70
    32
  0
VERTEX
  5
4D65
  8
241
 10
116.48999999999999
 20
20.876000000000001
 30
0.0
 70
    32
  0
VERTEX
  5
4D66
  8
241
 10
116.46899999999999
 20
20.840699999999998
 30
0.0
 70
    32
  0
VERTEX
  5
4D67
  8
241
 10
116.447
 20
20.805599999999998
 30
0.0
 70
    32
  0
VERTEX
  5
4D68
  8
241
 10
116.423
 20
20.770800000000001
 30
0.0
 70
    32
  0
VERTEX
  5
4D69
  8
241
 10
116.39700000000001
 20
20.7362
 30
0.0
 70
    32
  0
VERTEX
  5
4D6A
  8
241
 10
116.369
 20
20.702100000000002
 30
0.0
 70
    32
  0
VERTEX
  5
4D6B
  8
241
 10
116.34
 20
20.668199999999999
 30
0.0
 70
    32
  0
VERTEX
  5
4D6C
  8
241
 10
116.309
 20
20.634799999999998
 30
0.0
 70
    32
  0
VERTEX
  5
4D6D
  8
241
 10
116.276
 20
20.601700000000001
 30
0.0
 70
    32
  0
VERTEX
  5
4D6E
  8
241
 10
116.242
 20
20.568999999999999
 30
0.0
 70
    32
  0
VERTEX
  5
4D6F
  8
241
 10
116.206
 20
20.5367
 30
0.0
 70
    32
  0
VERTEX
  5
4D70
  8
241
 10
116.16800000000001
 20
20.504899999999999
 30
0.0
 70
    32
  0
VERTEX
  5
4D71
  8
241
 10
116.129
 20
20.473600000000001
 30
0.0
 70
    32
  0
VERTEX
  5
4D72
  8
241
 10
116.089
 20
20.442699999999999
 30
0.0
 70
    32
  0
VERTEX
  5
4D73
  8
241
 10
116.047
 20
20.412400000000002
 30
0.0
 70
    32
  0
VERTEX
  5
4D74
  8
241
 10
116.003
 20
20.3825
 30
0.0
 70
    32
  0
VERTEX
  5
4D75
  8
241
 10
115.958
 20
20.353200000000001
 30
0.0
 70
    32
  0
VERTEX
  5
4D76
  8
241
 10
115.911
 20
20.3245
 30
0.0
 70
    32
  0
VERTEX
  5
4D77
  8
241
 10
115.863
 20
20.296299999999999
 30
0.0
 70
    32
  0
VERTEX
  5
4D78
  8
241
 10
115.81399999999999
 20
20.268699999999999
 30
0.0
 70
    32
  0
VERTEX
  5
4D79
  8
241
 10
115.76300000000001
 20
20.241800000000001
 30
0.0
 70
    32
  0
VERTEX
  5
4D7A
  8
241
 10
115.711
 20
20.215399999999999
 30
0.0
 70
    32
  0
VERTEX
  5
4D7B
  8
241
 10
115.658
 20
20.189699999999998
 30
0.0
 70
    32
  0
VERTEX
  5
4D7C
  8
241
 10
115.604
 20
20.1647
 30
0.0
 70
    32
  0
VERTEX
  5
4D7D
  8
241
 10
115.548
 20
20.1403
 30
0.0
 70
    32
  0
VERTEX
  5
4D7E
  8
241
 10
115.491
 20
20.116599999999998
 30
0.0
 70
    32
  0
VERTEX
  5
4D7F
  8
241
 10
115.43300000000001
 20
20.093599999999999
 30
0.0
 70
    32
  0
VERTEX
  5
4D80
  8
241
 10
115.373
 20
20.071300000000001
 30
0.0
 70
    32
  0
VERTEX
  5
4D81
  8
241
 10
115.313
 20
20.049700000000001
 30
0.0
 70
    32
  0
VERTEX
  5
4D82
  8
241
 10
115.252
 20
20.0289
 30
0.0
 70
    32
  0
VERTEX
  5
4D83
  8
241
 10
115.18899999999999
 20
20.008800000000001
 30
0.0
 70
    32
  0
VERTEX
  5
4D84
  8
241
 10
115.126
 20
19.9895
 30
0.0
 70
    32
  0
VERTEX
  5
4D85
  8
241
 10
115.06100000000001
 20
19.971
 30
0.0
 70
    32
  0
VERTEX
  5
4D86
  8
241
 10
114.996
 20
19.953199999999999
 30
0.0
 70
    32
  0
VERTEX
  5
4D87
  8
241
 10
114.93000000000001
 20
19.936299999999999
 30
0.0
 70
    32
  0
VERTEX
  5
4D88
  8
241
 10
114.863
 20
19.920100000000001
 30
0.0
 70
    32
  0
VERTEX
  5
4D89
  8
241
 10
114.79600000000001
 20
19.904800000000002
 30
0.0
 70
    32
  0
VERTEX
  5
4D8A
  8
241
 10
114.727
 20
19.8903
 30
0.0
 70
    32
  0
VERTEX
  5
4D8B
  8
241
 10
114.658
 20
19.8766
 30
0.0
 70
    32
  0
VERTEX
  5
4D8C
  8
241
 10
114.58799999999999
 20
19.863800000000001
 30
0.0
 70
    32
  0
VERTEX
  5
4D8D
  8
241
 10
114.518
 20
19.851800000000001
 30
0.0
 70
    32
  0
VERTEX
  5
4D8E
  8
241
 10
114.447
 20
19.840699999999998
 30
0.0
 70
    32
  0
VERTEX
  5
4D8F
  8
241
 10
114.375
 20
19.830400000000001
 30
0.0
 70
    32
  0
VERTEX
  5
4D90
  8
241
 10
114.303
 20
19.821000000000002
 30
0.0
 70
    32
  0
VERTEX
  5
4D91
  8
241
 10
114.23099999999999
 20
19.8125
 30
0.0
 70
    32
  0
VERTEX
  5
4D92
  8
241
 10
114.158
 20
19.8049
 30
0.0
 70
    32
  0
VERTEX
  5
4D93
  8
241
 10
114.08499999999999
 20
19.798200000000001
 30
0.0
 70
    32
  0
VERTEX
  5
4D94
  8
241
 10
114.011
 20
19.792300000000001
 30
0.0
 70
    32
  0
VERTEX
  5
4D95
  8
241
 10
113.937
 20
19.787400000000002
 30
0.0
 70
    32
  0
VERTEX
  5
4D96
  8
241
 10
113.863
 20
19.783300000000001
 30
0.0
 70
    32
  0
VERTEX
  5
4D97
  8
241
 10
113.789
 20
19.780200000000001
 30
0.0
 70
    32
  0
VERTEX
  5
4D98
  8
241
 10
113.715
 20
19.777899999999999
 30
0.0
 70
    32
  0
VERTEX
  5
4D99
  8
241
 10
113.64
 20
19.776499999999999
 30
0.0
 70
    32
  0
VERTEX
  5
4D9A
  8
241
 10
113.566
 20
19.7761
 30
0.0
 70
    32
  0
SEQEND
  5
4D9B
  8
241
  0
LINE
  5
453A
  8
241
 10
108.59999999999999
 20
20.769065234203762
 30
0.0
 11
113.5660254037894
 21
20.769065234203762
 31
0.0
  0
POLYLINE
  5
453B
  8
241
 66
     1
 10
0.0
 20
0.0
 30
0.0
 70
     8
  0
VERTEX
  5
4D9C
  8
241
 10
106.37
 20
20.272600000000001
 30
0.0
 70
    32
  0
VERTEX
  5
4D9D
  8
241
 10
106.383
 20
20.279900000000001
 30
0.0
 70
    32
  0
VERTEX
  5
4D9E
  8
241
 10
106.39700000000001
 20
20.287099999999999
 30
0.0
 70
    32
  0
VERTEX
  5
4D9F
  8
241
 10
106.41
 20
20.2943
 30
0.0
 70
    32
  0
VERTEX
  5
4DA0
  8
241
 10
106.42400000000001
 20
20.301400000000001
 30
0.0
 70
    32
  0
VERTEX
  5
4DA1
  8
241
 10
106.437
 20
20.308499999999999
 30
0.0
 70
    32
  0
VERTEX
  5
4DA2
  8
241
 10
106.45099999999999
 20
20.3156
 30
0.0
 70
    32
  0
VERTEX
  5
4DA3
  8
241
 10
106.465
 20
20.322600000000001
 30
0.0
 70
    32
  0
VERTEX
  5
4DA4
  8
241
 10
106.47799999999999
 20
20.329599999999999
 30
0.0
 70
    32
  0
VERTEX
  5
4DA5
  8
241
 10
106.492
 20
20.336500000000001
 30
0.0
 70
    32
  0
VERTEX
  5
4DA6
  8
241
 10
106.506
 20
20.343399999999999
 30
0.0
 70
    32
  0
VERTEX
  5
4DA7
  8
241
 10
106.52
 20
20.350200000000001
 30
0.0
 70
    32
  0
VERTEX
  5
4DA8
  8
241
 10
106.535
 20
20.356999999999999
 30
0.0
 70
    32
  0
VERTEX
  5
4DA9
  8
241
 10
106.54900000000001
 20
20.363700000000001
 30
0.0
 70
    32
  0
VERTEX
  5
4DAA
  8
241
 10
106.563
 20
20.3704
 30
0.0
 70
    32
  0
VERTEX
  5
4DAB
  8
241
 10
106.578
 20
20.376999999999999
 30
0.0
 70
    32
  0
VERTEX
  5
4DAC
  8
241
 10
106.592
 20
20.383600000000001
 30
0.0
 70
    32
  0
VERTEX
  5
4DAD
  8
241
 10
106.607
 20
20.3902
 30
0.0
 70
    32
  0
VERTEX
  5
4DAE
  8
241
 10
106.622
 20
20.396699999999999
 30
0.0
 70
    32
  0
VERTEX
  5
4DAF
  8
241
 10
106.636
 20
20.403099999999998
 30
0.0
 70
    32
  0
VERTEX
  5
4DB0
  8
241
 10
106.651
 20
20.409500000000001
 30
0.0
 70
    32
  0
VERTEX
  5
4DB1
  8
241
 10
106.666
 20
20.415900000000001
 30
0.0
 70
    32
  0
VERTEX
  5
4DB2
  8
241
 10
106.681
 20
20.4222
 30
0.0
 70
    32
  0
VERTEX
  5
4DB3
  8
241
 10
106.697
 20
20.4285
 30
0.0
 70
    32
  0
VERTEX
  5
4DB4
  8
241
 10
106.712
 20
20.434699999999999
 30
0.0
 70
    32
  0
VERTEX
  5
4DB5
  8
241
 10
106.727
 20
20.440799999999999
 30
0.0
 70
    32
  0
VERTEX
  5
4DB6
  8
241
 10
106.742
 20
20.446899999999999
 30
0.0
 70
    32
  0
VERTEX
  5
4DB7
  8
241
 10
106.758
 20
20.452999999999999
 30
0.0
 70
    32
  0
VERTEX
  5
4DB8
  8
241
 10
106.773
 20
20.459
 30
0.0
 70
    32
  0
VERTEX
  5
4DB9
  8
241
 10
106.789
 20
20.4649
 30
0.0
 70
    32
  0
VERTEX
  5
4DBA
  8
241
 10
106.80500000000001
 20
20.470800000000001
 30
0.0
 70
    32
  0
VERTEX
  5
4DBB
  8
241
 10
106.81999999999999
 20
20.476700000000001
 30
0.0
 70
    32
  0
VERTEX
  5
4DBC
  8
241
 10
106.836
 20
20.482500000000002
 30
0.0
 70
    32
  0
VERTEX
  5
4DBD
  8
241
 10
106.852
 20
20.488199999999999
 30
0.0
 70
    32
  0
VERTEX
  5
4DBE
  8
241
 10
106.86799999999999
 20
20.4939
 30
0.0
 70
    32
  0
VERTEX
  5
4DBF
  8
241
 10
106.884
 20
20.499600000000001
 30
0.0
 70
    32
  0
VERTEX
  5
4DC0
  8
241
 10
106.90000000000001
 20
20.505199999999999
 30
0.0
 70
    32
  0
VERTEX
  5
4DC1
  8
241
 10
106.917
 20
20.5107
 30
0.0
 70
    32
  0
VERTEX
  5
4DC2
  8
241
 10
106.93300000000001
 20
20.516200000000001
 30
0.0
 70
    32
  0
VERTEX
  5
4DC3
  8
241
 10
106.949
 20
20.521599999999999
 30
0.0
 70
    32
  0
VERTEX
  5
4DC4
  8
241
 10
106.96599999999999
 20
20.527000000000001
 30
0.0
 70
    32
  0
VERTEX
  5
4DC5
  8
241
 10
106.982
 20
20.532299999999999
 30
0.0
 70
    32
  0
VERTEX
  5
4DC6
  8
241
 10
106.999
 20
20.537600000000001
 30
0.0
 70
    32
  0
VERTEX
  5
4DC7
  8
241
 10
107.01600000000001
 20
20.5428
 30
0.0
 70
    32
  0
VERTEX
  5
4DC8
  8
241
 10
107.032
 20
20.547899999999998
 30
0.0
 70
    32
  0
VERTEX
  5
4DC9
  8
241
 10
107.04900000000001
 20
20.553000000000001
 30
0.0
 70
    32
  0
VERTEX
  5
4DCA
  8
241
 10
107.066
 20
20.5581
 30
0.0
 70
    32
  0
VERTEX
  5
4DCB
  8
241
 10
107.083
 20
20.563099999999999
 30
0.0
 70
    32
  0
VERTEX
  5
4DCC
  8
241
 10
107.09999999999999
 20
20.568000000000001
 30
0.0
 70
    32
  0
VERTEX
  5
4DCD
  8
241
 10
107.117
 20
20.572900000000001
 30
0.0
 70
    32
  0
VERTEX
  5
4DCE
  8
241
 10
107.134
 20
20.5777
 30
0.0
 70
    32
  0
VERTEX
  5
4DCF
  8
241
 10
107.151
 20
20.5825
 30
0.0
 70
    32
  0
VERTEX
  5
4DD0
  8
241
 10
107.16800000000001
 20
20.587199999999999
 30
0.0
 70
    32
  0
VERTEX
  5
4DD1
  8
241
 10
107.18600000000001
 20
20.591899999999999
 30
0.0
 70
    32
  0
VERTEX
  5
4DD2
  8
241
 10
107.203
 20
20.596499999999999
 30
0.0
 70
    32
  0
VERTEX
  5
4DD3
  8
241
 10
107.22
 20
20.600999999999999
 30
0.0
 70
    32
  0
VERTEX
  5
4DD4
  8
241
 10
107.238
 20
20.605499999999999
 30
0.0
 70
    32
  0
VERTEX
  5
4DD5
  8
241
 10
107.255
 20
20.6099
 30
0.0
 70
    32
  0
VERTEX
  5
4DD6
  8
241
 10
107.273
 20
20.6143
 30
0.0
 70
    32
  0
VERTEX
  5
4DD7
  8
241
 10
107.291
 20
20.618600000000001
 30
0.0
 70
    32
  0
VERTEX
  5
4DD8
  8
241
 10
107.30800000000001
 20
20.622900000000001
 30
0.0
 70
    32
  0
VERTEX
  5
4DD9
  8
241
 10
107.32599999999999
 20
20.627099999999999
 30
0.0
 70
    32
  0
VERTEX
  5
4DDA
  8
241
 10
107.34399999999999
 20
20.6312
 30
0.0
 70
    32
  0
VERTEX
  5
4DDB
  8
241
 10
107.36199999999999
 20
20.635300000000001
 30
0.0
 70
    32
  0
VERTEX
  5
4DDC
  8
241
 10
107.38
 20
20.639299999999999
 30
0.0
 70
    32
  0
VERTEX
  5
4DDD
  8
241
 10
107.398
 20
20.6433
 30
0.0
 70
    32
  0
VERTEX
  5
4DDE
  8
241
 10
107.416
 20
20.647200000000002
 30
0.0
 70
    32
  0
VERTEX
  5
4DDF
  8
241
 10
107.434
 20
20.6511
 30
0.0
 70
    32
  0
VERTEX
  5
4DE0
  8
241
 10
107.452
 20
20.654800000000002
 30
0.0
 70
    32
  0
VERTEX
  5
4DE1
  8
241
 10
107.47
 20
20.6586
 30
0.0
 70
    32
  0
VERTEX
  5
4DE2
  8
241
 10
107.488
 20
20.662199999999999
 30
0.0
 70
    32
  0
VERTEX
  5
4DE3
  8
241
 10
107.506
 20
20.665800000000001
 30
0.0
 70
    32
  0
VERTEX
  5
4DE4
  8
241
 10
107.52500000000001
 20
20.6694
 30
0.0
 70
    32
  0
VERTEX
  5
4DE5
  8
241
 10
107.54300000000001
 20
20.672899999999998
 30
0.0
 70
    32
  0
VERTEX
  5
4DE6
  8
241
 10
107.56100000000001
 20
20.676300000000001
 30
0.0
 70
    32
  0
VERTEX
  5
4DE7
  8
241
 10
107.58
 20
20.6797
 30
0.0
 70
    32
  0
VERTEX
  5
4DE8
  8
241
 10
107.598
 20
20.683
 30
0.0
 70
    32
  0
VERTEX
  5
4DE9
  8
241
 10
107.617
 20
20.686199999999999
 30
0.0
 70
    32
  0
VERTEX
  5
4DEA
  8
241
 10
107.63500000000001
 20
20.689399999999999
 30
0.0
 70
    32
  0
VERTEX
  5
4DEB
  8
241
 10
107.654
 20
20.692599999999999
 30
0.0
 70
    32
  0
VERTEX
  5
4DEC
  8
241
 10
107.673
 20
20.695599999999999
 30
0.0
 70
    32
  0
VERTEX
  5
4DED
  8
241
 10
107.691
 20
20.698599999999999
 30
0.0
 70
    32
  0
VERTEX
  5
4DEE
  8
241
 10
107.70999999999999
 20
20.701599999999999
 30
0.0
 70
    32
  0
VERTEX
  5
4DEF
  8
241
 10
107.729
 20
20.704499999999999
 30
0.0
 70
    32
  0
VERTEX
  5
4DF0
  8
241
 10
107.748
 20
20.7073
 30
0.0
 70
    32
  0
VERTEX
  5
4DF1
  8
241
 10
107.767
 20
20.710000000000001
 30
0.0
 70
    32
  0
VERTEX
  5
4DF2
  8
241
 10
107.786
 20
20.712700000000002
 30
0.0
 70
    32
  0
VERTEX
  5
4DF3
  8
241
 10
107.804
 20
20.715399999999999
 30
0.0
 70
    32
  0
VERTEX
  5
4DF4
  8
241
 10
107.82299999999999
 20
20.7179
 30
0.0
 70
    32
  0
VERTEX
  5
4DF5
  8
241
 10
107.842
 20
20.720400000000001
 30
0.0
 70
    32
  0
VERTEX
  5
4DF6
  8
241
 10
107.861
 20
20.722899999999999
 30
0.0
 70
    32
  0
VERTEX
  5
4DF7
  8
241
 10
107.88
 20
20.725300000000001
 30
0.0
 70
    32
  0
VERTEX
  5
4DF8
  8
241
 10
107.90000000000001
 20
20.727599999999999
 30
0.0
 70
    32
  0
VERTEX
  5
4DF9
  8
241
 10
107.919
 20
20.729900000000001
 30
0.0
 70
    32
  0
VERTEX
  5
4DFA
  8
241
 10
107.938
 20
20.732099999999999
 30
0.0
 70
    32
  0
VERTEX
  5
4DFB
  8
241
 10
107.95699999999999
 20
20.734200000000001
 30
0.0
 70
    32
  0
VERTEX
  5
4DFC
  8
241
 10
107.976
 20
20.7363
 30
0.0
 70
    32
  0
VERTEX
  5
4DFD
  8
241
 10
107.995
 20
20.738299999999999
 30
0.0
 70
    32
  0
VERTEX
  5
4DFE
  8
241
 10
108.015
 20
20.740200000000002
 30
0.0
 70
    32
  0
VERTEX
  5
4DFF
  8
241
 10
108.03400000000001
 20
20.742100000000001
 30
0.0
 70
    32
  0
VERTEX
  5
4E00
  8
241
 10
108.053
 20
20.7439
 30
0.0
 70
    32
  0
VERTEX
  5
4E01
  8
241
 10
108.07299999999999
 20
20.745699999999999
 30
0.0
 70
    32
  0
VERTEX
  5
4E02
  8
241
 10
108.092
 20
20.747399999999999
 30
0.0
 70
    32
  0
VERTEX
  5
4E03
  8
241
 10
108.111
 20
20.748999999999999
 30
0.0
 70
    32
  0
VERTEX
  5
4E04
  8
241
 10
108.131
 20
20.750599999999999
 30
0.0
 70
    32
  0
VERTEX
  5
4E05
  8
241
 10
108.15000000000001
 20
20.752099999999999
 30
0.0
 70
    32
  0
VERTEX
  5
4E06
  8
241
 10
108.169
 20
20.753499999999999
 30
0.0
 70
    32
  0
VERTEX
  5
4E07
  8
241
 10
108.18899999999999
 20
20.754899999999999
 30
0.0
 70
    32
  0
VERTEX
  5
4E08
  8
241
 10
108.208
 20
20.7562
 30
0.0
 70
    32
  0
VERTEX
  5
4E09
  8
241
 10
108.22799999999999
 20
20.7575
 30
0.0
 70
    32
  0
VERTEX
  5
4E0A
  8
241
 10
108.247
 20
20.758700000000001
 30
0.0
 70
    32
  0
VERTEX
  5
4E0B
  8
241
 10
108.267
 20
20.759799999999998
 30
0.0
 70
    32
  0
VERTEX
  5
4E0C
  8
241
 10
108.286
 20
20.7608
 30
0.0
 70
    32
  0
VERTEX
  5
4E0D
  8
241
 10
108.306
 20
20.761800000000001
 30
0.0
 70
    32
  0
VERTEX
  5
4E0E
  8
241
 10
108.325
 20
20.762799999999999
 30
0.0
 70
    32
  0
VERTEX
  5
4E0F
  8
241
 10
108.345
 20
20.7636
 30
0.0
 70
    32
  0
VERTEX
  5
4E10
  8
241
 10
108.36499999999999
 20
20.764399999999998
 30
0.0
 70
    32
  0
VERTEX
  5
4E11
  8
241
 10
108.384
 20
20.7652
 30
0.0
 70
    32
  0
VERTEX
  5
4E12
  8
241
 10
108.404
 20
20.765899999999998
 30
0.0
 70
    32
  0
VERTEX
  5
4E13
  8
241
 10
108.423
 20
20.766500000000001
 30
0.0
 70
    32
  0
VERTEX
  5
4E14
  8
241
 10
108.443
 20
20.766999999999999
 30
0.0
 70
    32
  0
VERTEX
  5
4E15
  8
241
 10
108.46299999999999
 20
20.767499999999998
 30
0.0
 70
    32
  0
VERTEX
  5
4E16
  8
241
 10
108.482
 20
20.767900000000001
 30
0.0
 70
    32
  0
VERTEX
  5
4E17
  8
241
 10
108.502
 20
20.7683
 30
0.0
 70
    32
  0
VERTEX
  5
4E18
  8
241
 10
108.521
 20
20.768599999999999
 30
0.0
 70
    32
  0
VERTEX
  5
4E19
  8
241
 10
108.541
 20
20.768799999999999
 30
0.0
 70
    32
  0
VERTEX
  5
4E1A
  8
241
 10
108.56100000000001
 20
20.768899999999999
 30
0.0
 70
    32
  0
VERTEX
  5
4E1B
  8
241
 10
108.58
 20
20.768999999999998
 30
0.0
 70
    32
  0
VERTEX
  5
4E1C
  8
241
 10
108.59999999999999
 20
20.769100000000002
 30
0.0
 70
    32
  0
SEQEND
  5
4E1D
  8
241
  0
POLYLINE
  5
453C
  8
241
 66
     1
 10
0.0
 20
0.0
 30
0.0
 70
     8
  0
VERTEX
  5
4E1E
  8
241
 10
113.566
 20
20.769100000000002
 30
0.0
 70
    32
  0
VERTEX
  5
4E1F
  8
241
 10
113.586
 20
20.768999999999998
 30
0.0
 70
    32
  0
VERTEX
  5
4E20
  8
241
 10
113.60599999999999
 20
20.768899999999999
 30
0.0
 70
    32
  0
VERTEX
  5
4E21
  8
241
 10
113.626
 20
20.768799999999999
 30
0.0
 70
    32
  0
VERTEX
  5
4E22
  8
241
 10
113.645
 20
20.768599999999999
 30
0.0
 70
    32
  0
VERTEX
  5
4E23
  8
241
 10
113.66500000000001
 20
20.7683
 30
0.0
 70
    32
  0
VERTEX
  5
4E24
  8
241
 10
113.685
 20
20.767900000000001
 30
0.0
 70
    32
  0
VERTEX
  5
4E25
  8
241
 10
113.705
 20
20.767499999999998
 30
0.0
 70
    32
  0
VERTEX
  5
4E26
  8
241
 10
113.72499999999999
 20
20.766999999999999
 30
0.0
 70
    32
  0
VERTEX
  5
4E27
  8
241
 10
113.745
 20
20.766500000000001
 30
0.0
 70
    32
  0
VERTEX
  5
4E28
  8
241
 10
113.764
 20
20.765899999999998
 30
0.0
 70
    32
  0
VERTEX
  5
4E29
  8
241
 10
113.78400000000001
 20
20.7652
 30
0.0
 70
    32
  0
VERTEX
  5
4E2A
  8
241
 10
113.804
 20
20.764399999999998
 30
0.0
 70
    32
  0
VERTEX
  5
4E2B
  8
241
 10
113.824
 20
20.7636
 30
0.0
 70
    32
  0
VERTEX
  5
4E2C
  8
241
 10
113.84399999999999
 20
20.762799999999999
 30
0.0
 70
    32
  0
VERTEX
  5
4E2D
  8
241
 10
113.863
 20
20.761800000000001
 30
0.0
 70
    32
  0
VERTEX
  5
4E2E
  8
241
 10
113.883
 20
20.7608
 30
0.0
 70
    32
  0
VERTEX
  5
4E2F
  8
241
 10
113.90300000000001
 20
20.759799999999998
 30
0.0
 70
    32
  0
VERTEX
  5
4E30
  8
241
 10
113.923
 20
20.758700000000001
 30
0.0
 70
    32
  0
VERTEX
  5
4E31
  8
241
 10
113.94199999999999
 20
20.7575
 30
0.0
 70
    32
  0
VERTEX
  5
4E32
  8
241
 10
113.962
 20
20.7562
 30
0.0
 70
    32
  0
VERTEX
  5
4E33
  8
241
 10
113.982
 20
20.754899999999999
 30
0.0
 70
    32
  0
VERTEX
  5
4E34
  8
241
 10
114.001
 20
20.753499999999999
 30
0.0
 70
    32
  0
VERTEX
  5
4E35
  8
241
 10
114.021
 20
20.752099999999999
 30
0.0
 70
    32
  0
VERTEX
  5
4E36
  8
241
 10
114.041
 20
20.750599999999999
 30
0.0
 70
    32
  0
VERTEX
  5
4E37
  8
241
 10
114.06
 20
20.748999999999999
 30
0.0
 70
    32
  0
VERTEX
  5
4E38
  8
241
 10
114.08
 20
20.747399999999999
 30
0.0
 70
    32
  0
VERTEX
  5
4E39
  8
241
 10
114.099
 20
20.745699999999999
 30
0.0
 70
    32
  0
VERTEX
  5
4E3A
  8
241
 10
114.119
 20
20.7439
 30
0.0
 70
    32
  0
VERTEX
  5
4E3B
  8
241
 10
114.139
 20
20.742100000000001
 30
0.0
 70
    32
  0
VERTEX
  5
4E3C
  8
241
 10
114.158
 20
20.740200000000002
 30
0.0
 70
    32
  0
VERTEX
  5
4E3D
  8
241
 10
114.178
 20
20.738299999999999
 30
0.0
 70
    32
  0
VERTEX
  5
4E3E
  8
241
 10
114.197
 20
20.7363
 30
0.0
 70
    32
  0
VERTEX
  5
4E3F
  8
241
 10
114.21599999999999
 20
20.734200000000001
 30
0.0
 70
    32
  0
VERTEX
  5
4E40
  8
241
 10
114.236
 20
20.732099999999999
 30
0.0
 70
    32
  0
VERTEX
  5
4E41
  8
241
 10
114.255
 20
20.729900000000001
 30
0.0
 70
    32
  0
VERTEX
  5
4E42
  8
241
 10
114.274
 20
20.727599999999999
 30
0.0
 70
    32
  0
VERTEX
  5
4E43
  8
241
 10
114.294
 20
20.725300000000001
 30
0.0
 70
    32
  0
VERTEX
  5
4E44
  8
241
 10
114.313
 20
20.722899999999999
 30
0.0
 70
    32
  0
VERTEX
  5
4E45
  8
241
 10
114.33199999999999
 20
20.720400000000001
 30
0.0
 70
    32
  0
VERTEX
  5
4E46
  8
241
 10
114.351
 20
20.7179
 30
0.0
 70
    32
  0
VERTEX
  5
4E47
  8
241
 10
114.371
 20
20.715399999999999
 30
0.0
 70
    32
  0
VERTEX
  5
4E48
  8
241
 10
114.39
 20
20.712700000000002
 30
0.0
 70
    32
  0
VERTEX
  5
4E49
  8
241
 10
114.40900000000001
 20
20.710000000000001
 30
0.0
 70
    32
  0
VERTEX
  5
4E4A
  8
241
 10
114.428
 20
20.7073
 30
0.0
 70
    32
  0
VERTEX
  5
4E4B
  8
241
 10
114.447
 20
20.704499999999999
 30
0.0
 70
    32
  0
VERTEX
  5
4E4C
  8
241
 10
114.46599999999999
 20
20.701599999999999
 30
0.0
 70
    32
  0
VERTEX
  5
4E4D
  8
241
 10
114.485
 20
20.698599999999999
 30
0.0
 70
    32
  0
VERTEX
  5
4E4E
  8
241
 10
114.504
 20
20.695599999999999
 30
0.0
 70
    32
  0
VERTEX
  5
4E4F
  8
241
 10
114.523
 20
20.692599999999999
 30
0.0
 70
    32
  0
VERTEX
  5
4E50
  8
241
 10
114.541
 20
20.689399999999999
 30
0.0
 70
    32
  0
VERTEX
  5
4E51
  8
241
 10
114.56
 20
20.686199999999999
 30
0.0
 70
    32
  0
VERTEX
  5
4E52
  8
241
 10
114.57899999999999
 20
20.683
 30
0.0
 70
    32
  0
VERTEX
  5
4E53
  8
241
 10
114.598
 20
20.6797
 30
0.0
 70
    32
  0
VERTEX
  5
4E54
  8
241
 10
114.616
 20
20.676300000000001
 30
0.0
 70
    32
  0
VERTEX
  5
4E55
  8
241
 10
114.63500000000001
 20
20.672899999999998
 30
0.0
 70
    32
  0
VERTEX
  5
4E56
  8
241
 10
114.654
 20
20.6694
 30
0.0
 70
    32
  0
VERTEX
  5
4E57
  8
241
 10
114.672
 20
20.665800000000001
 30
0.0
 70
    32
  0
VERTEX
  5
4E58
  8
241
 10
114.69
 20
20.662199999999999
 30
0.0
 70
    32
  0
VERTEX
  5
4E59
  8
241
 10
114.709
 20
20.6586
 30
0.0
 70
    32
  0
VERTEX
  5
4E5A
  8
241
 10
114.727
 20
20.654800000000002
 30
0.0
 70
    32
  0
VERTEX
  5
4E5B
  8
241
 10
114.746
 20
20.6511
 30
0.0
 70
    32
  0
VERTEX
  5
4E5C
  8
241
 10
114.764
 20
20.647200000000002
 30
0.0
 70
    32
  0
VERTEX
  5
4E5D
  8
241
 10
114.782
 20
20.6433
 30
0.0
 70
    32
  0
VERTEX
  5
4E5E
  8
241
 10
114.8
 20
20.639299999999999
 30
0.0
 70
    32
  0
VERTEX
  5
4E5F
  8
241
 10
114.818
 20
20.635300000000001
 30
0.0
 70
    32
  0
VERTEX
  5
4E60
  8
241
 10
114.836
 20
20.6312
 30
0.0
 70
    32
  0
VERTEX
  5
4E61
  8
241
 10
114.854
 20
20.627099999999999
 30
0.0
 70
    32
  0
VERTEX
  5
4E62
  8
241
 10
114.872
 20
20.622900000000001
 30
0.0
 70
    32
  0
VERTEX
  5
4E63
  8
241
 10
114.89
 20
20.618600000000001
 30
0.0
 70
    32
  0
VERTEX
  5
4E64
  8
241
 10
114.908
 20
20.6143
 30
0.0
 70
    32
  0
VERTEX
  5
4E65
  8
241
 10
114.926
 20
20.6099
 30
0.0
 70
    32
  0
VERTEX
  5
4E66
  8
241
 10
114.944
 20
20.605499999999999
 30
0.0
 70
    32
  0
VERTEX
  5
4E67
  8
241
 10
114.961
 20
20.600999999999999
 30
0.0
 70
    32
  0
VERTEX
  5
4E68
  8
241
 10
114.979
 20
20.596499999999999
 30
0.0
 70
    32
  0
VERTEX
  5
4E69
  8
241
 10
114.996
 20
20.591899999999999
 30
0.0
 70
    32
  0
VERTEX
  5
4E6A
  8
241
 10
115.014
 20
20.587199999999999
 30
0.0
 70
    32
  0
VERTEX
  5
4E6B
  8
241
 10
115.03100000000001
 20
20.5825
 30
0.0
 70
    32
  0
VERTEX
  5
4E6C
  8
241
 10
115.04900000000001
 20
20.5777
 30
0.0
 70
    32
  0
VERTEX
  5
4E6D
  8
241
 10
115.066
 20
20.572900000000001
 30
0.0
 70
    32
  0
VERTEX
  5
4E6E
  8
241
 10
115.083
 20
20.568000000000001
 30
0.0
 70
    32
  0
VERTEX
  5
4E6F
  8
241
 10
115.09999999999999
 20
20.563099999999999
 30
0.0
 70
    32
  0
VERTEX
  5
4E70
  8
241
 10
115.11799999999999
 20
20.5581
 30
0.0
 70
    32
  0
VERTEX
  5
4E71
  8
241
 10
115.13500000000001
 20
20.553000000000001
 30
0.0
 70
    32
  0
VERTEX
  5
4E72
  8
241
 10
115.152
 20
20.547899999999998
 30
0.0
 70
    32
  0
VERTEX
  5
4E73
  8
241
 10
115.16800000000001
 20
20.5428
 30
0.0
 70
    32
  0
VERTEX
  5
4E74
  8
241
 10
115.185
 20
20.537600000000001
 30
0.0
 70
    32
  0
VERTEX
  5
4E75
  8
241
 10
115.202
 20
20.532299999999999
 30
0.0
 70
    32
  0
VERTEX
  5
4E76
  8
241
 10
115.21899999999999
 20
20.527000000000001
 30
0.0
 70
    32
  0
VERTEX
  5
4E77
  8
241
 10
115.235
 20
20.521599999999999
 30
0.0
 70
    32
  0
VERTEX
  5
4E78
  8
241
 10
115.252
 20
20.516200000000001
 30
0.0
 70
    32
  0
VERTEX
  5
4E79
  8
241
 10
115.268
 20
20.5107
 30
0.0
 70
    32
  0
VERTEX
  5
4E7A
  8
241
 10
115.285
 20
20.505199999999999
 30
0.0
 70
    32
  0
VERTEX
  5
4E7B
  8
241
 10
115.301
 20
20.499600000000001
 30
0.0
 70
    32
  0
VERTEX
  5
4E7C
  8
241
 10
115.31699999999999
 20
20.4939
 30
0.0
 70
    32
  0
VERTEX
  5
4E7D
  8
241
 10
115.334
 20
20.488199999999999
 30
0.0
 70
    32
  0
VERTEX
  5
4E7E
  8
241
 10
115.34999999999999
 20
20.482500000000002
 30
0.0
 70
    32
  0
VERTEX
  5
4E7F
  8
241
 10
115.366
 20
20.476700000000001
 30
0.0
 70
    32
  0
VERTEX
  5
4E80
  8
241
 10
115.38200000000001
 20
20.470800000000001
 30
0.0
 70
    32
  0
VERTEX
  5
4E81
  8
241
 10
115.398
 20
20.4649
 30
0.0
 70
    32
  0
VERTEX
  5
4E82
  8
241
 10
115.413
 20
20.459
 30
0.0
 70
    32
  0
VERTEX
  5
4E83
  8
241
 10
115.429
 20
20.452999999999999
 30
0.0
 70
    32
  0
VERTEX
  5
4E84
  8
241
 10
115.44499999999999
 20
20.446899999999999
 30
0.0
 70
    32
  0
VERTEX
  5
4E85
  8
241
 10
115.45999999999999
 20
20.440799999999999
 30
0.0
 70
    32
  0
VERTEX
  5
4E86
  8
241
 10
115.476
 20
20.434699999999999
 30
0.0
 70
    32
  0
VERTEX
  5
4E87
  8
241
 10
115.491
 20
20.4285
 30
0.0
 70
    32
  0
VERTEX
  5
4E88
  8
241
 10
115.506
 20
20.4222
 30
0.0
 70
    32
  0
VERTEX
  5
4E89
  8
241
 10
115.52200000000001
 20
20.415900000000001
 30
0.0
 70
    32
  0
VERTEX
  5
4E8A
  8
241
 10
115.53700000000001
 20
20.409500000000001
 30
0.0
 70
    32
  0
VERTEX
  5
4E8B
  8
241
 10
115.55200000000001
 20
20.403099999999998
 30
0.0
 70
    32
  0
VERTEX
  5
4E8C
  8
241
 10
115.56699999999999
 20
20.396699999999999
 30
0.0
 70
    32
  0
VERTEX
  5
4E8D
  8
241
 10
115.58199999999999
 20
20.3902
 30
0.0
 70
    32
  0
VERTEX
  5
4E8E
  8
241
 10
115.596
 20
20.383600000000001
 30
0.0
 70
    32
  0
VERTEX
  5
4E8F
  8
241
 10
115.611
 20
20.376999999999999
 30
0.0
 70
    32
  0
VERTEX
  5
4E90
  8
241
 10
115.626
 20
20.3704
 30
0.0
 70
    32
  0
VERTEX
  5
4E91
  8
241
 10
115.64
 20
20.363700000000001
 30
0.0
 70
    32
  0
VERTEX
  5
4E92
  8
241
 10
115.655
 20
20.356999999999999
 30
0.0
 70
    32
  0
VERTEX
  5
4E93
  8
241
 10
115.669
 20
20.350200000000001
 30
0.0
 70
    32
  0
VERTEX
  5
4E94
  8
241
 10
115.68300000000001
 20
20.343399999999999
 30
0.0
 70
    32
  0
VERTEX
  5
4E95
  8
241
 10
115.69799999999999
 20
20.336500000000001
 30
0.0
 70
    32
  0
VERTEX
  5
4E96
  8
241
 10
115.712
 20
20.329599999999999
 30
0.0
 70
    32
  0
VERTEX
  5
4E97
  8
241
 10
115.726
 20
20.322600000000001
 30
0.0
 70
    32
  0
VERTEX
  5
4E98
  8
241
 10
115.73999999999999
 20
20.3156
 30
0.0
 70
    32
  0
VERTEX
  5
4E99
  8
241
 10
115.753
 20
20.308499999999999
 30
0.0
 70
    32
  0
VERTEX
  5
4E9A
  8
241
 10
115.767
 20
20.301400000000001
 30
0.0
 70
    32
  0
VERTEX
  5
4E9B
  8
241
 10
115.78100000000001
 20
20.2943
 30
0.0
 70
    32
  0
VERTEX
  5
4E9C
  8
241
 10
115.794
 20
20.287099999999999
 30
0.0
 70
    32
  0
VERTEX
  5
4E9D
  8
241
 10
115.80800000000001
 20
20.279900000000001
 30
0.0
 70
    32
  0
VERTEX
  5
4E9E
  8
241
 10
115.821
 20
20.272600000000001
 30
0.0
 70
    32
  0
SEQEND
  5
4E9F
  8
241
  0
ARC
  5
4540
  8
240
  6
CONTINUOUS
 10
85.500000000003723
 20
21.40000000000197
 30
0.0
 40
0.5
 50
359.99999998713531
 51
89.999999987135297
1001
GRPNAME
1000
PASTMD3D
  0
LINE
  5
4541
  8
240
  6
CONTINUOUS
 10
84.000000000001364
 20
21.90000000000197
 30
0.0
 11
85.500000000003723
 21
21.90000000000197
 31
0.0
1001
GRPNAME
1000
PASTMD3D
  0
LINE
  5
4542
  8
240
  6
CONTINUOUS
 10
84.000000000001364
 20
21.90000000000197
 30
0.0
 11
85.500000000003723
 21
21.90000000000197
 31
0.0
1001
GRPNAME
1000
PASTMD3D
  0
LINE
  5
4543
  8
243
 10
130.0
 20
-10.00000000000005
 30
0.0
 11
85.366025403784377
 21
-10.00000000000005
 31
0.0
  0
LINE
  5
4544
  8
243
 10
130.0
 20
9.9999999999999716
 30
0.0
 11
85.366025403784235
 21
9.9999999999999432
 31
0.0
  0
LINE
  5
4578
  8
240
 10
84.000000000001307
 20
25.17157287525183
 30
0.0
 11
84.000000000001307
 21
21.90000000000197
 31
0.0
  0
LINE
  5
46F9
  8
250
 10
130.0
 20
20.42264973081026
 30
0.0
 11
130.0
 21
49.999999999999972
 31
0.0
  0
LINE
  5
46FA
  8
250
 10
85.366025403784306
 20
10.49999999999795
 30
0.0
 11
85.366025403784306
 21
49.999999999999972
 31
0.0
  0
LINE
  5
46FB
  8
250
 10
127.77
 20
48.999999999999972
 30
0.0
 11
87.59602540378431
 21
48.999999999999972
 31
0.0
  0
LINE
  5
4700
  8
250
 10
130.0
 20
20.42264973081026
 30
0.0
 11
130.0
 21
56.999999999999972
 31
0.0
  0
LINE
  5
4701
  8
250
 10
44.999999999999602
 20
11.000000000000011
 30
0.0
 11
44.999999999999602
 21
56.999999999999972
 31
0.0
  0
LINE
  5
4702
  8
250
 10
127.77
 20
55.999999999999972
 30
0.0
 11
47.229999999999592
 21
55.999999999999972
 31
0.0
  0
LINE
  5
4706
  8
250
 10
-0.0000000000001204
 20
22.724999999999991
 30
0.0
 11
-0.0000000000001178
 21
64.0
 31
0.0
  0
LINE
  5
4707
  8
250
 10
129.9999999999998
 20
20.42264973081069
 30
0.0
 11
129.9999999999998
 21
64.0
 31
0.0
  0
LINE
  5
4708
  8
250
 10
2.2299999999998801
 20
63.0
 30
0.0
 11
127.7699999999999
 21
63.0
 31
0.0
  0
LINE
  5
470C
  8
250
 10
130.5
 20
9.9999999999999716
 30
0.0
 11
143.0
 21
9.9999999999999662
 31
0.0
  0
LINE
  5
470D
  8
250
 10
130.5
 20
-10.00000000000005
 30
0.0
 11
143.0
 21
-10.00000000000006
 31
0.0
  0
LINE
  5
470E
  8
250
 10
142.0
 20
7.7699999999999658
 30
0.0
 11
142.0
 21
-7.7700000000000591
 31
0.0
  0
LINE
  5
4712
  8
250
 10
90.499999999999204
 20
25.350000000000051
 30
0.0
 11
150.0
 21
25.350000000000041
 31
0.0
  0
LINE
  5
4713
  8
250
 10
90.499999999998508
 20
-25.350000000000879
 30
0.0
 11
150.0
 21
-25.35000000000089
 31
0.0
  0
LINE
  5
4714
  8
250
 10
149.0
 20
23.12000000000004
 30
0.0
 11
149.0
 21
-23.120000000000889
 31
0.0
  0
TEXT
  5
471A
  8
250
 10
-50.969455034163062
 20
-31.383772827718619
 30
0.0
 40
3.0
  1
BBT40
  7
YOKO
1001
ITEMNAME
1000
LNSP3
  0
LINE
  5
471B
  8
250
 10
-27.432042467855752
 20
-20.318334623877
 30
0.0
 11
-34.398026462734506
 21
-32.38377282771863
 31
0.0
1001
ACAD
1000
DSTYLE
1002
{
1070
    78
1070
     8
1070
   140
1040
3.0
1002
}
  0
LINE
  5
471C
  8
250
 10
-27.753915242928962
 20
-20.132501290543669
 30
0.0
 11
-26.317042467855739
 21
-18.387097973437701
 31
0.0
  0
LINE
  5
471D
  8
250
 10
-27.110169692782531
 20
-20.504167957210338
 30
0.0
 11
-26.317042467855739
 21
-18.387097973437701
 31
0.0
  0
LINE
  5
471E
  8
250
 10
-26.317042467855739
 20
-18.387097973437701
 30
0.0
 11
-27.432042467855752
 21
-20.318334623877
 31
0.0
  0
TEXT
  5
471F
  8
250
 10
96.816346035225493
 20
49.999999999999972
 30
0.0
 40
2.799999999999998
  1
最低把握長45
  0
LINE
  5
4720
  8
250
 10
87.59602540378431
 20
48.628333333333302
 30
0.0
 11
85.366025403784306
 21
48.999999999999972
 31
0.0
  0
LINE
  5
4721
  8
250
 10
87.59602540378431
 20
49.371666666666641
 30
0.0
 11
85.366025403784306
 21
48.999999999999972
 31
0.0
  0
LINE
  5
4722
  8
250
 10
85.366025403784306
 20
48.999999999999972
 30
0.0
 11
87.59602540378431
 21
48.999999999999972
 31
0.0
  0
LINE
  5
4723
  8
250
 10
127.77
 20
49.371666666666641
 30
0.0
 11
130.0
 21
48.999999999999972
 31
0.0
  0
LINE
  5
4724
  8
250
 10
127.77
 20
48.628333333333302
 30
0.0
 11
130.0
 21
48.999999999999972
 31
0.0
  0
LINE
  5
4725
  8
250
 10
130.0
 20
48.999999999999972
 30
0.0
 11
127.77
 21
48.999999999999972
 31
0.0
  0
TEXT
  5
4726
  8
250
 10
76.633333333333141
 20
56.999999999999972
 30
0.0
 40
2.799999999999998
  1
最大挿入量85
  0
LINE
  5
4727
  8
250
 10
47.229999999999592
 20
55.628333333333302
 30
0.0
 11
44.999999999999602
 21
55.999999999999972
 31
0.0
  0
LINE
  5
4728
  8
250
 10
47.229999999999592
 20
56.371666666666641
 30
0.0
 11
44.999999999999602
 21
55.999999999999972
 31
0.0
  0
LINE
  5
4729
  8
250
 10
44.999999999999602
 20
55.999999999999972
 30
0.0
 11
47.229999999999592
 21
55.999999999999972
 31
0.0
  0
LINE
  5
472A
  8
250
 10
127.77
 20
56.371666666666641
 30
0.0
 11
130.0
 21
55.999999999999972
 31
0.0
  0
LINE
  5
472B
  8
250
 10
127.77
 20
55.628333333333302
 30
0.0
 11
130.0
 21
55.999999999999972
 31
0.0
  0
LINE
  5
472C
  8
250
 10
130.0
 20
55.999999999999972
 30
0.0
 11
127.77
 21
55.999999999999972
 31
0.0
  0
TEXT
  5
472D
  8
250
 10
60.799999999999919
 20
64.000000000000014
 30
0.0
 40
2.799999999999998
  1
130
  0
LINE
  5
472E
  8
250
 10
127.7699999999999
 20
63.37166666666667
 30
0.0
 11
129.9999999999998
 21
63.0
 31
0.0
  0
LINE
  5
472F
  8
250
 10
127.7699999999999
 20
62.62833333333333
 30
0.0
 11
129.9999999999998
 21
63.0
 31
0.0
  0
LINE
  5
4730
  8
250
 10
129.9999999999998
 20
63.0
 30
0.0
 11
127.7699999999999
 21
63.0
 31
0.0
  0
LINE
  5
4731
  8
250
 10
2.2299999999998801
 20
62.62833333333333
 30
0.0
 11
-0.0000000000001179
 21
63.0
 31
0.0
  0
LINE
  5
4732
  8
250
 10
2.2299999999998801
 20
63.37166666666667
 30
0.0
 11
-0.0000000000001179
 21
63.0
 31
0.0
  0
LINE
  5
4733
  8
250
 10
-0.0000000000001179
 20
63.0
 30
0.0
 11
2.2299999999998801
 21
63.0
 31
0.0
  0
TEXT
  5
4734
  8
250
 10
141.0
 20
-3.933333333333354
 30
0.0
 40
2.799999999999998
  1
\U+220520
 50
90.0
  0
LINE
  5
4735
  8
250
 10
142.37166666666661
 20
-7.7700000000000591
 30
0.0
 11
142.0
 21
-10.00000000000006
 31
0.0
  0
LINE
  5
4736
  8
250
 10
141.6283333333333
 20
-7.7700000000000591
 30
0.0
 11
142.0
 21
-10.00000000000006
 31
0.0
  0
LINE
  5
4737
  8
250
 10
142.0
 20
-10.00000000000006
 30
0.0
 11
142.0
 21
-7.7700000000000591
 31
0.0
  0
LINE
  5
4738
  8
250
 10
141.6283333333333
 20
7.7699999999999658
 30
0.0
 11
142.0
 21
9.9999999999999662
 31
0.0
  0
LINE
  5
4739
  8
250
 10
142.37166666666661
 20
7.7699999999999658
 30
0.0
 11
142.0
 21
9.9999999999999662
 31
0.0
  0
LINE
  5
473A
  8
250
 10
142.0
 20
9.9999999999999662
 30
0.0
 11
142.0
 21
7.7699999999999658
 31
0.0
  0
LINE
  5
473B
  8
250
 10
149.37166666666661
 20
-23.120000000000889
 30
0.0
 11
149.0
 21
-25.35000000000089
 31
0.0
  0
LINE
  5
473C
  8
250
 10
148.62833333333339
 20
-23.120000000000889
 30
0.0
 11
149.0
 21
-25.35000000000089
 31
0.0
  0
LINE
  5
473D
  8
250
 10
149.0
 20
-25.35000000000089
 30
0.0
 11
149.0
 21
-23.120000000000889
 31
0.0
  0
LINE
  5
473E
  8
250
 10
148.62833333333339
 20
23.12000000000004
 30
0.0
 11
149.0
 21
25.350000000000041
 31
0.0
  0
LINE
  5
473F
  8
250
 10
149.37166666666661
 20
23.12000000000004
 30
0.0
 11
149.0
 21
25.350000000000041
 31
0.0
  0
LINE
  5
4740
  8
250
 10
149.0
 20
25.350000000000041
 30
0.0
 11
149.0
 21
23.12000000000004
 31
0.0
  0
TEXT
  5
4741
  8
250
 10
147.8030196095724
 20
-6.3020216354521441
 30
0.0
 40
2.799999999999998
  1
\U+220550.7
 50
90.0
  0
TEXT
  5
478E
  8
241
 10
-49.0
 20
76.999999999999972
 30
0.0
 40
4.0
  1
BBT40-HMC20S-130NRA
  7
YOKO
  0
LINE
  5
4FF5
  8
240
 10
-0.0000000000000568
 20
22.225000000000001
 30
0.0
 11
0.9999999999999431
 21
22.225000000000001
 31
0.0
  0
LINE
  5
4FF6
  8
240
 10
0.0000000000000568
 20
-22.225000000000051
 30
0.0
 11
0.9999999999999431
 21
-22.225000000000051
 31
0.0
  0
VIEWPORT
  5
22
 67
     1
  8
0
 10
261.51769911504419
 20
148.5
 30
0.0
 40
523.0353982300885
 41
297.0
 68
     1
 69
     1
1001
ACAD
1000
MVIEW
1002
{
1070
    16
1010
0.0
1020
0.0
1030
0.0
1010
0.0
1020
0.0
1030
1.0
1040
0.0
1040
297.0
1040
261.51769911504419
1040
148.5
1040
50.0
1040
0.0
1040
0.0
1070
     0
1070
   100
1070
     1
1070
     1
1070
     0
1070
     0
1070
     0
1070
     0
1040
0.0
1040
0.0
1040
0.0
1040
1.0
1040
1.0
1040
10.0
1040
10.0
1070
     0
1002
{
1002
}
1002
}
1001
GENIUS_GENODEF_13
1002
{
1000
HIER
1070
     0
1002
}
1002
{
1000
MANEDIT
1070
     0
1002
}
1002
{
1000
NOSEL
1070
     0
1002
}
1002
{
1000
BEHIND
1070
     0
1002
}
1002
{
1000
OTHER
1070
     0
1002
}
1002
{
1000
REACTOR
1002
}
1001
GENIUS_GENOBJ-N-SDF_13
1002
{
1000
OWNER
1000
GEN
1002
}
1001
GENIUS_GENSCREG_15
1000
PF
1040
1.0
1000
DF
1040
1.0
1000
MIN
1011
0.0
1021
0.0
1031
0.0
1021
0.0
1031
0.0
1000
MAX
1011
523.0353982300885
1021
0.0
1031
0.0
1021
297.0
1031
0.0
1000
FLAGS
1070
     4
  0
ENDSEC
  0
EOF
