  0
SECTION
  2
HEADER
  9
$ACADVER
  1
AC1009
  9
$INSBASE
 10
0.0
 20
0.0
 30
0.0
  9
$EXTMIN
 10
-68.42645328490994
 20
-31.714482533942771
 30
-0.0015258207003583
  9
$EXTMAX
 10
99.014670987882155
 20
75.131447537497706
 30
0.0000000349246037
  9
$LIMMIN
 10
0.0
 20
0.0
  9
$LIMMAX
 10
297.0
 20
210.0
  9
$ORTHOMODE
 70
     1
  9
$REGENMODE
 70
     1
  9
$FILLMODE
 70
     1
  9
$QTEXTMODE
 70
     0
  9
$MIRRTEXT
 70
     1
  9
$DRAGMODE
 70
     2
  9
$LTSCALE
 40
10.0
  9
$OSMODE
 70
    39
  9
$ATTMODE
 70
     1
  9
$TEXTSIZE
 40
3.0
  9
$TRACEWID
 40
1.0
  9
$TEXTSTYLE
  7
YOKO
  9
$CLAYER
  8
240
  9
$CELTYPE
  6
BYLAYER
  9
$CECOLOR
 62
   256
  9
$DIMSCALE
 40
1.0
  9
$DIMASZ
 40
2.2299999999999991
  9
$DIMEXO
 40
0.5
  9
$DIMDLI
 40
7.0
  9
$DIMRND
 40
0.0
  9
$DIMDLE
 40
0.0
  9
$DIMEXE
 40
1.0
  9
$DIMTP
 40
0.0
  9
$DIMTM
 40
0.01
  9
$DIMTXT
 40
2.799999999999998
  9
$DIMCEN
 40
0.0
  9
$DIMTSZ
 40
0.0
  9
$DIMTOL
 70
     0
  9
$DIMLIM
 70
     0
  9
$DIMTIH
 70
     0
  9
$DIMTOH
 70
     0
  9
$DIMSE1
 70
     0
  9
$DIMSE2
 70
     0
  9
$DIMTAD
 70
     3
  9
$DIMZIN
 70
     9
  9
$DIMBLK
  1
OPEN
  9
$DIMASO
 70
     1
  9
$DIMSHO
 70
     1
  9
$DIMPOST
  1

  9
$DIMAPOST
  1

  9
$DIMALT
 70
     0
  9
$DIMALTD
 70
     2
  9
$DIMALTF
 40
25.399999999999999
  9
$DIMLFAC
 40
1.0
  9
$DIMTOFL
 70
     1
  9
$DIMTVP
 40
0.0
  9
$DIMTIX
 70
     1
  9
$DIMSOXD
 70
     0
  9
$DIMSAH
 70
     0
  9
$DIMBLK1
  1

  9
$DIMBLK2
  1

  9
$DIMSTYLE
  2
BIGT
  9
$DIMCLRD
 70
   256
  9
$DIMCLRE
 70
   256
  9
$DIMCLRT
 70
    40
  9
$DIMTFAC
 40
1.0
  9
$DIMGAP
 40
1.0
  9
$LUNITS
 70
     2
  9
$LUPREC
 70
     3
  9
$SKETCHINC
 40
1.0
  9
$FILLETRAD
 40
0.0
  9
$AUNITS
 70
     0
  9
$AUPREC
 70
     3
  9
$MENU
  1
.
  9
$ELEVATION
 40
0.0
  9
$PELEVATION
 40
0.0
  9
$THICKNESS
 40
0.0
  9
$LIMCHECK
 70
     0
  9
$BLIPMODE
 70
     0
  9
$CHAMFERA
 40
0.25
  9
$CHAMFERB
 40
0.25
  9
$SKPOLY
 70
     0
  9
$TDCREATE
 40
2456169.3585969559
  9
$TDUPDATE
 40
2456577.6654762621
  9
$TDINDWG
 40
0.0257823148
  9
$TDUSRTIMER
 40
0.0257821296
  9
$USRTIMER
 70
     1
  9
$ANGBASE
 50
0.0
  9
$ANGDIR
 70
     0
  9
$PDMODE
 70
     1
  9
$PDSIZE
 40
0.0
  9
$PLINEWID
 40
0.0
  9
$COORDS
 70
     2
  9
$SPLFRAME
 70
     0
  9
$SPLINETYPE
 70
     6
  9
$SPLINESEGS
 70
     4
  9
$ATTDIA
 70
     1
  9
$ATTREQ
 70
     1
  9
$HANDLING
 70
     1
  9
$HANDSEED
  5
1D68
  9
$SURFTAB1
 70
     6
  9
$SURFTAB2
 70
     6
  9
$SURFTYPE
 70
     6
  9
$SURFU
 70
     6
  9
$SURFV
 70
     6
  9
$UCSNAME
  2

  9
$UCSORG
 10
0.0
 20
0.0
 30
0.0
  9
$UCSXDIR
 10
1.0
 20
0.0
 30
0.0
  9
$UCSYDIR
 10
0.0
 20
1.0
 30
0.0
  9
$PUCSNAME
  2

  9
$PUCSORG
 10
0.0
 20
0.0
 30
0.0
  9
$PUCSXDIR
 10
1.0
 20
0.0
 30
0.0
  9
$PUCSYDIR
 10
0.0
 20
1.0
 30
0.0
  9
$USERI1
 70
     1
  9
$USERI2
 70
     0
  9
$USERI3
 70
     0
  9
$USERI4
 70
     0
  9
$USERI5
 70
     0
  9
$USERR1
 40
0.0
  9
$USERR2
 40
0.0
  9
$USERR3
 40
0.0
  9
$USERR4
 40
0.0
  9
$USERR5
 40
0.0
  9
$WORLDVIEW
 70
     1
  9
$SHADEDGE
 70
     3
  9
$SHADEDIF
 70
    70
  9
$TILEMODE
 70
     1
  9
$MAXACTVP
 70
    16
  9
$PLIMCHECK
 70
     0
  9
$PEXTMIN
 10
1.0000000000000000E+020
 20
1.0000000000000000E+020
 30
1.0000000000000000E+020
  9
$PEXTMAX
 10
-1.0000000000000000E+020
 20
-1.0000000000000000E+020
 30
-1.0000000000000000E+020
  9
$PLIMMIN
 10
0.0
 20
0.0
  9
$PLIMMAX
 10
420.0
 20
297.0
  9
$UNITMODE
 70
     0
  9
$VISRETAIN
 70
     1
  9
$PLINEGEN
 70
     0
  9
$PSLTSCALE
 70
     1
  0
ENDSEC
  0
SECTION
  2
TABLES
  0
TABLE
  2
VPORT
 70
   102
  0
VPORT
  2
*ACTIVE
 70
     0
 10
0.0
 20
0.0
 11
1.0
 21
1.0
 12
15.294108851486101
 22
21.708482501777471
 13
0.0
 23
0.0
 14
7.0
 24
7.0
 15
7.0
 25
7.0
 16
0.0
 26
0.0
 36
1.0
 17
0.0
 27
0.0
 37
0.0
 40
113.5724859088772
 41
1.480984340044742
 42
50.0
 43
0.0
 44
0.0
 50
0.0
 51
0.0
 71
     0
 72
  2000
 73
     1
 74
     0
 75
     0
 76
     1
 77
     0
 78
     0
  0
ENDTAB
  0
TABLE
  2
LTYPE
 70
    21
  0
LTYPE
  2
CONTINUOUS
 70
     0
  3
Solid line
 72
    65
 73
     0
 40
0.0
  0
LTYPE
  2
CENTER2
 70
     0
  3
___ _ ___ _ ___ _ ___ _ ___ _ ___ _ ___ _ ___ _
 72
    65
 73
     4
 40
1.125
 49
0.75
 49
-0.125
 49
0.125
 49
-0.125
  0
LTYPE
  2
HIDDEN2
 70
     0
  3
_ _ _ _ _ _ _ _ _ _ _ _ _ _ _ _ _ _ _ _ _ _ _ _
 72
    65
 73
     2
 40
0.1875
 49
0.125
 49
-0.0625
  0
LTYPE
  2
PHANTOM2
 70
     0
  3
___ _ _ ___ _ _ ___ _ _ ___ _ _ ___ _ _ ___ _ _
 72
    65
 73
     6
 40
1.25
 49
0.625
 49
-0.125
 49
0.125
 49
-0.125
 49
0.125
 49
-0.125
  0
LTYPE
  2
CENTER
 70
     0
  3
____ _ ____ _ ____ _ ____ _ ____ _ ____ _ ____ 
 72
    65
 73
     4
 40
2.0
 49
1.25
 49
-0.25
 49
0.25
 49
-0.25
  0
LTYPE
  2
AM_ISO02W050
 70
     0
  3
__ __ __ __ __ __ __ __ __ __ __ __ __ __ __
 72
    65
 73
     2
 40
7.5
 49
6.0
 49
-1.5
  0
LTYPE
  2
AMCONSTR
 70
     0
  3
_______________________
 72
    65
 73
     2
 40
9999.0
 49
9999.0
 49
0.0
  0
LTYPE
  2
ACISOWELD
 70
     0
  3
_ _ _ _ _
 72
    65
 73
     2
 40
2.0
 49
2.0
 49
-1.0
  0
LTYPE
  2
ACISOTGB
 70
     0
  3
__ . . __ . .
 72
    65
 73
     6
 40
9.0
 49
4.0
 49
-1.0
 49
1.0
 49
-1.0
 49
1.0
 49
-1.0
  0
LTYPE
  2
ACISOTGL
 70
     0
  3
_ _ _ _ _
 72
    65
 73
     2
 40
3.0
 49
2.0
 49
-1.0
  0
LTYPE
  2
ACJISTGB
 70
     0
  3
__ . . __ . .
 72
    65
 73
     6
 40
9.0
 49
4.0
 49
-1.0
 49
1.0
 49
-1.0
 49
1.0
 49
-1.0
  0
LTYPE
  2
ACJISTGL
 70
     0
  3
_ _ _ _ _
 72
    65
 73
     2
 40
3.0
 49
2.0
 49
-1.0
  0
LTYPE
  2
HIDDEN
 70
     0
  3
Hidden __ __ __ __ __ __ __ __ __ __ __ __ __ _
 72
    65
 73
     2
 40
9.5249999999999986
 49
6.3499999999999979
 49
-3.174999999999998
  0
LTYPE
  2
AM_ISO08W050
 70
     0
  3
____ . ____ . ____ . ____ . ____ . ____ . ____
 72
    65
 73
     4
 40
18.0
 49
12.0
 49
-1.5
 49
3.0
 49
-1.5
  0
LTYPE
  2
AM_ISO09W050
 70
     0
  3
_____ . . _____ . . _____ . . ____ .. ____
 72
    65
 73
     6
 40
22.5
 49
12.0
 49
-1.5
 49
3.0
 49
-1.5
 49
3.0
 49
-1.5
  0
LTYPE
  2
AM_ISO08W050X2
 70
     0
  3
__ . __ . __ . __ . __ . __
 72
    65
 73
     4
 40
9.0
 49
6.0
 49
-0.75
 49
1.5
 49
-0.75
  0
LTYPE
  2
AM_ISO02W050X2
 70
     0
  3
 _ _ _ _ _ _ _ _ _ _ _ _
 72
    65
 73
     2
 40
3.75
 49
3.0
 49
-0.75
  0
LTYPE
  2
AMZIGZAG
 70
     0
  3
/\/-/\/-/\/-/\/-/\/-/\/
 72
    65
 73
     2
 40
11.0001
 49
0.0001
 49
-11.0
  0
LTYPE
  2
AMZIGZAG2
 70
     0
  3
/\/-/\/-/\/-/\/-/\/-/\/
 72
    65
 73
     2
 40
0.4401
 49
0.0001
 49
-0.4400000000000001
  0
LTYPE
  2
ACANSTGB
 70
     0
  3
__ . . __ . .
 72
    65
 73
     6
 40
0.35433070866
 49
0.15748031496
 49
-0.03937007874
 49
0.03937007874
 49
-0.03937007874
 49
0.03937007874
 49
-0.03937007874
  0
LTYPE
  2
ACANSTGL
 70
     0
  3
_ _ _ _ _
 72
    65
 73
     2
 40
0.11811023622
 49
0.07874015748
 49
-0.03937007874
  0
ENDTAB
  0
TABLE
  2
LAYER
 70
    10
  0
LAYER
  2
0
 70
     0
 62
     7
  6
CONTINUOUS
  0
LAYER
  2
240
 70
     0
 62
     4
  6
CONTINUOUS
  0
LAYER
  2
DEFPOINTS
 70
     0
 62
     7
  6
CONTINUOUS
  0
LAYER
  2
245
 70
     0
 62
     2
  6
CENTER2
  0
LAYER
  2
241
 70
     0
 62
   211
  6
CONTINUOUS
  0
LAYER
  2
243
 70
     0
 62
   211
  6
HIDDEN2
  0
LAYER
  2
250
 70
     0
 62
     3
  6
CONTINUOUS
  0
LAYER
  2
251
 70
     0
 62
    40
  6
CONTINUOUS
  0
LAYER
  2
AM_5
 70
     0
 62
     3
  6
CONTINUOUS
  0
LAYER
  2
AM_CL
 70
     0
 62
     1
  6
AMCONSTR
  0
ENDTAB
  0
TABLE
  2
STYLE
 70
     9
  0
STYLE
  2
STANDARD
 70
     0
 40
0.0
 41
1.0
 50
0.0
 71
     0
 42
3.0
  3
romans.shx
  4
extfont.shx
  0
STYLE
  2
YOKO
 70
     0
 40
0.0
 41
1.0
 50
0.0
 71
     0
 42
3.0
  3
romans.shx
  4
extfont.shx
  0
STYLE
  2
ACISOTS
 70
     0
 40
1.0
 41
1.0
 50
0.0
 71
     0
 42
3.0
  3
amgdt.shx
  4
extfont.shx
  0
STYLE
  2
ACISOGDT
 70
     0
 40
0.0
 41
1.0
 50
0.0
 71
     0
 42
3.0
  3
amgdt.shx
  4
extfont.shx
  0
STYLE
  2
ACJISTS
 70
     0
 40
1.0
 41
1.0
 50
0.0
 71
     0
 42
3.0
  3
amgdt.shx
  4
extfont.shx
  0
STYLE
  2
ACJISGDT
 70
     0
 40
0.0
 41
1.0
 50
0.0
 71
     0
 42
3.0
  3
amgdt.shx
  4
extfont.shx
  0
STYLE
  2

 70
     1
 40
0.0
 41
1.0
 50
0.0
 71
     0
 42
3.0
  3
ltypeshp.shx
  4

  0
STYLE
  2
ACANSTS
 70
     0
 40
1.0
 41
1.0
 50
0.0
 71
     0
 42
3.0
  3
romans.shx
  4
extfont.shx
  0
STYLE
  2
ACANSGDT
 70
     0
 40
0.0
 41
1.0
 50
0.0
 71
     0
 42
3.0
  3
amgdtans.shx
  4

  0
ENDTAB
  0
TABLE
  2
VIEW
 70
     0
  0
ENDTAB
  0
TABLE
  2
UCS
 70
     0
  0
ENDTAB
  0
TABLE
  2
APPID
 70
    29
  0
APPID
  2
ACAD
 70
     0
  0
APPID
  2
GLOBAL
 70
     0
  0
APPID
  2
DETAIL
 70
     0
  0
APPID
  2
GRPNAME
 70
     0
  0
APPID
  2
GPARA
 70
     0
  0
APPID
  2
MCAD_NO_VIS
 70
     0
  0
APPID
  2
ACAD_TEMP_GRAPHIC
 70
     0
  0
APPID
  2
ACATTRIBSERVICES
 70
     0
  0
APPID
  2
GENIUS_GENSCREG_15
 70
     0
  0
APPID
  2
GENIUS_GENODEF_13
 70
     0
  0
APPID
  2
GENIUS_GENOBJ-N-SDF_13
 70
     0
  0
APPID
  2
GENIUS_GENREC_14
 70
     0
  0
APPID
  2
GENIUS_GENOBJ-N-REC_13
 70
     0
  0
APPID
  2
GENIUS_GENDIMSH_14
 70
     0
  0
APPID
  2
GENIUS_GENOBJ-N-DIM_13
 70
     0
  0
APPID
  2
GENIUS_GENDIM_13
 70
     0
  0
APPID
  2
GENIUS_GENDTOL_13
 70
     0
  0
APPID
  2
GENIUS_GENOLIS_13
 70
     0
  0
APPID
  2
GENIUS_GENOENT_13
 70
     0
  0
APPID
  2
GENIUS_GENOBJ-F-FEM_13
 70
     0
  0
APPID
  2
GENIUS_GENOREF_13
 70
     0
  0
APPID
  2
GENIUS_GEFFEM_13
 70
     0
  0
APPID
  2
GENIUS_GEFFEMP_13
 70
     0
  0
APPID
  2
AD_DRAW
 70
     0
  0
APPID
  2
DESIGNERASSEMBLIES
 70
     0
  0
APPID
  2
ACADM_DIM_EDIT
 70
     0
  0
APPID
  2
AMDT_DM_ADJ
 70
     0
  0
APPID
  2
ASK_MEN_XD
 70
     0
  0
APPID
  2
ITEMNAME
 70
     0
  0
ENDTAB
  0
TABLE
  2
DIMSTYLE
 70
    29
  0
DIMSTYLE
  2
BIGT
 70
     0
  3

  4

  5

  6

  7

 40
1.0
 41
2.2299999999999991
 42
0.5
 43
7.0
 44
1.0
 45
0.0
 46
0.0
 47
0.0
 48
0.01
140
2.799999999999998
141
0.0
142
0.0
143
25.399999999999999
144
1.0
145
0.0
146
1.0
147
1.0
 71
     0
 72
     0
 73
     0
 74
     0
 75
     0
 76
     0
 77
     3
 78
     9
170
     0
171
     2
172
     1
173
     0
174
     1
175
     0
176
   256
177
   256
178
    40
  0
DIMSTYLE
  2
AM_ISO
 70
     0
  3

  4
"
  5

  6

  7

 40
1.0
 41
2.5
 42
1.0
 43
10.0
 44
1.0
 45
0.0
 46
0.0
 47
0.1
 48
0.1
140
3.5
141
0.0
142
0.0
143
0.0393701
144
1.0
145
0.0
146
0.71
147
1.5
 71
     0
 72
     0
 73
     0
 74
     0
 75
     0
 76
     0
 77
     1
 78
     8
170
     0
171
     2
172
     1
173
     0
174
     0
175
     0
176
   256
177
   256
178
     2
  0
DIMSTYLE
  2
AM_ISO$3
 70
     0
  3

  4
"
  5

  6

  7

 40
1.0
 41
2.5
 42
1.0
 43
10.0
 44
1.0
 45
0.0
 46
0.0
 47
0.1
 48
0.1
140
3.5
141
0.0
142
0.0
143
0.0393701
144
1.0
145
0.0
146
0.71
147
1.5
 71
     0
 72
     0
 73
     0
 74
     1
 75
     0
 76
     0
 77
     1
 78
     8
170
     0
171
     2
172
     0
173
     0
174
     0
175
     0
176
   256
177
   256
178
     2
  0
DIMSTYLE
  2
AM_ISO$4
 70
     0
  3

  4
"
  5

  6

  7

 40
1.0
 41
2.5
 42
1.0
 43
10.0
 44
1.0
 45
0.0
 46
0.0
 47
0.1
 48
0.1
140
3.5
141
0.0
142
0.0
143
0.0393701
144
1.0
145
0.0
146
0.71
147
1.5
 71
     0
 72
     0
 73
     0
 74
     1
 75
     0
 76
     0
 77
     1
 78
     8
170
     0
171
     2
172
     0
173
     0
174
     0
175
     0
176
   256
177
   256
178
     2
  0
DIMSTYLE
  2
AM_ISO$6
 70
     0
  3

  4
"
  5

  6

  7

 40
1.0
 41
2.5
 42
1.0
 43
10.0
 44
1.0
 45
0.0
 46
0.0
 47
0.1
 48
0.1
140
3.5
141
0.0
142
0.0
143
0.0393701
144
1.0
145
0.0
146
0.71
147
1.5
 71
     0
 72
     0
 73
     0
 74
     0
 75
     0
 76
     0
 77
     0
 78
     8
170
     0
171
     2
172
     1
173
     0
174
     0
175
     0
176
   256
177
   256
178
     2
  0
DIMSTYLE
  2
AM_ISO$7
 70
     0
  3

  4
"
  5

  6

  7

 40
1.0
 41
2.5
 42
1.0
 43
10.0
 44
1.0
 45
0.0
 46
0.0
 47
0.1
 48
0.1
140
5.0
141
0.0
142
0.0
143
0.0393701
144
1.0
145
0.0
146
0.71
147
1.5
 71
     0
 72
     0
 73
     0
 74
     0
 75
     0
 76
     0
 77
     1
 78
     8
170
     0
171
     2
172
     1
173
     0
174
     0
175
     0
176
   256
177
   256
178
     2
  0
DIMSTYLE
  2
AM_ISO$SF
 70
     0
  3

  4
"
  5

  6

  7

 40
1.0
 41
2.5
 42
1.0
 43
10.0
 44
1.0
 45
0.0
 46
0.0
 47
0.1
 48
0.1
140
3.5
141
0.0
142
0.0
143
0.0393701
144
1.0
145
0.0
146
0.71
147
1.5
 71
     0
 72
     0
 73
     0
 74
     0
 75
     1
 76
     1
 77
     1
 78
     8
170
     0
171
     2
172
     1
173
     0
174
     0
175
     0
176
   256
177
   256
178
     2
  0
DIMSTYLE
  2
AM_ISO$SH
 70
     0
  3

  4
"
  5

  6

  7

 40
1.0
 41
2.5
 42
1.0
 43
10.0
 44
1.0
 45
0.0
 46
0.0
 47
0.1
 48
0.1
140
3.5
141
0.0
142
0.0
143
0.0393701
144
2.0
145
0.0
146
0.71
147
1.5
 71
     0
 72
     0
 73
     0
 74
     0
 75
     1
 76
     1
 77
     1
 78
     8
170
     0
171
     2
172
     1
173
     1
174
     0
175
     0
176
   256
177
   256
178
     2
  0
DIMSTYLE
  2
BIGT$2
 70
     0
  3

  4

  5

  6

  7

 40
1.0
 41
2.2299999999999991
 42
0.5
 43
7.0
 44
1.0
 45
0.0
 46
0.0
 47
0.0
 48
0.01
140
2.799999999999998
141
0.0
142
0.0
143
25.399999999999999
144
1.0
145
0.0
146
1.0
147
1.0
 71
     0
 72
     0
 73
     0
 74
     0
 75
     0
 76
     0
 77
     3
 78
     9
170
     0
171
     2
172
     1
173
     0
174
     0
175
     0
176
   256
177
   256
178
    40
  0
DIMSTYLE
  2
BIGT$3
 70
     0
  3

  4

  5

  6

  7

 40
1.0
 41
2.2299999999999991
 42
0.5
 43
2.5
 44
1.0
 45
0.0
 46
0.0
 47
0.0
 48
0.01
140
2.799999999999998
141
0.0
142
0.0
143
25.399999999999999
144
1.0
145
0.0
146
1.0
147
1.0
 71
     0
 72
     0
 73
     0
 74
     0
 75
     0
 76
     0
 77
     3
 78
     9
170
     0
171
     2
172
     1
173
     0
174
     0
175
     0
176
   256
177
   256
178
    40
  0
DIMSTYLE
  2
BIGT$7
 70
     0
  3

  4

  5

  6

  7

 40
0.0
 41
2.2299999999999991
 42
0.5
 43
7.0
 44
1.0
 45
0.0
 46
0.0
 47
0.0
 48
0.01
140
2.799999999999998
141
0.0
142
0.0
143
25.399999999999999
144
1.0
145
0.0
146
1.0
147
1.0
 71
     0
 72
     0
 73
     0
 74
     0
 75
     0
 76
     0
 77
     3
 78
     9
170
     0
171
     2
172
     0
173
     0
174
     0
175
     0
176
   256
177
   256
178
    40
  0
DIMSTYLE
  2
BIGT$6
 70
     0
  3

  4

  5

  6

  7

 40
1.0
 41
2.2299999999999991
 42
0.5
 43
2.5
 44
1.0
 45
0.0
 46
0.0
 47
0.0
 48
0.01
140
2.799999999999998
141
0.0
142
0.0
143
25.399999999999999
144
1.0
145
0.0
146
1.0
147
1.0
 71
     0
 72
     0
 73
     0
 74
     0
 75
     0
 76
     0
 77
     3
 78
     9
170
     0
171
     2
172
     1
173
     0
174
     0
175
     0
176
   256
177
   256
178
    40
  0
DIMSTYLE
  2
BIGT$0
 70
     0
  3

  4

  5

  6

  7

 40
1.0
 41
2.2299999999999991
 42
0.5
 43
7.0
 44
1.0
 45
0.0
 46
0.0
 47
0.0
 48
0.01
140
2.799999999999998
141
0.0
142
0.0
143
25.399999999999999
144
1.0
145
0.0
146
1.0
147
1.0
 71
     0
 72
     0
 73
     0
 74
     0
 75
     0
 76
     0
 77
     3
 78
     9
170
     0
171
     2
172
     1
173
     0
174
     0
175
     0
176
   256
177
   256
178
    40
  0
DIMSTYLE
  2
BIGT$4
 70
     0
  3

  4

  5

  6

  7

 40
1.0
 41
2.2299999999999991
 42
0.5
 43
2.5
 44
1.0
 45
0.0
 46
0.0
 47
0.0
 48
0.01
140
2.799999999999998
141
0.0
142
0.0
143
25.399999999999999
144
1.0
145
0.0
146
1.0
147
1.0
 71
     0
 72
     0
 73
     0
 74
     0
 75
     0
 76
     0
 77
     3
 78
     9
170
     0
171
     2
172
     1
173
     0
174
     0
175
     0
176
   256
177
   256
178
    40
  0
DIMSTYLE
  2
BIGT$SH
 70
     0
  3

  4

  5

  6

  7

 40
1.0
 41
2.2299999999999991
 42
0.5
 43
7.0
 44
1.0
 45
0.0
 46
0.0
 47
0.0
 48
0.0
140
2.799999999999998
141
0.0
142
0.0
143
25.399999999999999
144
1.0
145
0.0
146
1.0
147
1.0
 71
     0
 72
     0
 73
     0
 74
     0
 75
     0
 76
     0
 77
     3
 78
     9
170
     0
171
     2
172
     1
173
     0
174
     0
175
     0
176
   256
177
   256
178
    40
  0
DIMSTYLE
  2
BIGT$SF
 70
     0
  3

  4

  5

  6

  7

 40
1.0
 41
2.2299999999999991
 42
0.5
 43
7.0
 44
1.0
 45
0.0
 46
0.0
 47
0.0
 48
0.0
140
2.799999999999998
141
0.0
142
0.0
143
25.399999999999999
144
1.0
145
0.0
146
1.0
147
1.0
 71
     0
 72
     0
 73
     0
 74
     0
 75
     0
 76
     0
 77
     3
 78
     9
170
     0
171
     2
172
     1
173
     0
174
     0
175
     0
176
   256
177
   256
178
    40
  0
DIMSTYLE
  2
TECHNICAL_OSAKA
 70
     0
  3

  4
"
  5

  6

  7

 40
1.0
 41
2.5
 42
1.0
 43
10.0
 44
1.0
 45
0.0
 46
0.0
 47
0.1
 48
0.1
140
2.799999999999998
141
0.0
142
0.0
143
0.0393701
144
1.0
145
0.0
146
0.71
147
1.5
 71
     0
 72
     0
 73
     0
 74
     0
 75
     0
 76
     0
 77
     3
 78
     8
170
     0
171
     2
172
     1
173
     0
174
     0
175
     0
176
   256
177
   256
178
    40
  0
DIMSTYLE
  2
TECHNICAL_OSAKA$3
 70
     0
  3

  4
"
  5

  6

  7

 40
1.0
 41
2.5
 42
1.0
 43
10.0
 44
1.0
 45
0.0
 46
0.0
 47
0.1
 48
0.1
140
2.799999999999998
141
0.0
142
0.0
143
0.0393701
144
1.0
145
0.0
146
0.71
147
1.5
 71
     0
 72
     0
 73
     0
 74
     1
 75
     0
 76
     0
 77
     3
 78
     8
170
     0
171
     2
172
     0
173
     0
174
     0
175
     0
176
   256
177
   256
178
    40
  0
DIMSTYLE
  2
TECHNICAL_OSAKA$4
 70
     0
  3

  4
"
  5

  6

  7

 40
1.0
 41
2.5
 42
1.0
 43
10.0
 44
1.0
 45
0.0
 46
0.0
 47
0.1
 48
0.1
140
2.799999999999998
141
0.0
142
0.0
143
0.0393701
144
1.0
145
0.0
146
0.71
147
1.5
 71
     0
 72
     0
 73
     0
 74
     1
 75
     0
 76
     0
 77
     3
 78
     8
170
     0
171
     2
172
     0
173
     0
174
     0
175
     0
176
   256
177
   256
178
    40
  0
DIMSTYLE
  2
TECHNICAL_OSAKA$6
 70
     0
  3

  4
"
  5

  6

  7

 40
1.0
 41
2.5
 42
1.0
 43
10.0
 44
1.0
 45
0.0
 46
0.0
 47
0.1
 48
0.1
140
2.799999999999998
141
0.0
142
0.0
143
0.0393701
144
1.0
145
0.0
146
0.71
147
1.5
 71
     0
 72
     0
 73
     0
 74
     0
 75
     0
 76
     0
 77
     0
 78
     8
170
     0
171
     2
172
     1
173
     0
174
     0
175
     0
176
   256
177
   256
178
    40
  0
DIMSTYLE
  2
TECHNICAL_OSAKA$7
 70
     0
  3

  4
"
  5

  6

  7

 40
1.0
 41
2.5
 42
1.0
 43
10.0
 44
1.0
 45
0.0
 46
0.0
 47
0.1
 48
0.1
140
2.799999999999998
141
0.0
142
0.0
143
0.0393701
144
1.0
145
0.0
146
0.71
147
1.5
 71
     0
 72
     0
 73
     0
 74
     0
 75
     0
 76
     0
 77
     3
 78
     8
170
     0
171
     2
172
     1
173
     0
174
     0
175
     0
176
   256
177
   256
178
    40
  0
DIMSTYLE
  2
TECHNICAL_OSAKA$SF
 70
     0
  3

  4
"
  5

  6

  7

 40
1.0
 41
2.5
 42
1.0
 43
10.0
 44
1.0
 45
0.0
 46
0.0
 47
0.1
 48
0.1
140
3.5
141
0.0
142
0.0
143
0.0393701
144
1.0
145
0.0
146
0.71
147
1.5
 71
     0
 72
     0
 73
     0
 74
     0
 75
     1
 76
     1
 77
     3
 78
     8
170
     0
171
     2
172
     1
173
     0
174
     0
175
     0
176
   256
177
   256
178
    40
  0
DIMSTYLE
  2
TECHNICAL_OSAKA$SH
 70
     0
  3

  4
"
  5

  6

  7

 40
1.0
 41
2.5
 42
1.0
 43
10.0
 44
1.0
 45
0.0
 46
0.0
 47
0.1
 48
0.1
140
3.5
141
0.0
142
0.0
143
0.0393701
144
2.0
145
0.0
146
0.71
147
1.5
 71
     0
 72
     0
 73
     0
 74
     0
 75
     1
 76
     1
 77
     3
 78
     8
170
     0
171
     2
172
     1
173
     1
174
     0
175
     0
176
   256
177
   256
178
    40
  0
DIMSTYLE
  2
AM_ANSI
 70
     0
  3

  4
mm
  5

  6

  7

 40
1.0
 41
0.1
 42
0.05
 43
0.5
 44
0.1
 45
0.0
 46
0.0
 47
0.1
 48
0.1
140
0.12
141
0.0
142
0.0
143
25.399999999999999
144
1.0
145
0.0
146
0.71
147
0.06
 71
     0
 72
     0
 73
     1
 74
     1
 75
     0
 76
     0
 77
     0
 78
     7
170
     0
171
     2
172
     0
173
     0
174
     0
175
     0
176
   256
177
   256
178
     2
  0
DIMSTYLE
  2
AM_ANSI$3
 70
     0
  3

  4
mm
  5

  6

  7

 40
1.0
 41
0.1
 42
0.05
 43
0.5
 44
0.1
 45
0.0
 46
0.0
 47
0.1
 48
0.1
140
0.12
141
0.0
142
0.0
143
25.399999999999999
144
1.0
145
0.0
146
0.71
147
0.06
 71
     0
 72
     0
 73
     1
 74
     1
 75
     0
 76
     0
 77
     0
 78
     7
170
     0
171
     2
172
     0
173
     0
174
     0
175
     0
176
   256
177
   256
178
     2
  0
DIMSTYLE
  2
AM_ANSI$4
 70
     0
  3

  4
mm
  5

  6

  7

 40
1.0
 41
0.1
 42
0.05
 43
0.5
 44
0.1
 45
0.0
 46
0.0
 47
0.1
 48
0.1
140
0.12
141
0.0
142
0.0
143
25.399999999999999
144
1.0
145
0.0
146
0.71
147
0.06
 71
     0
 72
     0
 73
     1
 74
     1
 75
     0
 76
     0
 77
     0
 78
     7
170
     0
171
     2
172
     0
173
     0
174
     0
175
     0
176
   256
177
   256
178
     2
  0
DIMSTYLE
  2
AM_ANSI$7
 70
     0
  3

  4
mm
  5

  6

  7

 40
1.0
 41
0.1
 42
0.05
 43
0.5
 44
0.1
 45
0.0
 46
0.0
 47
0.1
 48
0.1
140
0.24
141
0.0
142
0.0
143
25.399999999999999
144
1.0
145
0.0
146
0.71
147
0.06
 71
     0
 72
     0
 73
     1
 74
     1
 75
     0
 76
     0
 77
     0
 78
     7
170
     0
171
     2
172
     0
173
     0
174
     0
175
     0
176
   256
177
   256
178
     2
  0
DIMSTYLE
  2
AM_ANSI$SF
 70
     0
  3

  4
mm
  5

  6

  7

 40
1.0
 41
0.1
 42
0.05
 43
0.5
 44
0.1
 45
0.0
 46
0.0
 47
0.1
 48
0.1
140
0.12
141
0.0
142
0.0
143
25.399999999999999
144
1.0
145
0.0
146
0.71
147
0.06
 71
     0
 72
     0
 73
     1
 74
     1
 75
     1
 76
     1
 77
     0
 78
     7
170
     0
171
     2
172
     0
173
     0
174
     0
175
     0
176
   256
177
   256
178
     2
  0
DIMSTYLE
  2
AM_ANSI$SH
 70
     0
  3

  4
mm
  5

  6
GENAXEH
  7

 40
1.0
 41
0.1
 42
0.05
 43
0.5
 44
0.1
 45
0.0
 46
0.0
 47
0.1
 48
0.1
140
0.12
141
0.0
142
0.0
143
25.399999999999999
144
1.0
145
0.0
146
0.71
147
0.06
 71
     0
 72
     0
 73
     1
 74
     1
 75
     1
 76
     1
 77
     0
 78
     7
170
     0
171
     2
172
     0
173
     1
174
     0
175
     0
176
   256
177
   256
178
     2
  0
ENDTAB
  0
ENDSEC
  0
SECTION
  2
BLOCKS
  0
BLOCK
  8
0
  2
$MODEL_SPACE
 70
     0
 10
0.0
 20
0.0
 30
0.0
  3
$MODEL_SPACE
  1

  0
ENDBLK
  5
1B4D
  8
0
  0
BLOCK
 67
     1
  8
0
  2
$PAPER_SPACE
 70
     0
 10
0.0
 20
0.0
 30
0.0
  3
$PAPER_SPACE
  1

  0
ENDBLK
  5
1B49
 67
     1
  8
0
  0
BLOCK
  8
0
  2
_OPEN
 70
     0
 10
0.0
 20
0.0
 30
0.0
  3
_OPEN
  1

  0
LINE
  5
1A3E
  8
0
  6
BYBLOCK
 62
     0
 10
-1.0
 20
0.1666666666666666
 30
0.0
 11
0.0
 21
0.0
 31
0.0
  0
LINE
  5
1A3F
  8
0
  6
BYBLOCK
 62
     0
 10
-1.0
 20
-0.1666666666666666
 30
0.0
 11
0.0
 21
0.0
 31
0.0
  0
LINE
  5
1A40
  8
0
  6
BYBLOCK
 62
     0
 10
0.0
 20
0.0
 30
0.0
 11
-1.0
 21
0.0
 31
0.0
  0
ENDBLK
  5
1A41
  8
0
  0
BLOCK
  8
0
  2
GENAXEH
 70
     0
 10
0.0
 20
0.0
 30
0.0
  3
GENAXEH
  1

  0
LINE
  5
1A69
  8
0
 10
-1.0
 20
0.0
 30
0.0
 11
1.0
 21
0.0
 31
0.0
  0
ENDBLK
  5
1A6A
  8
0
  0
BLOCK
  8
0
  2
_OPEN30
 70
     0
 10
0.0
 20
0.0
 30
0.0
  3
_OPEN30
  1

  0
LINE
  5
1A8E
  8
0
  6
BYBLOCK
 62
     0
 10
-1.0
 20
0.26794919
 30
0.0
 11
0.0
 21
0.0
 31
0.0
  0
LINE
  5
1A8F
  8
0
  6
BYBLOCK
 62
     0
 10
0.0
 20
0.0
 30
0.0
 11
-1.0
 21
-0.26794919
 31
0.0
  0
LINE
  5
1A90
  8
0
  6
BYBLOCK
 62
     0
 10
0.0
 20
0.0
 30
0.0
 11
-1.0
 21
0.0
 31
0.0
  0
ENDBLK
  5
1A91
  8
0
  0
BLOCK
  8
0
  2
矢印なし
 70
     0
 10
0.0
 20
0.0
 30
0.0
  3
矢印なし
  1

  0
ENDBLK
  5
17D2
  8
0
  0
ENDSEC
  0
SECTION
  2
ENTITIES
  0
LINE
  5
167A
  8
245
  6
CENTER2
 10
78.553086593209699
 20
0.0
 30
0.0
 11
-67.040962790649786
 21
0.0
 31
0.0
1001
GRPNAME
1000
PASTMD32
  0
LINE
  5
167B
  8
240
 10
11.60014666881772
 20
31.50000000000114
 30
0.0
 11
2.0000000000001701
 21
31.50000000000114
 31
0.0
  0
LINE
  5
167C
  8
240
 10
11.60014666881772
 20
-31.500000000001251
 30
0.0
 11
2.0000000000001701
 21
-31.500000000001251
 31
0.0
  0
LINE
  5
167E
  8
240
 10
0.0000000000000005
 20
22.22506316112219
 30
0.0
 11
-64.030891028951146
 21
12.88722488418045
 31
0.0
  0
LINE
  5
167F
  8
240
 10
-0.0000000000000015
 20
-22.225063161122229
 30
0.0
 11
-64.030891028959985
 21
-12.887224884179091
 31
0.0
  0
LINE
  5
1681
  8
240
  6
CONTINUOUS
 10
-65.399999999999537
 20
11.303972114484511
 30
0.0
 11
-65.399999999999537
 21
-11.30397211448456
 31
0.0
  0
ARC
  5
1682
  8
240
  6
CONTINUOUS
 10
-63.799999999999557
 20
-11.303972114484511
 30
0.0
 40
1.6000000000000001
 50
180.0
 51
238.29712737140781
  0
LINE
  5
1683
  8
240
 10
-64.640822473659654
 20
-12.66522799336553
 30
0.0
 11
-64.03089102895413
 21
-12.88722488417994
 31
0.0
  0
ARC
  5
1685
  8
240
  6
CONTINUOUS
 10
-63.799999999999557
 20
11.303972114484511
 30
0.0
 40
1.6000000000000001
 50
121.7028726285922
 51
180.0
  0
LINE
  5
1686
  8
240
 10
-64.640822473659654
 20
12.66522799336547
 30
0.0
 11
-64.03089102895413
 21
12.887224884179879
 31
0.0
  0
LINE
  5
168E
  8
240
  6
CONTINUOUS
 10
1.000000000000385
 20
-22.225063161122229
 30
0.0
 11
1.0000000000001701
 21
-30.500000000001201
 31
0.0
  0
ARC
  5
168F
  8
240
  6
CONTINUOUS
 10
2.0000000000001701
 20
-30.500000000001251
 30
0.0
 40
1.0
 50
180.0
 51
270.0
  0
ARC
  5
169C
  8
240
 10
2.0000000000001701
 20
30.50000000000114
 30
0.0
 40
1.0
 50
90.0
 51
180.0
  0
LINE
  5
169D
  8
240
  6
CONTINUOUS
 10
1.000000000000383
 20
22.22506316112219
 30
0.0
 11
1.0000000000001701
 21
30.50000000000114
 31
0.0
  0
LINE
  5
16A1
  8
240
 10
18.713101985234559
 20
-26.49999999999989
 30
0.0
 11
21.599853331184178
 21
-31.500000000001421
 31
0.0
  0
LINE
  5
16A2
  8
240
 10
14.48689801476681
 20
-26.49999999999989
 30
0.0
 11
11.60014666881772
 21
-31.500000000001251
 31
0.0
  0
LINE
  5
16A4
  8
240
 10
21.599853331184178
 20
-31.500000000001421
 30
0.0
 11
27.149999999976501
 21
-31.500000000000291
 31
0.0
  0
LINE
  5
16A7
  8
240
 10
18.713101985234839
 20
26.50000000000011
 30
0.0
 11
21.599853331184161
 21
31.50000000000135
 31
0.0
  0
LINE
  5
16A8
  8
240
 10
14.486898014766661
 20
26.50000000000011
 30
0.0
 11
11.60014666881772
 21
31.50000000000114
 31
0.0
  0
LINE
  5
16AA
  8
240
 10
21.599853331184161
 20
31.50000000000135
 30
0.0
 11
27.149999999975009
 21
31.500000000000512
 31
0.0
  0
LINE
  5
16AC
  8
243
 10
23.000000000000341
 20
22.500000000000171
 30
0.0
 11
1.000000000000377
 21
22.50000000000005
 31
0.0
  0
LINE
  5
16AD
  8
243
 10
23.000000000000341
 20
31.50000000000108
 30
0.0
 11
23.000000000000401
 21
22.500000000000171
 31
0.0
  0
LINE
  5
16AE
  8
241
  6
HIDDEN2
 10
23.000000000000458
 20
-22.50000000000006
 30
0.0
 11
1.000000000000379
 21
-22.500000000000121
 31
0.0
  0
LINE
  5
16AF
  8
241
  6
HIDDEN2
 10
23.000000000000512
 20
-31.50000000000097
 30
0.0
 11
23.000000000000512
 21
-22.50000000000006
 31
0.0
  0
LINE
  5
16CA
  8
240
 10
14.48689801476681
 20
-26.49999999999989
 30
0.0
 11
18.713101985234559
 21
-26.49999999999989
 31
0.0
  0
LINE
  5
16CC
  8
241
 10
14.486898014766661
 20
26.50000000000011
 30
0.0
 11
14.486898014748579
 21
-26.499999999999879
 31
0.0
  0
LINE
  5
16CF
  8
240
 10
14.486898014766661
 20
26.50000000000011
 30
0.0
 11
18.713101985234839
 21
26.50000000000011
 31
0.0
  0
LINE
  5
16DB
  8
240
 10
58.451735110698891
 20
31.450000000021682
 30
0.0
 11
54.99999999999573
 21
31.450000000014491
 31
0.0
  0
LINE
  5
16DC
  8
240
 10
49.000000000011539
 20
31.450000000005321
 30
0.0
 11
46.000000000018808
 21
31.45000000000222
 31
0.0
  0
LINE
  5
16DD
  8
240
 10
58.451735110698891
 20
31.450000000021682
 30
0.0
 11
73.54999999999265
 21
22.733012701892111
 31
0.0
  0
ARC
  5
16DF
  8
240
 10
72.799999999992679
 20
21.433974596215421
 30
0.0
 40
1.5
 50
359.99999999999841
 51
60.000000000001691
1001
ASK_MEN_XD
1005
1760
1070
     1
1005
16DD
1070
     1
  0
LINE
  5
16E1
  8
241
 10
58.451735110700007
 20
-31.376866088025629
 30
0.0
 11
58.451735110699957
 21
31.376866088025629
 31
0.0
  0
LINE
  5
16FD
  8
241
 10
46.00000000001954
 20
-31.45000000000255
 30
0.0
 11
46.000000000019718
 21
31.450000000003001
 31
0.0
  0
LINE
  5
16FE
  8
241
 10
27.149999999976501
 20
-31.500000000000291
 30
0.0
 11
27.149999999976441
 21
31.500000000001421
 31
0.0
  0
LINE
  5
16FF
  8
240
 10
45.599999999995568
 20
31.049999999978638
 30
0.0
 11
27.60000000000203
 21
31.049999999978638
 31
0.0
  0
LINE
  5
1700
  8
240
 10
46.000000000018808
 20
31.45000000000222
 30
0.0
 11
45.599999999995568
 21
31.049999999978638
 31
0.0
  0
LINE
  5
1703
  8
240
 10
27.60000000000203
 20
31.049999999978638
 30
0.0
 11
27.149999999975009
 21
31.500000000000512
 31
0.0
  0
LINE
  5
1743
  8
240
 10
74.299999999992536
 20
15.500000000008271
 30
0.0
 11
74.999999999992511
 21
14.79999999998183
 31
0.0
  0
LINE
  5
1745
  8
240
  6
CONTINUOUS
 10
74.999999999992511
 20
14.79999999998183
 30
0.0
 11
74.999999999992269
 21
0.0
 31
0.0
  0
LINE
  5
1749
  8
243
 10
-12.99630727279089
 20
12.000000000000879
 30
0.0
 11
74.999999999992511
 21
11.999999999999989
 31
0.0
  0
LINE
  5
175D
  8
240
 10
74.299999999991854
 20
-15.500000000008811
 30
0.0
 11
74.999999999992269
 21
-14.79999999998194
 31
0.0
  0
LINE
  5
175F
  8
240
  6
CONTINUOUS
 10
74.999999999992269
 20
-14.79999999998194
 30
0.0
 11
74.999999999992269
 21
-0.0000000000001705
 31
0.0
  0
LINE
  5
1760
  8
240
 10
74.29999999999265
 20
21.433974596215371
 30
0.0
 11
74.299999999992536
 21
15.500000000008271
 31
0.0
  0
LINE
  5
1761
  8
240
 10
58.451735110699509
 20
-31.450000000021781
 30
0.0
 11
54.99999999999428
 21
-31.450000000014711
 31
0.0
  0
LINE
  5
1762
  8
240
 10
49.000000000009479
 20
-31.45000000000563
 30
0.0
 11
46.000000000019369
 21
-31.45000000000255
 31
0.0
  0
LINE
  5
1763
  8
240
 10
58.451735110699509
 20
-31.450000000021781
 30
0.0
 11
73.549999999993062
 21
-22.733012701891941
 31
0.0
  0
ARC
  5
1765
  8
240
 10
72.799999999993062
 20
-21.433974596215251
 30
0.0
 40
1.5
 50
299.99999999999972
 51
0.0
1001
ASK_MEN_XD
1005
1760
1070
     1
1005
16DD
1070
     1
  0
LINE
  5
176A
  8
240
 10
74.299999999992906
 20
-21.433974596215251
 30
0.0
 11
74.29999999999265
 21
-15.500000000007979
 31
0.0
  0
LINE
  5
176C
  8
240
 10
49.400000000001427
 20
31.050000000015871
 30
0.0
 11
54.599999999997053
 21
31.050000000015871
 31
0.0
  0
LINE
  5
176D
  8
240
 10
49.400000000001427
 20
31.050000000015871
 30
0.0
 11
49.000000000000448
 21
31.450000000016431
 31
0.0
  0
LINE
  5
176F
  8
240
 10
54.599999999997053
 20
31.050000000015871
 30
0.0
 11
54.999999999997613
 21
31.450000000016431
 31
0.0
  0
LINE
  5
1771
  8
240
 10
49.399999999999942
 20
-31.050000000015679
 30
0.0
 11
54.599999999995561
 21
-31.050000000015888
 31
0.0
  0
LINE
  5
1772
  8
240
 10
49.399999999999942
 20
-31.050000000015679
 30
0.0
 11
48.999999999998892
 21
-31.4500000000162
 31
0.0
  0
LINE
  5
1774
  8
240
 10
54.599999999995561
 20
-31.050000000015888
 30
0.0
 11
54.999999999996042
 21
-31.45000000001648
 31
0.0
  0
LINE
  5
1776
  8
241
 10
48.999999999998892
 20
-31.4500000000162
 30
0.0
 11
48.999999999998991
 21
31.45000000001653
 31
0.0
  0
LINE
  5
1777
  8
241
 10
54.999999999996042
 20
-31.45000000001648
 30
0.0
 11
54.999999999996163
 21
31.450000000016601
 31
0.0
  0
LINE
  5
1783
  8
241
 10
74.29999999999265
 20
-15.500000000007979
 30
0.0
 11
74.29999999999265
 21
15.5000000000074
 31
0.0
  0
LINE
  5
17AB
  8
240
 10
-0.0000000000000014
 20
-22.225063161122229
 30
0.0
 11
1.000000000000385
 21
-22.225063161122229
 31
0.0
  0
LINE
  5
17AD
  8
240
 10
0.0000000000000014
 20
22.22506316112219
 30
0.0
 11
1.000000000000383
 21
22.22506316112219
 31
0.0
  0
LINE
  5
17AF
  8
241
 10
1.000000000000383
 20
22.225000000000009
 30
0.0
 11
1.000000000000385
 21
-22.225049106229619
 31
0.0
  0
LINE
  5
17B1
  8
241
 10
11.60014666881886
 20
31.500000000002949
 30
0.0
 11
11.60014666881658
 21
-31.500000000001261
 31
0.0
  0
LINE
  5
17B3
  8
241
 10
18.713101985212681
 20
-26.49999999999989
 30
0.0
 11
18.713101985234839
 21
26.500000000000071
 31
0.0
  0
LINE
  5
17B4
  8
241
 10
21.599853331185312
 20
31.50000000000276
 30
0.0
 11
21.59985333118302
 21
-31.500000000001421
 31
0.0
  0
TEXT
  5
17E3
  8
251
 10
24.79782402041943
 20
50.105066287928572
 30
0.0
 40
3.0
  1
クランプスクリュ
  7
YOKO
 11
24.79782402041943
 21
50.105066287928572
 31
0.0
 73
     1
  0
TEXT
  5
17F1
  8
241
 10
-69.367683498033102
 20
70.127155225435899
 30
0.0
 40
5.0
  1
BBT40-HDC24-75
  7
YOKO
 11
-69.367683498033102
 21
70.127155225435899
 31
0.0
 73
     1
  0
LINE
  5
17F4
  8
250
 10
-32.458661840808091
 20
-28.409457620000001
 30
0.0
 11
-50.191995180808071
 21
-28.409457620000001
 31
0.0
1001
ITEMNAME
1000
LNSP2
  0
LINE
  5
18E1
  8
245
  6
CENTER2
 10
16.59973525919191
 20
-31.5
 30
0.0
 11
16.59973525919191
 21
31.5
 31
0.0
  0
LINE
  5
18F5
  8
240
 10
45.599999999995383
 20
-31.049999999978809
 30
0.0
 11
27.600000000001842
 21
-31.049999999978709
 31
0.0
  0
LINE
  5
18F6
  8
240
 10
46.00000000001863
 20
-31.45000000000238
 30
0.0
 11
45.599999999995383
 21
-31.049999999978809
 31
0.0
  0
LINE
  5
18F7
  8
240
 10
27.600000000001842
 20
-31.049999999978709
 30
0.0
 11
27.149999999974838
 21
-31.500000000000568
 31
0.0
  0
INSERT
  5
1951
  8
245
  2
矢印なし
 10
-53.951500460622142
 20
208.14659349775519
 30
0.0
 50
90.0
  0
LINE
  5
1952
  8
241
  6
CONTINUOUS
 10
36.599735259377461
 20
34.752766527754972
 30
0.0
 11
36.599735259377468
 21
48.43411559164781
 31
0.0
  0
INSERT
  5
1953
  8
241
  6
CONTINUOUS
  2
_OPEN
 10
36.599735259377461
 20
32.522766527754968
 30
0.0
 41
6.6900000000000004
 42
6.6900000000000004
 43
6.6900000000000004
 50
269.99999999999989
  0
POLYLINE
  5
1954
  8
251
 66
     1
 10
0.0
 20
0.0
 30
0.0
 70
     8
  0
VERTEX
  5
1AA8
  8
251
 10
34.599699999999999
 20
47.279899999999998
 30
0.0
 70
    32
  0
VERTEX
  5
1AA9
  8
251
 10
34.302900000000001
 20
47.231999999999999
 30
0.0
 70
    32
  0
VERTEX
  5
1AAA
  8
251
 10
34.010599999999997
 20
47.177599999999998
 30
0.0
 70
    32
  0
VERTEX
  5
1AAB
  8
251
 10
33.723500000000001
 20
47.116700000000002
 30
0.0
 70
    32
  0
VERTEX
  5
1AAC
  8
251
 10
33.442100000000003
 20
47.049500000000002
 30
0.0
 70
    32
  0
VERTEX
  5
1AAD
  8
251
 10
33.166899999999998
 20
46.975999999999999
 30
0.0
 70
    32
  0
VERTEX
  5
1AAE
  8
251
 10
32.898600000000002
 20
46.896599999999992
 30
0.0
 70
    32
  0
VERTEX
  5
1AAF
  8
251
 10
32.637599999999999
 20
46.811199999999992
 30
0.0
 70
    32
  0
VERTEX
  5
1AB0
  8
251
 10
32.384500000000003
 20
46.720100000000002
 30
0.0
 70
    32
  0
VERTEX
  5
1AB1
  8
251
 10
32.139699999999998
 20
46.62339999999999
 30
0.0
 70
    32
  0
VERTEX
  5
1AB2
  8
251
 10
31.9038
 20
46.5214
 30
0.0
 70
    32
  0
VERTEX
  5
1AB3
  8
251
 10
31.677199999999999
 20
46.414200000000001
 30
0.0
 70
    32
  0
VERTEX
  5
1AB4
  8
251
 10
31.4604
 20
46.302100000000003
 30
0.0
 70
    32
  0
VERTEX
  5
1AB5
  8
251
 10
31.253799999999998
 20
46.185299999999991
 30
0.0
 70
    32
  0
VERTEX
  5
1AB6
  8
251
 10
31.0578
 20
46.063999999999993
 30
0.0
 70
    32
  0
VERTEX
  5
1AB7
  8
251
 10
30.872800000000002
 20
45.938400000000001
 30
0.0
 70
    32
  0
VERTEX
  5
1AB8
  8
251
 10
30.699200000000001
 20
45.808900000000001
 30
0.0
 70
    32
  0
VERTEX
  5
1AB9
  8
251
 10
30.537299999999998
 20
45.675600000000003
 30
0.0
 70
    32
  0
VERTEX
  5
1ABA
  8
251
 10
30.3874
 20
45.538800000000002
 30
0.0
 70
    32
  0
VERTEX
  5
1ABB
  8
251
 10
30.2499
 20
45.39889999999999
 30
0.0
 70
    32
  0
VERTEX
  5
1ABC
  8
251
 10
30.125
 20
45.255999999999993
 30
0.0
 70
    32
  0
VERTEX
  5
1ABD
  8
251
 10
30.012899999999998
 20
45.110399999999998
 30
0.0
 70
    32
  0
VERTEX
  5
1ABE
  8
251
 10
29.913900000000002
 20
44.962600000000002
 30
0.0
 70
    32
  0
VERTEX
  5
1ABF
  8
251
 10
29.828199999999999
 20
44.812600000000003
 30
0.0
 70
    32
  0
VERTEX
  5
1AC0
  8
251
 10
29.7559
 20
44.660899999999998
 30
0.0
 70
    32
  0
VERTEX
  5
1AC1
  8
251
 10
29.697199999999999
 20
44.507800000000003
 30
0.0
 70
    32
  0
VERTEX
  5
1AC2
  8
251
 10
29.652200000000001
 20
44.353400000000001
 30
0.0
 70
    32
  0
VERTEX
  5
1AC3
  8
251
 10
29.620999999999999
 20
44.198300000000003
 30
0.0
 70
    32
  0
VERTEX
  5
1AC4
  8
251
 10
29.6036
 20
44.042599999999993
 30
0.0
 70
    32
  0
VERTEX
  5
1AC5
  8
251
 10
29.600200000000001
 20
43.886600000000001
 30
0.0
 70
    32
  0
VERTEX
  5
1AC6
  8
251
 10
29.610600000000002
 20
43.730800000000002
 30
0.0
 70
    32
  0
VERTEX
  5
1AC7
  8
251
 10
29.634899999999998
 20
43.575299999999991
 30
0.0
 70
    32
  0
VERTEX
  5
1AC8
  8
251
 10
29.673100000000002
 20
43.42049999999999
 30
0.0
 70
    32
  0
VERTEX
  5
1AC9
  8
251
 10
29.725000000000001
 20
43.2667
 30
0.0
 70
    32
  0
VERTEX
  5
1ACA
  8
251
 10
29.790500000000002
 20
43.1143
 30
0.0
 70
    32
  0
VERTEX
  5
1ACB
  8
251
 10
29.869599999999998
 20
42.963399999999993
 30
0.0
 70
    32
  0
VERTEX
  5
1ACC
  8
251
 10
29.962
 20
42.814500000000002
 30
0.0
 70
    32
  0
VERTEX
  5
1ACD
  8
251
 10
30.067599999999999
 20
42.667700000000004
 30
0.0
 70
    32
  0
VERTEX
  5
1ACE
  8
251
 10
30.1861
 20
42.523499999999991
 30
0.0
 70
    32
  0
VERTEX
  5
1ACF
  8
251
 10
30.317399999999999
 20
42.382100000000001
 30
0.0
 70
    32
  0
VERTEX
  5
1AD0
  8
251
 10
30.461200000000002
 20
42.24369999999999
 30
0.0
 70
    32
  0
VERTEX
  5
1AD1
  8
251
 10
30.6172
 20
42.108600000000003
 30
0.0
 70
    32
  0
VERTEX
  5
1AD2
  8
251
 10
30.785
 20
41.977200000000003
 30
0.0
 70
    32
  0
VERTEX
  5
1AD3
  8
251
 10
30.964400000000001
 20
41.849600000000002
 30
0.0
 70
    32
  0
VERTEX
  5
1AD4
  8
251
 10
31.154900000000001
 20
41.726100000000002
 30
0.0
 70
    32
  0
VERTEX
  5
1AD5
  8
251
 10
31.356300000000001
 20
41.606999999999999
 30
0.0
 70
    32
  0
VERTEX
  5
1AD6
  8
251
 10
31.568100000000001
 20
41.492600000000003
 30
0.0
 70
    32
  0
VERTEX
  5
1AD7
  8
251
 10
31.789899999999999
 20
41.382899999999999
 30
0.0
 70
    32
  0
VERTEX
  5
1AD8
  8
251
 10
32.0212
 20
41.278300000000002
 30
0.0
 70
    32
  0
VERTEX
  5
1AD9
  8
251
 10
32.261600000000001
 20
41.179000000000002
 30
0.0
 70
    32
  0
VERTEX
  5
1ADA
  8
251
 10
32.510599999999997
 20
41.08509999999999
 30
0.0
 70
    32
  0
VERTEX
  5
1ADB
  8
251
 10
32.767800000000001
 20
40.9968
 30
0.0
 70
    32
  0
VERTEX
  5
1ADC
  8
251
 10
33.032499999999999
 20
40.914400000000001
 30
0.0
 70
    32
  0
VERTEX
  5
1ADD
  8
251
 10
33.304400000000001
 20
40.837899999999991
 30
0.0
 70
    32
  0
VERTEX
  5
1ADE
  8
251
 10
33.582700000000003
 20
40.767600000000002
 30
0.0
 70
    32
  0
VERTEX
  5
1ADF
  8
251
 10
33.867100000000001
 20
40.703499999999998
 30
0.0
 70
    32
  0
VERTEX
  5
1AE0
  8
251
 10
34.1569
 20
40.64589999999999
 30
0.0
 70
    32
  0
VERTEX
  5
1AE1
  8
251
 10
34.451500000000003
 20
40.594700000000003
 30
0.0
 70
    32
  0
VERTEX
  5
1AE2
  8
251
 10
34.750399999999999
 20
40.55019999999999
 30
0.0
 70
    32
  0
VERTEX
  5
1AE3
  8
251
 10
35.052999999999997
 20
40.512300000000003
 30
0.0
 70
    32
  0
VERTEX
  5
1AE4
  8
251
 10
35.358699999999999
 20
40.48129999999999
 30
0.0
 70
    32
  0
VERTEX
  5
1AE5
  8
251
 10
35.666800000000002
 20
40.457000000000001
 30
0.0
 70
    32
  0
VERTEX
  5
1AE6
  8
251
 10
35.976700000000001
 20
40.439700000000002
 30
0.0
 70
    32
  0
VERTEX
  5
1AE7
  8
251
 10
36.2879
 20
40.429299999999998
 30
0.0
 70
    32
  0
VERTEX
  5
1AE8
  8
251
 10
36.599699999999999
 20
40.425800000000002
 30
0.0
 70
    32
  0
VERTEX
  5
1AE9
  8
251
 10
36.9116
 20
40.429299999999998
 30
0.0
 70
    32
  0
VERTEX
  5
1AEA
  8
251
 10
37.222700000000003
 20
40.439700000000002
 30
0.0
 70
    32
  0
VERTEX
  5
1AEB
  8
251
 10
37.532699999999998
 20
40.457000000000001
 30
0.0
 70
    32
  0
VERTEX
  5
1AEC
  8
251
 10
37.840800000000002
 20
40.48129999999999
 30
0.0
 70
    32
  0
VERTEX
  5
1AED
  8
251
 10
38.146500000000003
 20
40.512300000000003
 30
0.0
 70
    32
  0
VERTEX
  5
1AEE
  8
251
 10
38.448999999999998
 20
40.55019999999999
 30
0.0
 70
    32
  0
VERTEX
  5
1AEF
  8
251
 10
38.747900000000001
 20
40.594700000000003
 30
0.0
 70
    32
  0
VERTEX
  5
1AF0
  8
251
 10
39.0426
 20
40.64589999999999
 30
0.0
 70
    32
  0
VERTEX
  5
1AF1
  8
251
 10
39.3324
 20
40.703499999999998
 30
0.0
 70
    32
  0
VERTEX
  5
1AF2
  8
251
 10
39.616700000000002
 20
40.767600000000002
 30
0.0
 70
    32
  0
VERTEX
  5
1AF3
  8
251
 10
39.895099999999999
 20
40.837899999999991
 30
0.0
 70
    32
  0
VERTEX
  5
1AF4
  8
251
 10
40.166899999999991
 20
40.914400000000001
 30
0.0
 70
    32
  0
VERTEX
  5
1AF5
  8
251
 10
40.431699999999992
 20
40.9968
 30
0.0
 70
    32
  0
VERTEX
  5
1AF6
  8
251
 10
40.688800000000001
 20
41.08509999999999
 30
0.0
 70
    32
  0
VERTEX
  5
1AF7
  8
251
 10
40.937899999999999
 20
41.179000000000002
 30
0.0
 70
    32
  0
VERTEX
  5
1AF8
  8
251
 10
41.1783
 20
41.278300000000002
 30
0.0
 70
    32
  0
VERTEX
  5
1AF9
  8
251
 10
41.40959999999999
 20
41.382899999999999
 30
0.0
 70
    32
  0
VERTEX
  5
1AFA
  8
251
 10
41.631399999999999
 20
41.492600000000003
 30
0.0
 70
    32
  0
VERTEX
  5
1AFB
  8
251
 10
41.843099999999993
 20
41.606999999999999
 30
0.0
 70
    32
  0
VERTEX
  5
1AFC
  8
251
 10
42.044499999999999
 20
41.726100000000002
 30
0.0
 70
    32
  0
VERTEX
  5
1AFD
  8
251
 10
42.235100000000003
 20
41.849600000000002
 30
0.0
 70
    32
  0
VERTEX
  5
1AFE
  8
251
 10
42.41449999999999
 20
41.977200000000003
 30
0.0
 70
    32
  0
VERTEX
  5
1AFF
  8
251
 10
42.582299999999996
 20
42.108600000000003
 30
0.0
 70
    32
  0
VERTEX
  5
1B00
  8
251
 10
42.738300000000002
 20
42.24369999999999
 30
0.0
 70
    32
  0
VERTEX
  5
1B01
  8
251
 10
42.881999999999991
 20
42.382100000000001
 30
0.0
 70
    32
  0
VERTEX
  5
1B02
  8
251
 10
43.013300000000001
 20
42.523499999999991
 30
0.0
 70
    32
  0
VERTEX
  5
1B03
  8
251
 10
43.131900000000002
 20
42.667700000000004
 30
0.0
 70
    32
  0
VERTEX
  5
1B04
  8
251
 10
43.23749999999999
 20
42.814500000000002
 30
0.0
 70
    32
  0
VERTEX
  5
1B05
  8
251
 10
43.329900000000002
 20
42.963399999999993
 30
0.0
 70
    32
  0
VERTEX
  5
1B06
  8
251
 10
43.408999999999999
 20
43.1143
 30
0.0
 70
    32
  0
VERTEX
  5
1B07
  8
251
 10
43.474499999999999
 20
43.2667
 30
0.0
 70
    32
  0
VERTEX
  5
1B08
  8
251
 10
43.526400000000002
 20
43.42049999999999
 30
0.0
 70
    32
  0
VERTEX
  5
1B09
  8
251
 10
43.564500000000002
 20
43.575299999999991
 30
0.0
 70
    32
  0
VERTEX
  5
1B0A
  8
251
 10
43.588900000000002
 20
43.730800000000002
 30
0.0
 70
    32
  0
VERTEX
  5
1B0B
  8
251
 10
43.599299999999999
 20
43.886600000000001
 30
0.0
 70
    32
  0
VERTEX
  5
1B0C
  8
251
 10
43.595799999999997
 20
44.042599999999993
 30
0.0
 70
    32
  0
VERTEX
  5
1B0D
  8
251
 10
43.578499999999998
 20
44.198300000000003
 30
0.0
 70
    32
  0
VERTEX
  5
1B0E
  8
251
 10
43.547299999999993
 20
44.353400000000001
 30
0.0
 70
    32
  0
VERTEX
  5
1B0F
  8
251
 10
43.502299999999991
 20
44.507800000000003
 30
0.0
 70
    32
  0
VERTEX
  5
1B10
  8
251
 10
43.443600000000004
 20
44.660899999999998
 30
0.0
 70
    32
  0
VERTEX
  5
1B11
  8
251
 10
43.371299999999998
 20
44.812600000000003
 30
0.0
 70
    32
  0
VERTEX
  5
1B12
  8
251
 10
43.285600000000002
 20
44.962600000000002
 30
0.0
 70
    32
  0
VERTEX
  5
1B13
  8
251
 10
43.186599999999999
 20
45.110399999999998
 30
0.0
 70
    32
  0
VERTEX
  5
1B14
  8
251
 10
43.0745
 20
45.255999999999993
 30
0.0
 70
    32
  0
VERTEX
  5
1B15
  8
251
 10
42.94959999999999
 20
45.39889999999999
 30
0.0
 70
    32
  0
VERTEX
  5
1B16
  8
251
 10
42.811999999999998
 20
45.538800000000002
 30
0.0
 70
    32
  0
VERTEX
  5
1B17
  8
251
 10
42.662199999999991
 20
45.675600000000003
 30
0.0
 70
    32
  0
VERTEX
  5
1B18
  8
251
 10
42.500300000000003
 20
45.808900000000001
 30
0.0
 70
    32
  0
VERTEX
  5
1B19
  8
251
 10
42.326599999999999
 20
45.938400000000001
 30
0.0
 70
    32
  0
VERTEX
  5
1B1A
  8
251
 10
42.1417
 20
46.063999999999993
 30
0.0
 70
    32
  0
VERTEX
  5
1B1B
  8
251
 10
41.945700000000002
 20
46.185299999999991
 30
0.0
 70
    32
  0
VERTEX
  5
1B1C
  8
251
 10
41.739100000000001
 20
46.302100000000003
 30
0.0
 70
    32
  0
VERTEX
  5
1B1D
  8
251
 10
41.522300000000001
 20
46.414200000000001
 30
0.0
 70
    32
  0
VERTEX
  5
1B1E
  8
251
 10
41.295699999999997
 20
46.5214
 30
0.0
 70
    32
  0
VERTEX
  5
1B1F
  8
251
 10
41.059800000000003
 20
46.62339999999999
 30
0.0
 70
    32
  0
VERTEX
  5
1B20
  8
251
 10
40.814999999999998
 20
46.720100000000002
 30
0.0
 70
    32
  0
VERTEX
  5
1B21
  8
251
 10
40.561899999999987
 20
46.811199999999992
 30
0.0
 70
    32
  0
VERTEX
  5
1B22
  8
251
 10
40.300899999999999
 20
46.896599999999992
 30
0.0
 70
    32
  0
VERTEX
  5
1B23
  8
251
 10
40.032600000000002
 20
46.975999999999999
 30
0.0
 70
    32
  0
VERTEX
  5
1B24
  8
251
 10
39.757399999999997
 20
47.049500000000002
 30
0.0
 70
    32
  0
VERTEX
  5
1B25
  8
251
 10
39.475999999999999
 20
47.116700000000002
 30
0.0
 70
    32
  0
VERTEX
  5
1B26
  8
251
 10
39.188800000000001
 20
47.177599999999998
 30
0.0
 70
    32
  0
VERTEX
  5
1B27
  8
251
 10
38.896599999999999
 20
47.231999999999999
 30
0.0
 70
    32
  0
VERTEX
  5
1B28
  8
251
 10
38.599699999999999
 20
47.279899999999998
 30
0.0
 70
    32
  0
SEQEND
  5
1B29
  8
251
  0
INSERT
  5
1955
  8
251
  6
CONTINUOUS
  2
_OPEN
 10
34.599735259377489
 20
47.27991420668144
 30
0.0
 41
2.229999999999996
 42
2.2299999999999951
 43
2.2299999999999991
 50
13.181439069999939
  0
LINE
  5
1968
  8
250
 10
74.999996212275363
 20
15.29999999996749
 30
0.0
 11
74.9996803166608
 21
57.000000000373007
 31
0.0
  0
LINE
  5
1969
  8
250
 10
-0.0004368925548692
 20
22.72499999998567
 30
0.0
 11
-0.0006965362649261
 21
56.999431839938062
 31
0.0
  0
LINE
  5
196A
  8
250
 10
72.769687892159183
 20
55.999983107182992
 30
0.0
 11
2.2293110391054869
 21
55.99944873318546
 31
0.0
  0
LINE
  5
196E
  8
250
 10
-29.000000000007461
 20
15.29999999998372
 30
0.0
 11
-29.000000000007461
 21
64.0
 31
0.0
  0
LINE
  5
196F
  8
250
 10
74.999999999992511
 20
15.29999999998183
 30
0.0
 11
74.999999999992511
 21
64.0
 31
0.0
  0
LINE
  5
1970
  8
250
 10
-26.770000000007471
 20
63.0
 30
0.0
 11
72.769999999992535
 21
63.0
 31
0.0
  0
LINE
  5
1976
  8
250
 10
75.499999999992511
 20
11.999999999999989
 30
0.0
 11
92.0
 21
11.99999999999998
 31
0.0
  0
LINE
  5
1977
  8
250
 10
91.0
 20
9.7699999999999871
 30
0.0
 11
91.0
 21
-4.6000000000000041
 31
0.0
  0
LINE
  5
197A
  8
250
 10
58.951735110698891
 20
31.450000000021682
 30
0.0
 11
99.0
 21
31.450000000021682
 31
0.0
  0
LINE
  5
197B
  8
250
 10
58.951735110699524
 20
-31.450000000021781
 30
0.0
 11
99.0
 21
-31.450000000021792
 31
0.0
  0
LINE
  5
197C
  8
250
 10
98.0
 20
29.220000000021681
 30
0.0
 11
98.0
 21
-29.220000000021791
 31
0.0
  0
TEXT
  5
1980
  8
250
 10
-47.925328514141427
 20
-27.409457620000001
 30
0.0
 40
2.799999999999998
  1
BBT40
  7
YOKO
1001
ITEMNAME
1000
LNSP3
  0
TEXT
  5
1983
  8
250
 10
34.832825223607777
 20
56.999695718997138
 30
0.0
 40
2.799999999999998
  1
75
 50
0.0004340404191872
  0
LINE
  5
1984
  8
250
 10
2.2293138546419402
 20
55.627782066529463
 30
0.0
 11
-0.0006889608305246
 21
55.999431839966753
 31
0.0
  0
LINE
  5
1985
  8
250
 10
2.229308223569034
 20
56.371115399841472
 30
0.0
 11
-0.0006889608305246
 21
55.999431839966753
 31
0.0
  0
LINE
  5
1986
  8
250
 10
-0.0006889608305246
 20
55.999431839966753
 30
0.0
 11
2.2293110391054869
 21
55.99944873318546
 31
0.0
  0
LINE
  5
1987
  8
250
 10
72.769685076622736
 20
56.371649773838968
 30
0.0
 11
74.999687892095181
 21
56.000000000401712
 31
0.0
  0
LINE
  5
1988
  8
250
 10
72.769690707695631
 20
55.628316440526973
 30
0.0
 11
74.999687892095181
 21
56.000000000401712
 31
0.0
  0
LINE
  5
1989
  8
250
 10
74.999687892095181
 20
56.000000000401712
 30
0.0
 11
72.769687892159183
 21
55.999983107182992
 31
0.0
  0
TEXT
  5
198A
  8
250
 10
12.0666666666592
 20
65.199999999999989
 30
0.0
 40
2.799999999999998
  1
(max.104)
  0
LINE
  5
198B
  8
250
 10
72.769999999992535
 20
63.37166666666667
 30
0.0
 11
74.999999999992511
 21
63.0
 31
0.0
  0
LINE
  5
198C
  8
250
 10
72.769999999992535
 20
62.62833333333333
 30
0.0
 11
74.999999999992511
 21
63.0
 31
0.0
  0
LINE
  5
198D
  8
250
 10
74.999999999992511
 20
63.0
 30
0.0
 11
72.769999999992535
 21
63.0
 31
0.0
  0
LINE
  5
198E
  8
250
 10
-26.770000000007471
 20
62.62833333333333
 30
0.0
 11
-29.000000000007461
 21
63.0
 31
0.0
  0
LINE
  5
198F
  8
250
 10
-26.770000000007471
 20
63.37166666666667
 30
0.0
 11
-29.000000000007461
 21
63.0
 31
0.0
  0
LINE
  5
1990
  8
250
 10
-29.000000000007461
 20
63.0
 30
0.0
 11
-26.770000000007471
 21
63.0
 31
0.0
  0
TEXT
  5
1991
  8
250
 10
90.0
 20
-3.866666666666656
 30
0.0
 40
2.799999999999998
  1
\U+220524
 50
90.0
  0
LINE
  5
1992
  8
250
 10
90.628333333333316
 20
9.7699999999999871
 30
0.0
 11
91.0
 21
11.999999999999989
 31
0.0
  0
LINE
  5
1993
  8
250
 10
91.371666666666684
 20
9.7699999999999871
 30
0.0
 11
91.0
 21
11.999999999999989
 31
0.0
  0
LINE
  5
1994
  8
250
 10
91.0
 20
11.999999999999989
 30
0.0
 11
91.0
 21
9.7699999999999871
 31
0.0
  0
TEXT
  5
1995
  8
250
 10
97.0
 20
-5.7333333333333707
 30
0.0
 40
2.799999999999998
  1
\U+220562.9
 50
90.0
  0
LINE
  5
1996
  8
250
 10
98.371666666666684
 20
-29.220000000021791
 30
0.0
 11
98.0
 21
-31.450000000021792
 31
0.0
  0
LINE
  5
1997
  8
250
 10
97.62833333333333
 20
-29.220000000021791
 30
0.0
 11
98.0
 21
-31.450000000021792
 31
0.0
  0
LINE
  5
1998
  8
250
 10
98.0
 20
-31.450000000021792
 30
0.0
 11
98.0
 21
-29.220000000021791
 31
0.0
  0
LINE
  5
1999
  8
250
 10
97.62833333333333
 20
29.220000000021681
 30
0.0
 11
98.0
 21
31.450000000021682
 31
0.0
  0
LINE
  5
199A
  8
250
 10
98.371666666666684
 20
29.220000000021681
 30
0.0
 11
98.0
 21
31.450000000021682
 31
0.0
  0
LINE
  5
199B
  8
250
 10
98.0
 20
31.450000000021682
 30
0.0
 11
98.0
 21
29.220000000021681
 31
0.0
  0
LINE
  5
199C
  8
250
 10
-27.75968555149575
 20
-20.270591950042281
 30
0.0
 11
-32.458661840808091
 21
-28.409457620000001
 31
0.0
1001
ACAD
1000
DSTYLE
1002
{
1070
     6
1000
OPEN
1070
   343
1005
594
1002
}
  0
LINE
  5
199D
  8
250
 10
-28.081558326502801
 20
-20.084758616594339
 30
0.0
 11
-26.644685550808092
 21
-18.339355300000001
 31
0.0
  0
LINE
  5
199E
  8
250
 10
-27.437812776488691
 20
-20.456425283490219
 30
0.0
 11
-26.644685550808092
 21
-18.339355300000001
 31
0.0
  0
LINE
  5
199F
  8
250
 10
-26.644685550808092
 20
-18.339355300000001
 30
0.0
 11
-27.75968555149575
 21
-20.270591950042281
 31
0.0
  0
LINE
  5
1CB1
  8
241
 10
-0.0000000000000014
 20
-22.225063161122229
 30
0.0
 11
0.0000000000000014
 21
22.22506316112219
 31
0.0
  0
VIEWPORT
  5
22
 67
     1
  8
0
 10
261.51769911504419
 20
148.5
 30
0.0
 40
523.0353982300885
 41
297.0
 68
     1
 69
     1
1001
ACAD
1000
MVIEW
1002
{
1070
    16
1010
0.0
1020
0.0
1030
0.0
1010
0.0
1020
0.0
1030
1.0
1040
0.0
1040
297.0
1040
261.51769911504419
1040
148.5
1040
50.0
1040
0.0
1040
0.0
1070
     0
1070
   100
1070
     1
1070
     1
1070
     0
1070
     0
1070
     0
1070
     0
1040
0.0
1040
0.0
1040
0.0
1040
1.0
1040
1.0
1040
10.0
1040
10.0
1070
     0
1002
{
1002
}
1002
}
1001
GENIUS_GENODEF_13
1002
{
1000
HIER
1070
     0
1002
}
1002
{
1000
MANEDIT
1070
     0
1002
}
1002
{
1000
NOSEL
1070
     0
1002
}
1002
{
1000
BEHIND
1070
     0
1002
}
1002
{
1000
OTHER
1070
     0
1002
}
1002
{
1000
REACTOR
1002
}
1001
GENIUS_GENOBJ-N-SDF_13
1002
{
1000
OWNER
1000
GEN
1002
}
1001
GENIUS_GENSCREG_15
1000
PF
1040
1.0
1000
DF
1040
1.0
1000
MIN
1011
0.0
1021
2.9456761056509105E+212
1031
0.0
1021
0.0
1031
0.0
1000
MAX
1011
523.0353982300885
1021
2.9456761056509105E+212
1031
0.0
1021
297.0
1031
0.0
1000
FLAGS
1070
     2
  0
ENDSEC
  0
EOF
