  0
SECTION
  2
HEADER
  9
$ACADVER
  1
AC1009
  9
$INSBASE
 10
0.0
 20
0.0
 30
0.0
  9
$EXTMIN
 10
-68.87860663265667
 20
-31.72185851177057
 30
-0.0000000349181948
  9
$EXTMAX
 10
92.014637776150167
 20
75.127331989921913
 30
0.0000000814935747
  9
$LIMMIN
 10
0.0
 20
0.0
  9
$LIMMAX
 10
297.0
 20
210.0
  9
$ORTHOMODE
 70
     1
  9
$REGENMODE
 70
     1
  9
$FILLMODE
 70
     1
  9
$QTEXTMODE
 70
     0
  9
$MIRRTEXT
 70
     1
  9
$DRAGMODE
 70
     2
  9
$LTSCALE
 40
10.0
  9
$OSMODE
 70
    39
  9
$ATTMODE
 70
     1
  9
$TEXTSIZE
 40
3.0
  9
$TRACEWID
 40
1.0
  9
$TEXTSTYLE
  7
YOKO
  9
$CLAYER
  8
240
  9
$CELTYPE
  6
BYLAYER
  9
$CECOLOR
 62
   256
  9
$DIMSCALE
 40
1.0
  9
$DIMASZ
 40
2.2299999999999991
  9
$DIMEXO
 40
0.5
  9
$DIMDLI
 40
7.0
  9
$DIMRND
 40
0.0
  9
$DIMDLE
 40
0.0
  9
$DIMEXE
 40
1.0
  9
$DIMTP
 40
0.0
  9
$DIMTM
 40
0.01
  9
$DIMTXT
 40
2.799999999999998
  9
$DIMCEN
 40
0.0
  9
$DIMTSZ
 40
0.0
  9
$DIMTOL
 70
     0
  9
$DIMLIM
 70
     0
  9
$DIMTIH
 70
     0
  9
$DIMTOH
 70
     0
  9
$DIMSE1
 70
     0
  9
$DIMSE2
 70
     0
  9
$DIMTAD
 70
     3
  9
$DIMZIN
 70
     9
  9
$DIMBLK
  1
OPEN
  9
$DIMASO
 70
     1
  9
$DIMSHO
 70
     1
  9
$DIMPOST
  1

  9
$DIMAPOST
  1

  9
$DIMALT
 70
     0
  9
$DIMALTD
 70
     2
  9
$DIMALTF
 40
25.399999999999999
  9
$DIMLFAC
 40
1.0
  9
$DIMTOFL
 70
     1
  9
$DIMTVP
 40
0.0
  9
$DIMTIX
 70
     1
  9
$DIMSOXD
 70
     0
  9
$DIMSAH
 70
     0
  9
$DIMBLK1
  1

  9
$DIMBLK2
  1

  9
$DIMSTYLE
  2
BIGT
  9
$DIMCLRD
 70
   256
  9
$DIMCLRE
 70
   256
  9
$DIMCLRT
 70
    40
  9
$DIMTFAC
 40
1.0
  9
$DIMGAP
 40
1.0
  9
$LUNITS
 70
     2
  9
$LUPREC
 70
     3
  9
$SKETCHINC
 40
1.0
  9
$FILLETRAD
 40
0.0
  9
$AUNITS
 70
     0
  9
$AUPREC
 70
     3
  9
$MENU
  1
.
  9
$ELEVATION
 40
0.0
  9
$PELEVATION
 40
0.0
  9
$THICKNESS
 40
0.0
  9
$LIMCHECK
 70
     0
  9
$BLIPMODE
 70
     0
  9
$CHAMFERA
 40
0.25
  9
$CHAMFERB
 40
0.25
  9
$SKPOLY
 70
     0
  9
$TDCREATE
 40
2456211.6393453008
  9
$TDUPDATE
 40
2456577.6748762042
  9
$TDINDWG
 40
0.0179501968
  9
$TDUSRTIMER
 40
0.0179501968
  9
$USRTIMER
 70
     1
  9
$ANGBASE
 50
0.0
  9
$ANGDIR
 70
     0
  9
$PDMODE
 70
     1
  9
$PDSIZE
 40
0.0
  9
$PLINEWID
 40
0.0
  9
$COORDS
 70
     2
  9
$SPLFRAME
 70
     0
  9
$SPLINETYPE
 70
     6
  9
$SPLINESEGS
 70
     4
  9
$ATTDIA
 70
     1
  9
$ATTREQ
 70
     1
  9
$HANDLING
 70
     1
  9
$HANDSEED
  5
1E69
  9
$SURFTAB1
 70
     6
  9
$SURFTAB2
 70
     6
  9
$SURFTYPE
 70
     6
  9
$SURFU
 70
     6
  9
$SURFV
 70
     6
  9
$UCSNAME
  2

  9
$UCSORG
 10
0.0
 20
0.0
 30
0.0
  9
$UCSXDIR
 10
1.0
 20
0.0
 30
0.0
  9
$UCSYDIR
 10
0.0
 20
1.0
 30
0.0
  9
$PUCSNAME
  2

  9
$PUCSORG
 10
0.0
 20
0.0
 30
0.0
  9
$PUCSXDIR
 10
1.0
 20
0.0
 30
0.0
  9
$PUCSYDIR
 10
0.0
 20
1.0
 30
0.0
  9
$USERI1
 70
     1
  9
$USERI2
 70
     0
  9
$USERI3
 70
     0
  9
$USERI4
 70
     0
  9
$USERI5
 70
     0
  9
$USERR1
 40
0.0
  9
$USERR2
 40
0.0
  9
$USERR3
 40
0.0
  9
$USERR4
 40
0.0
  9
$USERR5
 40
0.0
  9
$WORLDVIEW
 70
     1
  9
$SHADEDGE
 70
     3
  9
$SHADEDIF
 70
    70
  9
$TILEMODE
 70
     1
  9
$MAXACTVP
 70
    16
  9
$PLIMCHECK
 70
     0
  9
$PEXTMIN
 10
1.0000000000000000E+020
 20
1.0000000000000000E+020
 30
1.0000000000000000E+020
  9
$PEXTMAX
 10
-1.0000000000000000E+020
 20
-1.0000000000000000E+020
 30
-1.0000000000000000E+020
  9
$PLIMMIN
 10
0.0
 20
0.0
  9
$PLIMMAX
 10
420.0
 20
297.0
  9
$UNITMODE
 70
     0
  9
$VISRETAIN
 70
     1
  9
$PLINEGEN
 70
     0
  9
$PSLTSCALE
 70
     1
  0
ENDSEC
  0
SECTION
  2
TABLES
  0
TABLE
  2
VPORT
 70
   156
  0
VPORT
  2
*ACTIVE
 70
     0
 10
0.0
 20
0.0
 11
1.0
 21
1.0
 12
11.56801557174674
 22
21.702736739075672
 13
0.0
 23
0.0
 14
7.0
 24
7.0
 15
7.0
 25
7.0
 16
0.0
 26
0.0
 36
1.0
 17
0.0
 27
0.0
 37
0.0
 40
109.1311696144767
 41
1.480984340044742
 42
50.0
 43
0.0
 44
0.0
 50
0.0
 51
0.0
 71
     0
 72
  2000
 73
     1
 74
     0
 75
     0
 76
     1
 77
     0
 78
     0
  0
ENDTAB
  0
TABLE
  2
LTYPE
 70
    21
  0
LTYPE
  2
CONTINUOUS
 70
     0
  3
Solid line
 72
    65
 73
     0
 40
0.0
  0
LTYPE
  2
CENTER2
 70
     0
  3
___ _ ___ _ ___ _ ___ _ ___ _ ___ _ ___ _ ___ _
 72
    65
 73
     4
 40
1.125
 49
0.75
 49
-0.125
 49
0.125
 49
-0.125
  0
LTYPE
  2
HIDDEN2
 70
     0
  3
_ _ _ _ _ _ _ _ _ _ _ _ _ _ _ _ _ _ _ _ _ _ _ _
 72
    65
 73
     2
 40
0.1875
 49
0.125
 49
-0.0625
  0
LTYPE
  2
PHANTOM2
 70
     0
  3
___ _ _ ___ _ _ ___ _ _ ___ _ _ ___ _ _ ___ _ _
 72
    65
 73
     6
 40
1.25
 49
0.625
 49
-0.125
 49
0.125
 49
-0.125
 49
0.125
 49
-0.125
  0
LTYPE
  2
CENTER
 70
     0
  3
____ _ ____ _ ____ _ ____ _ ____ _ ____ _ ____ 
 72
    65
 73
     4
 40
2.0
 49
1.25
 49
-0.25
 49
0.25
 49
-0.25
  0
LTYPE
  2
AM_ISO02W050
 70
     0
  3
__ __ __ __ __ __ __ __ __ __ __ __ __ __ __
 72
    65
 73
     2
 40
7.5
 49
6.0
 49
-1.5
  0
LTYPE
  2
AMCONSTR
 70
     0
  3
_______________________
 72
    65
 73
     2
 40
9999.0
 49
9999.0
 49
0.0
  0
LTYPE
  2
ACISOWELD
 70
     0
  3
_ _ _ _ _
 72
    65
 73
     2
 40
2.0
 49
2.0
 49
-1.0
  0
LTYPE
  2
ACISOTGB
 70
     0
  3
__ . . __ . .
 72
    65
 73
     6
 40
9.0
 49
4.0
 49
-1.0
 49
1.0
 49
-1.0
 49
1.0
 49
-1.0
  0
LTYPE
  2
ACISOTGL
 70
     0
  3
_ _ _ _ _
 72
    65
 73
     2
 40
3.0
 49
2.0
 49
-1.0
  0
LTYPE
  2
ACJISTGB
 70
     0
  3
__ . . __ . .
 72
    65
 73
     6
 40
9.0
 49
4.0
 49
-1.0
 49
1.0
 49
-1.0
 49
1.0
 49
-1.0
  0
LTYPE
  2
ACJISTGL
 70
     0
  3
_ _ _ _ _
 72
    65
 73
     2
 40
3.0
 49
2.0
 49
-1.0
  0
LTYPE
  2
HIDDEN
 70
     0
  3
Hidden __ __ __ __ __ __ __ __ __ __ __ __ __ _
 72
    65
 73
     2
 40
9.5249999999999986
 49
6.349999999999997
 49
-3.174999999999998
  0
LTYPE
  2
AM_ISO08W050
 70
     0
  3
____ . ____ . ____ . ____ . ____ . ____ . ____
 72
    65
 73
     4
 40
18.0
 49
12.0
 49
-1.5
 49
3.0
 49
-1.5
  0
LTYPE
  2
AM_ISO09W050
 70
     0
  3
_____ . . _____ . . _____ . . ____ .. ____
 72
    65
 73
     6
 40
22.5
 49
12.0
 49
-1.5
 49
3.0
 49
-1.5
 49
3.0
 49
-1.5
  0
LTYPE
  2
AM_ISO08W050X2
 70
     0
  3
__ . __ . __ . __ . __ . __
 72
    65
 73
     4
 40
9.0
 49
6.0
 49
-0.75
 49
1.5
 49
-0.75
  0
LTYPE
  2
AM_ISO02W050X2
 70
     0
  3
 _ _ _ _ _ _ _ _ _ _ _ _
 72
    65
 73
     2
 40
3.75
 49
3.0
 49
-0.75
  0
LTYPE
  2
AMZIGZAG
 70
     0
  3
/\/-/\/-/\/-/\/-/\/-/\/
 72
    65
 73
     2
 40
11.0001
 49
0.0001
 49
-11.0
  0
LTYPE
  2
AMZIGZAG2
 70
     0
  3
/\/-/\/-/\/-/\/-/\/-/\/
 72
    65
 73
     2
 40
0.4401
 49
0.0001
 49
-0.4400000000000002
  0
LTYPE
  2
ACANSTGB
 70
     0
  3
__ . . __ . .
 72
    65
 73
     6
 40
0.35433070866
 49
0.15748031496
 49
-0.03937007874
 49
0.03937007874
 49
-0.03937007874
 49
0.03937007874
 49
-0.03937007874
  0
LTYPE
  2
ACANSTGL
 70
     0
  3
_ _ _ _ _
 72
    65
 73
     2
 40
0.11811023622
 49
0.07874015748
 49
-0.03937007874
  0
ENDTAB
  0
TABLE
  2
LAYER
 70
    10
  0
LAYER
  2
0
 70
     0
 62
     7
  6
CONTINUOUS
  0
LAYER
  2
240
 70
     0
 62
     4
  6
CONTINUOUS
  0
LAYER
  2
DEFPOINTS
 70
     0
 62
     7
  6
CONTINUOUS
  0
LAYER
  2
245
 70
     0
 62
     2
  6
CENTER2
  0
LAYER
  2
241
 70
     0
 62
   211
  6
CONTINUOUS
  0
LAYER
  2
243
 70
     0
 62
   211
  6
HIDDEN2
  0
LAYER
  2
250
 70
     0
 62
     3
  6
CONTINUOUS
  0
LAYER
  2
251
 70
     0
 62
    40
  6
CONTINUOUS
  0
LAYER
  2
AM_5
 70
     0
 62
     3
  6
CONTINUOUS
  0
LAYER
  2
AM_CL
 70
     0
 62
     1
  6
AMCONSTR
  0
ENDTAB
  0
TABLE
  2
STYLE
 70
     9
  0
STYLE
  2
STANDARD
 70
     0
 40
0.0
 41
1.0
 50
0.0
 71
     0
 42
3.0
  3
romans.shx
  4
extfont.shx
  0
STYLE
  2
YOKO
 70
     0
 40
0.0
 41
1.0
 50
0.0
 71
     0
 42
3.0
  3
romans.shx
  4
extfont.shx
  0
STYLE
  2
ACISOTS
 70
     0
 40
1.0
 41
1.0
 50
0.0
 71
     0
 42
3.0
  3
amgdt.shx
  4
extfont.shx
  0
STYLE
  2
ACISOGDT
 70
     0
 40
0.0
 41
1.0
 50
0.0
 71
     0
 42
3.0
  3
amgdt.shx
  4
extfont.shx
  0
STYLE
  2
ACJISTS
 70
     0
 40
1.0
 41
1.0
 50
0.0
 71
     0
 42
3.0
  3
amgdt.shx
  4
extfont.shx
  0
STYLE
  2
ACJISGDT
 70
     0
 40
0.0
 41
1.0
 50
0.0
 71
     0
 42
3.0
  3
amgdt.shx
  4
extfont.shx
  0
STYLE
  2

 70
     1
 40
0.0
 41
1.0
 50
0.0
 71
     0
 42
3.0
  3
ltypeshp.shx
  4

  0
STYLE
  2
ACANSTS
 70
     0
 40
1.0
 41
1.0
 50
0.0
 71
     0
 42
3.0
  3
romans.shx
  4
extfont.shx
  0
STYLE
  2
ACANSGDT
 70
     0
 40
0.0
 41
1.0
 50
0.0
 71
     0
 42
3.0
  3
amgdtans.shx
  4

  0
ENDTAB
  0
TABLE
  2
VIEW
 70
     0
  0
ENDTAB
  0
TABLE
  2
UCS
 70
     0
  0
ENDTAB
  0
TABLE
  2
APPID
 70
    29
  0
APPID
  2
ACAD
 70
     0
  0
APPID
  2
GLOBAL
 70
     0
  0
APPID
  2
DETAIL
 70
     0
  0
APPID
  2
GRPNAME
 70
     0
  0
APPID
  2
GPARA
 70
     0
  0
APPID
  2
MCAD_NO_VIS
 70
     0
  0
APPID
  2
ACAD_TEMP_GRAPHIC
 70
     0
  0
APPID
  2
ACATTRIBSERVICES
 70
     0
  0
APPID
  2
GENIUS_GENSCREG_15
 70
     0
  0
APPID
  2
GENIUS_GENODEF_13
 70
     0
  0
APPID
  2
GENIUS_GENOBJ-N-SDF_13
 70
     0
  0
APPID
  2
GENIUS_GENREC_14
 70
     0
  0
APPID
  2
GENIUS_GENOBJ-N-REC_13
 70
     0
  0
APPID
  2
GENIUS_GENDIMSH_14
 70
     0
  0
APPID
  2
GENIUS_GENOBJ-N-DIM_13
 70
     0
  0
APPID
  2
GENIUS_GENDIM_13
 70
     0
  0
APPID
  2
GENIUS_GENDTOL_13
 70
     0
  0
APPID
  2
GENIUS_GENOLIS_13
 70
     0
  0
APPID
  2
GENIUS_GENOENT_13
 70
     0
  0
APPID
  2
GENIUS_GENOBJ-F-FEM_13
 70
     0
  0
APPID
  2
GENIUS_GENOREF_13
 70
     0
  0
APPID
  2
GENIUS_GEFFEM_13
 70
     0
  0
APPID
  2
GENIUS_GEFFEMP_13
 70
     0
  0
APPID
  2
AD_DRAW
 70
     0
  0
APPID
  2
DESIGNERASSEMBLIES
 70
     0
  0
APPID
  2
ACADM_DIM_EDIT
 70
     0
  0
APPID
  2
AMDT_DM_ADJ
 70
     0
  0
APPID
  2
ASK_MEN_XD
 70
     0
  0
APPID
  2
ITEMNAME
 70
     0
  0
ENDTAB
  0
TABLE
  2
DIMSTYLE
 70
    29
  0
DIMSTYLE
  2
BIGT
 70
     0
  3

  4

  5

  6

  7

 40
1.0
 41
2.2299999999999991
 42
0.5
 43
7.0
 44
1.0
 45
0.0
 46
0.0
 47
0.0
 48
0.01
140
2.799999999999998
141
0.0
142
0.0
143
25.399999999999999
144
1.0
145
0.0
146
1.0
147
1.0
 71
     0
 72
     0
 73
     0
 74
     0
 75
     0
 76
     0
 77
     3
 78
     9
170
     0
171
     2
172
     1
173
     0
174
     1
175
     0
176
   256
177
   256
178
    40
  0
DIMSTYLE
  2
AM_ISO
 70
     0
  3

  4
"
  5

  6

  7

 40
1.0
 41
2.5
 42
1.0
 43
10.0
 44
1.0
 45
0.0
 46
0.0
 47
0.1
 48
0.1
140
3.5
141
0.0
142
0.0
143
0.0393701
144
1.0
145
0.0
146
0.71
147
1.5
 71
     0
 72
     0
 73
     0
 74
     0
 75
     0
 76
     0
 77
     1
 78
     8
170
     0
171
     2
172
     1
173
     0
174
     0
175
     0
176
   256
177
   256
178
     2
  0
DIMSTYLE
  2
AM_ISO$3
 70
     0
  3

  4
"
  5

  6

  7

 40
1.0
 41
2.5
 42
1.0
 43
10.0
 44
1.0
 45
0.0
 46
0.0
 47
0.1
 48
0.1
140
3.5
141
0.0
142
0.0
143
0.0393701
144
1.0
145
0.0
146
0.71
147
1.5
 71
     0
 72
     0
 73
     0
 74
     1
 75
     0
 76
     0
 77
     1
 78
     8
170
     0
171
     2
172
     0
173
     0
174
     0
175
     0
176
   256
177
   256
178
     2
  0
DIMSTYLE
  2
AM_ISO$4
 70
     0
  3

  4
"
  5

  6

  7

 40
1.0
 41
2.5
 42
1.0
 43
10.0
 44
1.0
 45
0.0
 46
0.0
 47
0.1
 48
0.1
140
3.5
141
0.0
142
0.0
143
0.0393701
144
1.0
145
0.0
146
0.71
147
1.5
 71
     0
 72
     0
 73
     0
 74
     1
 75
     0
 76
     0
 77
     1
 78
     8
170
     0
171
     2
172
     0
173
     0
174
     0
175
     0
176
   256
177
   256
178
     2
  0
DIMSTYLE
  2
AM_ISO$6
 70
     0
  3

  4
"
  5

  6

  7

 40
1.0
 41
2.5
 42
1.0
 43
10.0
 44
1.0
 45
0.0
 46
0.0
 47
0.1
 48
0.1
140
3.5
141
0.0
142
0.0
143
0.0393701
144
1.0
145
0.0
146
0.71
147
1.5
 71
     0
 72
     0
 73
     0
 74
     0
 75
     0
 76
     0
 77
     0
 78
     8
170
     0
171
     2
172
     1
173
     0
174
     0
175
     0
176
   256
177
   256
178
     2
  0
DIMSTYLE
  2
AM_ISO$7
 70
     0
  3

  4
"
  5

  6

  7

 40
1.0
 41
2.5
 42
1.0
 43
10.0
 44
1.0
 45
0.0
 46
0.0
 47
0.1
 48
0.1
140
5.0
141
0.0
142
0.0
143
0.0393701
144
1.0
145
0.0
146
0.71
147
1.5
 71
     0
 72
     0
 73
     0
 74
     0
 75
     0
 76
     0
 77
     1
 78
     8
170
     0
171
     2
172
     1
173
     0
174
     0
175
     0
176
   256
177
   256
178
     2
  0
DIMSTYLE
  2
AM_ISO$SF
 70
     0
  3

  4
"
  5

  6

  7

 40
1.0
 41
2.5
 42
1.0
 43
10.0
 44
1.0
 45
0.0
 46
0.0
 47
0.1
 48
0.1
140
3.5
141
0.0
142
0.0
143
0.0393701
144
1.0
145
0.0
146
0.71
147
1.5
 71
     0
 72
     0
 73
     0
 74
     0
 75
     1
 76
     1
 77
     1
 78
     8
170
     0
171
     2
172
     1
173
     0
174
     0
175
     0
176
   256
177
   256
178
     2
  0
DIMSTYLE
  2
AM_ISO$SH
 70
     0
  3

  4
"
  5

  6

  7

 40
1.0
 41
2.5
 42
1.0
 43
10.0
 44
1.0
 45
0.0
 46
0.0
 47
0.1
 48
0.1
140
3.5
141
0.0
142
0.0
143
0.0393701
144
2.0
145
0.0
146
0.71
147
1.5
 71
     0
 72
     0
 73
     0
 74
     0
 75
     1
 76
     1
 77
     1
 78
     8
170
     0
171
     2
172
     1
173
     1
174
     0
175
     0
176
   256
177
   256
178
     2
  0
DIMSTYLE
  2
BIGT$2
 70
     0
  3

  4

  5

  6

  7

 40
1.0
 41
2.2299999999999991
 42
0.5
 43
7.0
 44
1.0
 45
0.0
 46
0.0
 47
0.0
 48
0.01
140
2.799999999999998
141
0.0
142
0.0
143
25.399999999999999
144
1.0
145
0.0
146
1.0
147
1.0
 71
     0
 72
     0
 73
     0
 74
     0
 75
     0
 76
     0
 77
     3
 78
     9
170
     0
171
     2
172
     1
173
     0
174
     0
175
     0
176
   256
177
   256
178
    40
  0
DIMSTYLE
  2
BIGT$3
 70
     0
  3

  4

  5

  6

  7

 40
1.0
 41
2.2299999999999991
 42
0.5
 43
2.5
 44
1.0
 45
0.0
 46
0.0
 47
0.0
 48
0.01
140
2.799999999999998
141
0.0
142
0.0
143
25.399999999999999
144
1.0
145
0.0
146
1.0
147
1.0
 71
     0
 72
     0
 73
     0
 74
     0
 75
     0
 76
     0
 77
     3
 78
     9
170
     0
171
     2
172
     1
173
     0
174
     0
175
     0
176
   256
177
   256
178
    40
  0
DIMSTYLE
  2
BIGT$7
 70
     0
  3

  4

  5

  6

  7

 40
0.0
 41
2.2299999999999991
 42
0.5
 43
7.0
 44
1.0
 45
0.0
 46
0.0
 47
0.0
 48
0.01
140
2.799999999999998
141
0.0
142
0.0
143
25.399999999999999
144
1.0
145
0.0
146
1.0
147
1.0
 71
     0
 72
     0
 73
     0
 74
     0
 75
     0
 76
     0
 77
     3
 78
     9
170
     0
171
     2
172
     0
173
     0
174
     0
175
     0
176
   256
177
   256
178
    40
  0
DIMSTYLE
  2
BIGT$6
 70
     0
  3

  4

  5

  6

  7

 40
1.0
 41
2.2299999999999991
 42
0.5
 43
2.5
 44
1.0
 45
0.0
 46
0.0
 47
0.0
 48
0.01
140
2.799999999999998
141
0.0
142
0.0
143
25.399999999999999
144
1.0
145
0.0
146
1.0
147
1.0
 71
     0
 72
     0
 73
     0
 74
     0
 75
     0
 76
     0
 77
     3
 78
     9
170
     0
171
     2
172
     1
173
     0
174
     0
175
     0
176
   256
177
   256
178
    40
  0
DIMSTYLE
  2
BIGT$0
 70
     0
  3

  4

  5

  6

  7

 40
1.0
 41
2.2299999999999991
 42
0.5
 43
7.0
 44
1.0
 45
0.0
 46
0.0
 47
0.0
 48
0.01
140
2.799999999999998
141
0.0
142
0.0
143
25.399999999999999
144
1.0
145
0.0
146
1.0
147
1.0
 71
     0
 72
     0
 73
     0
 74
     0
 75
     0
 76
     0
 77
     3
 78
     9
170
     0
171
     2
172
     1
173
     0
174
     0
175
     0
176
   256
177
   256
178
    40
  0
DIMSTYLE
  2
BIGT$4
 70
     0
  3

  4

  5

  6

  7

 40
1.0
 41
2.2299999999999991
 42
0.5
 43
2.5
 44
1.0
 45
0.0
 46
0.0
 47
0.0
 48
0.01
140
2.799999999999998
141
0.0
142
0.0
143
25.399999999999999
144
1.0
145
0.0
146
1.0
147
1.0
 71
     0
 72
     0
 73
     0
 74
     0
 75
     0
 76
     0
 77
     3
 78
     9
170
     0
171
     2
172
     1
173
     0
174
     0
175
     0
176
   256
177
   256
178
    40
  0
DIMSTYLE
  2
BIGT$SH
 70
     0
  3

  4

  5

  6

  7

 40
1.0
 41
2.2299999999999991
 42
0.5
 43
7.0
 44
1.0
 45
0.0
 46
0.0
 47
0.0
 48
0.0
140
2.799999999999998
141
0.0
142
0.0
143
25.399999999999999
144
1.0
145
0.0
146
1.0
147
1.0
 71
     0
 72
     0
 73
     0
 74
     0
 75
     0
 76
     0
 77
     3
 78
     9
170
     0
171
     2
172
     1
173
     0
174
     0
175
     0
176
   256
177
   256
178
    40
  0
DIMSTYLE
  2
BIGT$SF
 70
     0
  3

  4

  5

  6

  7

 40
1.0
 41
2.2299999999999991
 42
0.5
 43
7.0
 44
1.0
 45
0.0
 46
0.0
 47
0.0
 48
0.0
140
2.799999999999998
141
0.0
142
0.0
143
25.399999999999999
144
1.0
145
0.0
146
1.0
147
1.0
 71
     0
 72
     0
 73
     0
 74
     0
 75
     0
 76
     0
 77
     3
 78
     9
170
     0
171
     2
172
     1
173
     0
174
     0
175
     0
176
   256
177
   256
178
    40
  0
DIMSTYLE
  2
TECHNICAL_OSAKA
 70
     0
  3

  4
"
  5

  6

  7

 40
1.0
 41
2.5
 42
1.0
 43
10.0
 44
1.0
 45
0.0
 46
0.0
 47
0.1
 48
0.1
140
2.799999999999998
141
0.0
142
0.0
143
0.0393701
144
1.0
145
0.0
146
0.71
147
1.5
 71
     0
 72
     0
 73
     0
 74
     0
 75
     0
 76
     0
 77
     3
 78
     8
170
     0
171
     2
172
     1
173
     0
174
     0
175
     0
176
   256
177
   256
178
    40
  0
DIMSTYLE
  2
TECHNICAL_OSAKA$3
 70
     0
  3

  4
"
  5

  6

  7

 40
1.0
 41
2.5
 42
1.0
 43
10.0
 44
1.0
 45
0.0
 46
0.0
 47
0.1
 48
0.1
140
2.799999999999998
141
0.0
142
0.0
143
0.0393701
144
1.0
145
0.0
146
0.71
147
1.5
 71
     0
 72
     0
 73
     0
 74
     1
 75
     0
 76
     0
 77
     3
 78
     8
170
     0
171
     2
172
     0
173
     0
174
     0
175
     0
176
   256
177
   256
178
    40
  0
DIMSTYLE
  2
TECHNICAL_OSAKA$4
 70
     0
  3

  4
"
  5

  6

  7

 40
1.0
 41
2.5
 42
1.0
 43
10.0
 44
1.0
 45
0.0
 46
0.0
 47
0.1
 48
0.1
140
2.799999999999998
141
0.0
142
0.0
143
0.0393701
144
1.0
145
0.0
146
0.71
147
1.5
 71
     0
 72
     0
 73
     0
 74
     1
 75
     0
 76
     0
 77
     3
 78
     8
170
     0
171
     2
172
     0
173
     0
174
     0
175
     0
176
   256
177
   256
178
    40
  0
DIMSTYLE
  2
TECHNICAL_OSAKA$6
 70
     0
  3

  4
"
  5

  6

  7

 40
1.0
 41
2.5
 42
1.0
 43
10.0
 44
1.0
 45
0.0
 46
0.0
 47
0.1
 48
0.1
140
2.799999999999998
141
0.0
142
0.0
143
0.0393701
144
1.0
145
0.0
146
0.71
147
1.5
 71
     0
 72
     0
 73
     0
 74
     0
 75
     0
 76
     0
 77
     0
 78
     8
170
     0
171
     2
172
     1
173
     0
174
     0
175
     0
176
   256
177
   256
178
    40
  0
DIMSTYLE
  2
TECHNICAL_OSAKA$7
 70
     0
  3

  4
"
  5

  6

  7

 40
1.0
 41
2.5
 42
1.0
 43
10.0
 44
1.0
 45
0.0
 46
0.0
 47
0.1
 48
0.1
140
2.799999999999998
141
0.0
142
0.0
143
0.0393701
144
1.0
145
0.0
146
0.71
147
1.5
 71
     0
 72
     0
 73
     0
 74
     0
 75
     0
 76
     0
 77
     3
 78
     8
170
     0
171
     2
172
     1
173
     0
174
     0
175
     0
176
   256
177
   256
178
    40
  0
DIMSTYLE
  2
TECHNICAL_OSAKA$SF
 70
     0
  3

  4
"
  5

  6

  7

 40
1.0
 41
2.5
 42
1.0
 43
10.0
 44
1.0
 45
0.0
 46
0.0
 47
0.1
 48
0.1
140
3.5
141
0.0
142
0.0
143
0.0393701
144
1.0
145
0.0
146
0.71
147
1.5
 71
     0
 72
     0
 73
     0
 74
     0
 75
     1
 76
     1
 77
     3
 78
     8
170
     0
171
     2
172
     1
173
     0
174
     0
175
     0
176
   256
177
   256
178
    40
  0
DIMSTYLE
  2
TECHNICAL_OSAKA$SH
 70
     0
  3

  4
"
  5

  6

  7

 40
1.0
 41
2.5
 42
1.0
 43
10.0
 44
1.0
 45
0.0
 46
0.0
 47
0.1
 48
0.1
140
3.5
141
0.0
142
0.0
143
0.0393701
144
2.0
145
0.0
146
0.71
147
1.5
 71
     0
 72
     0
 73
     0
 74
     0
 75
     1
 76
     1
 77
     3
 78
     8
170
     0
171
     2
172
     1
173
     1
174
     0
175
     0
176
   256
177
   256
178
    40
  0
DIMSTYLE
  2
AM_ANSI
 70
     0
  3

  4
mm
  5

  6

  7

 40
1.0
 41
0.1
 42
0.05
 43
0.5
 44
0.1
 45
0.0
 46
0.0
 47
0.1
 48
0.1
140
0.12
141
0.0
142
0.0
143
25.399999999999999
144
1.0
145
0.0
146
0.71
147
0.06
 71
     0
 72
     0
 73
     1
 74
     1
 75
     0
 76
     0
 77
     0
 78
     7
170
     0
171
     2
172
     0
173
     0
174
     0
175
     0
176
   256
177
   256
178
     2
  0
DIMSTYLE
  2
AM_ANSI$3
 70
     0
  3

  4
mm
  5

  6

  7

 40
1.0
 41
0.1
 42
0.05
 43
0.5
 44
0.1
 45
0.0
 46
0.0
 47
0.1
 48
0.1
140
0.12
141
0.0
142
0.0
143
25.399999999999999
144
1.0
145
0.0
146
0.71
147
0.06
 71
     0
 72
     0
 73
     1
 74
     1
 75
     0
 76
     0
 77
     0
 78
     7
170
     0
171
     2
172
     0
173
     0
174
     0
175
     0
176
   256
177
   256
178
     2
  0
DIMSTYLE
  2
AM_ANSI$4
 70
     0
  3

  4
mm
  5

  6

  7

 40
1.0
 41
0.1
 42
0.05
 43
0.5
 44
0.1
 45
0.0
 46
0.0
 47
0.1
 48
0.1
140
0.12
141
0.0
142
0.0
143
25.399999999999999
144
1.0
145
0.0
146
0.71
147
0.06
 71
     0
 72
     0
 73
     1
 74
     1
 75
     0
 76
     0
 77
     0
 78
     7
170
     0
171
     2
172
     0
173
     0
174
     0
175
     0
176
   256
177
   256
178
     2
  0
DIMSTYLE
  2
AM_ANSI$7
 70
     0
  3

  4
mm
  5

  6

  7

 40
1.0
 41
0.1
 42
0.05
 43
0.5
 44
0.1
 45
0.0
 46
0.0
 47
0.1
 48
0.1
140
0.24
141
0.0
142
0.0
143
25.399999999999999
144
1.0
145
0.0
146
0.71
147
0.06
 71
     0
 72
     0
 73
     1
 74
     1
 75
     0
 76
     0
 77
     0
 78
     7
170
     0
171
     2
172
     0
173
     0
174
     0
175
     0
176
   256
177
   256
178
     2
  0
DIMSTYLE
  2
AM_ANSI$SF
 70
     0
  3

  4
mm
  5

  6

  7

 40
1.0
 41
0.1
 42
0.05
 43
0.5
 44
0.1
 45
0.0
 46
0.0
 47
0.1
 48
0.1
140
0.12
141
0.0
142
0.0
143
25.399999999999999
144
1.0
145
0.0
146
0.71
147
0.06
 71
     0
 72
     0
 73
     1
 74
     1
 75
     1
 76
     1
 77
     0
 78
     7
170
     0
171
     2
172
     0
173
     0
174
     0
175
     0
176
   256
177
   256
178
     2
  0
DIMSTYLE
  2
AM_ANSI$SH
 70
     0
  3

  4
mm
  5

  6

  7

 40
1.0
 41
0.1
 42
0.05
 43
0.5
 44
0.1
 45
0.0
 46
0.0
 47
0.1
 48
0.1
140
0.12
141
0.0
142
0.0
143
25.399999999999999
144
1.0
145
0.0
146
0.71
147
0.06
 71
     0
 72
     0
 73
     1
 74
     1
 75
     1
 76
     1
 77
     0
 78
     7
170
     0
171
     2
172
     0
173
     1
174
     0
175
     0
176
   256
177
   256
178
     2
  0
ENDTAB
  0
ENDSEC
  0
SECTION
  2
BLOCKS
  0
BLOCK
  8
0
  2
$MODEL_SPACE
 70
     0
 10
0.0
 20
0.0
 30
0.0
  3
$MODEL_SPACE
  1

  0
ENDBLK
  5
1BA1
  8
0
  0
BLOCK
 67
     1
  8
0
  2
$PAPER_SPACE
 70
     0
 10
0.0
 20
0.0
 30
0.0
  3
$PAPER_SPACE
  1

  0
ENDBLK
  5
1B9D
 67
     1
  8
0
  0
BLOCK
  8
0
  2
_OPEN
 70
     0
 10
0.0
 20
0.0
 30
0.0
  3
_OPEN
  1

  0
LINE
  5
1802
  8
0
  6
BYBLOCK
 62
     0
 10
-1.0
 20
0.1666666666666666
 30
0.0
 11
0.0
 21
0.0
 31
0.0
  0
LINE
  5
1803
  8
0
  6
BYBLOCK
 62
     0
 10
-1.0
 20
-0.1666666666666666
 30
0.0
 11
0.0
 21
0.0
 31
0.0
  0
LINE
  5
1804
  8
0
  6
BYBLOCK
 62
     0
 10
0.0
 20
0.0
 30
0.0
 11
-1.0
 21
0.0
 31
0.0
  0
ENDBLK
  5
1805
  8
0
  0
BLOCK
  8
0
  2
GENAXEH
 70
     0
 10
0.0
 20
0.0
 30
0.0
  3
GENAXEH
  1

  0
LINE
  5
182D
  8
0
 10
-1.0
 20
0.0
 30
0.0
 11
1.0
 21
0.0
 31
0.0
  0
ENDBLK
  5
182E
  8
0
  0
BLOCK
  8
0
  2
_OPEN30
 70
     0
 10
0.0
 20
0.0
 30
0.0
  3
_OPEN30
  1

  0
LINE
  5
1852
  8
0
  6
BYBLOCK
 62
     0
 10
-1.0
 20
0.26794919
 30
0.0
 11
0.0
 21
0.0
 31
0.0
  0
LINE
  5
1853
  8
0
  6
BYBLOCK
 62
     0
 10
0.0
 20
0.0
 30
0.0
 11
-1.0
 21
-0.26794919
 31
0.0
  0
LINE
  5
1854
  8
0
  6
BYBLOCK
 62
     0
 10
0.0
 20
0.0
 30
0.0
 11
-1.0
 21
0.0
 31
0.0
  0
ENDBLK
  5
1855
  8
0
  0
ENDSEC
  0
SECTION
  2
ENTITIES
  0
LINE
  5
13B8
  8
240
 10
11.60014666881766
 20
-31.500000000001251
 30
0.0
 11
2.000000000000111
 21
-31.500000000001251
 31
0.0
  0
LINE
  5
13BA
  8
240
 10
-0.0000000000000014
 20
-22.22506316112224
 30
0.0
 11
-64.030891028960042
 21
-12.887224884179091
 31
0.0
  0
LINE
  5
13BB
  8
240
  6
CONTINUOUS
 10
-65.399999999999594
 20
11.303972114484511
 30
0.0
 11
-65.399999999999594
 21
-11.30397211448456
 31
0.0
  0
ARC
  5
13BC
  8
240
  6
CONTINUOUS
 10
-63.799999999999592
 20
-11.303972114484511
 30
0.0
 40
1.6000000000000001
 50
180.0
 51
238.29712737140781
  0
LINE
  5
13BD
  8
240
 10
-64.640822473659711
 20
-12.66522799336553
 30
0.0
 11
-64.030891028954187
 21
-12.88722488417994
 31
0.0
  0
LINE
  5
13BE
  8
240
  6
CONTINUOUS
 10
1.0000000000003291
 20
-22.22506316112224
 30
0.0
 11
1.000000000000113
 21
-30.500000000001201
 31
0.0
  0
ARC
  5
13BF
  8
240
  6
CONTINUOUS
 10
2.000000000000111
 20
-30.500000000001251
 30
0.0
 40
1.0
 50
180.0
 51
270.0
  0
LINE
  5
13C0
  8
240
  6
CONTINUOUS
 10
1.741180954896917
 20
-31.465925826289212
 30
0.0
 11
1.868347502422379
 21
-31.500000000001251
 31
0.0
  0
LINE
  5
13C1
  8
240
 10
1.0340741737100241
 20
-30.758819045102602
 30
0.0
 11
0.9999999999997156
 21
-30.631652497575718
 31
0.0
  0
LINE
  5
13C5
  8
240
 10
18.713101985234491
 20
-26.49999999999989
 30
0.0
 11
21.599853331184111
 21
-31.500000000001421
 31
0.0
  0
LINE
  5
13C6
  8
240
 10
14.48689801476676
 20
-26.49999999999989
 30
0.0
 11
11.60014666881766
 21
-31.500000000001251
 31
0.0
  0
LINE
  5
13C8
  8
240
  6
CONTINUOUS
 10
27.00000000000259
 20
-31.500000000000409
 30
0.0
 11
26.999999999999339
 21
-30.014213562355881
 31
0.0
  0
LINE
  5
13C9
  8
240
 10
21.599853331184111
 20
-31.500000000001421
 30
0.0
 11
27.00000000000259
 21
-31.500000000000409
 31
0.0
  0
LINE
  5
13CE
  8
241
  6
HIDDEN2
 10
23.000000000000401
 20
-22.50000000000006
 30
0.0
 11
1.0000000000002831
 21
-22.500000000000028
 31
0.0
  0
LINE
  5
13CF
  8
241
  6
HIDDEN2
 10
23.000000000000458
 20
-31.50000000000097
 30
0.0
 11
23.000000000000458
 21
-22.50000000000006
 31
0.0
  0
LINE
  5
13D4
  8
240
 10
14.48689801476676
 20
-26.49999999999989
 30
0.0
 11
18.713101985234491
 21
-26.49999999999989
 31
0.0
  0
LINE
  5
13DD
  8
243
 10
-31.60077991622757
 20
9.5000000000001101
 30
0.0
 11
75.000000000001734
 21
9.4999999999999982
 31
0.0
  0
LINE
  5
13DE
  8
240
 10
75.00000000000027
 20
-11.87365440326516
 30
0.0
 11
74.999999999999901
 21
0.0
 31
0.0
  0
LINE
  5
13DF
  8
240
 10
74.299999999997468
 20
-12.94999999999197
 30
0.0
 11
74.707106781181693
 21
-12.54289321881356
 31
0.0
  0
ARC
  5
13E0
  8
240
 10
73.999999999999289
 20
-11.835786437622909
 30
0.0
 40
1.0
 50
314.99999999966838
 51
359.99999999999352
  0
ARC
  5
13E1
  8
240
 10
62.276273304069861
 20
-22.599999999946991
 30
0.0
 40
2.0
 50
270.00000000010101
 51
294.99999999999937
1001
ASK_MEN_XD
1005
0
1070
     1
1005
0
1070
     1
  0
LINE
  5
13E2
  8
240
 10
31.121320343541221
 20
-25.478679656438771
 30
0.0
 11
27.29289321881279
 21
-29.307106781167139
 31
0.0
  0
ARC
  5
13E3
  8
240
 10
27.99999999999935
 20
-30.014213562353689
 30
0.0
 40
1.0
 50
135.0
 51
180.00000000012361
1001
ASK_MEN_XD
1005
0
1070
     1
1005
0
1070
     1
  0
ARC
  5
13E4
  8
240
 10
33.242640687100817
 20
-27.599999999998431
 30
0.0
 40
3.0
 50
90.000000000100954
 51
135.0
1001
ASK_MEN_XD
1005
0
1070
     1
1005
0
1070
     1
  0
LINE
  5
13E5
  8
240
 10
73.722618261733686
 20
-19.469237526229222
 30
0.0
 11
63.12150982755125
 21
-24.412615574020268
 31
0.0
  0
ARC
  5
13E6
  8
240
 10
73.299999999992977
 20
-18.562929739192551
 30
0.0
 40
1.0
 50
295.0
 51
359.99999999999352
1001
ASK_MEN_XD
1005
0
1070
     1
1005
0
1070
     1
  0
LINE
  5
13E7
  8
240
  6
CONTINUOUS
 10
74.299999999992977
 20
-18.562929739192668
 30
0.0
 11
74.299999999993418
 21
-12.94999999999601
 31
0.0
  0
LINE
  5
13E8
  8
240
 10
33.242640687094138
 20
-24.599999999997571
 30
0.0
 11
36.199615242303082
 21
-24.599999999992409
 31
0.0
  0
LINE
  5
13E9
  8
240
 10
49.799615242272999
 20
-24.59999999996921
 30
0.0
 11
51.799615242307453
 21
-24.599999999965689
 31
0.0
  0
LINE
  5
13EA
  8
240
 10
57.799615242226167
 20
-24.599999999955351
 30
0.0
 11
62.276273304072021
 21
-24.59999999994778
 31
0.0
  0
LINE
  5
13EB
  8
240
 10
52.613828804649778
 20
-24.19999999999493
 30
0.0
 11
56.985401679894522
 21
-24.199999999995221
 31
0.0
  0
ARC
  5
13EC
  8
240
 10
52.613828804649728
 20
-25.19999999999493
 30
0.0
 40
1.0
 50
89.999999999996732
 51
134.99999999999881
  0
LINE
  5
13ED
  8
240
 10
51.799615242275557
 20
-24.599999999997571
 30
0.0
 11
51.90672202346402
 21
-24.492893218809058
 31
0.0
  0
ARC
  5
13EE
  8
240
 10
56.985401679894451
 20
-25.199999999995221
 30
0.0
 40
1.0
 50
45.0
 51
89.999999999996732
  0
LINE
  5
13EF
  8
240
 10
57.799615242268743
 20
-24.59999999999792
 30
0.0
 11
57.692508461080287
 21
-24.49289321880946
 31
0.0
  0
LINE
  5
13F0
  8
240
 10
37.013828804673771
 20
-24.199999999995221
 30
0.0
 11
48.985401679923761
 21
-24.199999999995899
 31
0.0
  0
LINE
  5
13F1
  8
240
 10
36.30672202348731
 20
-24.49289321880849
 30
0.0
 11
36.199615242303047
 21
-24.599999999992519
 31
0.0
  0
ARC
  5
13F2
  8
240
 10
37.013828804673722
 20
-25.199999999995221
 30
0.0
 40
1.0
 50
89.999999999996732
 51
134.99999999999881
  0
LINE
  5
13F3
  8
240
 10
49.692508461112347
 20
-24.492893218808319
 30
0.0
 11
49.799615242272999
 21
-24.59999999996916
 31
0.0
  0
ARC
  5
13F4
  8
240
 10
48.98540167992369
 20
-25.199999999995899
 30
0.0
 40
1.0
 50
44.999999999990777
 51
89.999999999993477
  0
LINE
  5
13F5
  8
241
 10
62.719662629355668
 20
-24.55023226976067
 30
0.0
 11
62.719662629355533
 21
0.0000000000000568
 31
0.0
  0
LINE
  5
13F6
  8
241
 10
57.799615242268743
 20
-24.59999999999792
 30
0.0
 11
57.799615242268693
 21
0.0000000000000568
 31
0.0
  0
LINE
  5
13F7
  8
241
 10
51.799615242275557
 20
-24.599999999997571
 30
0.0
 11
51.799615242275557
 21
0.0000000000001137
 31
0.0
  0
LINE
  5
13F8
  8
241
 10
49.799615242273063
 20
-24.59999999996921
 30
0.0
 11
49.799615242273063
 21
0.0000000000001137
 31
0.0
  0
LINE
  5
13F9
  8
241
 10
36.199615242303047
 20
-24.599999999992519
 30
0.0
 11
36.199615242303047
 21
0.0000000000000568
 31
0.0
  0
LINE
  5
140A
  8
245
 10
-68.85627790051683
 20
0.0
 30
0.0
 11
77.0
 21
0.0
 31
0.0
  0
LINE
  5
140B
  8
240
 10
11.600146668822781
 20
31.50000000001155
 30
0.0
 11
2.0000000000052269
 21
31.50000000001311
 31
0.0
  0
LINE
  5
140C
  8
240
 10
0.0000000000000014
 20
22.2250631611339
 30
0.0
 11
-64.030891028957953
 21
12.88722488420167
 31
0.0
  0
ARC
  5
140D
  8
240
  6
CONTINUOUS
 10
-63.79999999999778
 20
11.303972114507051
 30
0.0
 40
1.6000000000000001
 50
121.7028726285829
 51
179.99999999999071
  0
LINE
  5
140E
  8
240
 10
-64.64082247365765
 20
12.665227993388211
 30
0.0
 11
-64.030891028952098
 21
12.887224884202521
 31
0.0
  0
LINE
  5
140F
  8
240
  6
CONTINUOUS
 10
1.0000000000039391
 20
22.2250631611339
 30
0.0
 11
1.0000000000050671
 21
30.500000000013209
 31
0.0
  0
ARC
  5
1410
  8
240
  6
CONTINUOUS
 10
2.0000000000050671
 20
30.50000000001311
 30
0.0
 40
1.0
 50
89.999999999990706
 51
179.99999999999071
  0
LINE
  5
1411
  8
240
  6
CONTINUOUS
 10
1.7411809549020281
 20
31.46592582630111
 30
0.0
 11
1.868347502427494
 21
31.500000000013131
 31
0.0
  0
LINE
  5
1412
  8
240
 10
1.0340741737150201
 20
30.75881904511462
 30
0.0
 11
1.00000000000469
 21
30.63165249758773
 31
0.0
  0
LINE
  5
1416
  8
240
 10
18.713101985238811
 20
26.500000000009031
 30
0.0
 11
21.59985333118923
 21
31.5000000000101
 31
0.0
  0
LINE
  5
1417
  8
240
 10
14.486898014771061
 20
26.50000000000972
 30
0.0
 11
11.600146668822781
 21
31.50000000001155
 31
0.0
  0
LINE
  5
1419
  8
240
 10
21.59985333118923
 20
31.5000000000101
 30
0.0
 11
27.00000000000259
 21
31.50000000000821
 31
0.0
  0
LINE
  5
141D
  8
241
  6
HIDDEN2
 10
23.00000000000405
 20
22.500000000008502
 30
0.0
 11
1.0000000000039371
 21
22.50000000001204
 31
0.0
  0
LINE
  5
141E
  8
241
  6
HIDDEN2
 10
23.000000000005571
 20
31.500000000009411
 30
0.0
 11
23.00000000000411
 21
22.500000000008502
 31
0.0
  0
LINE
  5
141F
  8
240
 10
14.486898014771061
 20
26.50000000000972
 30
0.0
 11
18.713101985238811
 21
26.500000000009031
 31
0.0
  0
LINE
  5
1422
  8
240
 10
75.000000000002188
 20
11.87365440326516
 30
0.0
 11
74.999999999999901
 21
0.0
 31
0.0
  0
LINE
  5
1423
  8
240
 10
74.299999999999585
 20
12.949999999992089
 30
0.0
 11
74.707106781183697
 21
12.54289321881361
 31
0.0
  0
ARC
  5
1424
  8
240
 10
74.000000000001222
 20
11.835786437623071
 30
0.0
 40
1.0
 50
359.99999999999721
 51
45.000000000322352
  0
ARC
  5
1425
  8
240
 10
62.276273304073527
 20
22.599999999949059
 30
0.0
 40
2.0
 50
64.999999999991346
 51
89.999999999889738
1001
ASK_MEN_XD
1005
0
1070
     1
1005
0
1070
     1
  0
LINE
  5
1426
  8
240
 10
31.12132034354536
 20
25.478679656445909
 30
0.0
 11
27.29289321881755
 21
29.307106781174891
 31
0.0
  0
ARC
  5
1427
  8
240
 10
28.000000000004221
 20
30.014213562361331
 30
0.0
 40
1.0
 50
179.9999999998669
 51
224.99999999999071
1001
ASK_MEN_XD
1005
0
1070
     1
1005
0
1070
     1
  0
ARC
  5
1428
  8
240
 10
33.2426406871053
 20
27.60000000000522
 30
0.0
 40
3.0
 50
224.99999999999071
 51
269.99999999988972
1001
ASK_MEN_XD
1005
0
1070
     1
1005
0
1070
     1
  0
LINE
  5
1429
  8
240
 10
73.722618261736827
 20
19.469237526229431
 30
0.0
 11
63.121509827555222
 21
24.41261557402219
 31
0.0
  0
ARC
  5
142A
  8
240
 10
73.299999999996004
 20
18.562929739192828
 30
0.0
 40
1.0
 50
359.99999999999721
 51
64.999999999990692
1001
ASK_MEN_XD
1005
0
1070
     1
1005
0
1070
     1
  0
LINE
  5
142B
  8
240
  6
CONTINUOUS
 10
74.299999999996004
 20
18.562929739192761
 30
0.0
 11
74.299999999995549
 21
12.94999999999612
 31
0.0
  0
LINE
  5
142C
  8
240
 10
33.242640687098131
 20
24.600000000004361
 30
0.0
 11
36.199615242307082
 21
24.599999999998708
 31
0.0
  0
LINE
  5
142D
  8
240
 10
49.799615242277
 20
24.59999999997331
 30
0.0
 11
51.799615242311447
 21
24.599999999969452
 31
0.0
  0
LINE
  5
142E
  8
240
 10
57.799615242230161
 20
24.59999999995814
 30
0.0
 11
62.276273304076
 21
24.599999999949851
 31
0.0
  0
LINE
  5
142F
  8
240
 10
52.6138288046537
 20
24.199999999998571
 30
0.0
 11
56.985401679898452
 21
24.199999999998141
 31
0.0
  0
ARC
  5
1430
  8
240
 10
52.613828804653807
 20
25.199999999998571
 30
0.0
 40
1.0
 50
224.99999999999179
 51
269.99999999999397
  0
LINE
  5
1431
  8
240
 10
51.79961524227955
 20
24.600000000001351
 30
0.0
 11
51.906722023467992
 21
24.49289321881281
 31
0.0
  0
ARC
  5
1432
  8
240
 10
56.985401679898573
 20
25.199999999998141
 30
0.0
 40
1.0
 50
269.99999999999397
 51
314.99999999999068
  0
LINE
  5
1433
  8
240
 10
57.799615242272743
 20
24.600000000000719
 30
0.0
 11
57.692508461084259
 21
24.49289321881227
 31
0.0
  0
LINE
  5
1434
  8
240
 10
37.013828804677694
 20
24.200000000001381
 30
0.0
 11
48.985401679927662
 21
24.20000000000012
 31
0.0
  0
LINE
  5
1435
  8
240
 10
36.30672202349129
 20
24.492893218814778
 30
0.0
 11
36.199615242307047
 21
24.599999999998818
 31
0.0
  0
ARC
  5
1436
  8
240
 10
37.013828804677807
 20
25.200000000001388
 30
0.0
 40
1.0
 50
224.99999999999179
 51
269.99999999999397
  0
LINE
  5
1437
  8
240
 10
49.692508461116319
 20
24.49289321881243
 30
0.0
 11
49.799615242277
 21
24.599999999973249
 31
0.0
  0
ARC
  5
1438
  8
240
 10
48.985401679927769
 20
25.20000000000012
 30
0.0
 40
1.0
 50
269.99999999999733
 51
314.99999999999989
  0
LINE
  5
1439
  8
241
 10
62.719662629359647
 20
24.550232269762681
 30
0.0
 11
62.719662629355533
 21
0.0000000000019376
 31
0.0
  0
LINE
  5
143A
  8
241
 10
57.799615242272743
 20
24.600000000000719
 30
0.0
 11
57.799615242268693
 21
0.0000000000027367
 31
0.0
  0
LINE
  5
143B
  8
241
 10
51.79961524227955
 20
24.600000000001351
 30
0.0
 11
51.799615242275557
 21
0.0000000000036543
 31
0.0
  0
LINE
  5
143C
  8
241
 10
49.799615242277049
 20
24.59999999997331
 30
0.0
 11
49.799615242273063
 21
0.0000000000039791
 31
0.0
  0
LINE
  5
143D
  8
241
 10
36.199615242307047
 20
24.599999999998818
 30
0.0
 11
36.199615242303047
 21
0.0000000000062447
 31
0.0
  0
LINE
  5
143E
  8
241
 10
31.99999999998429
 20
24.86946083663263
 30
0.0
 11
31.999999999976211
 21
-24.869460836625649
 31
0.0
  0
LINE
  5
1530
  8
240
 10
14.4871627555749
 20
-26.499999999999901
 30
0.0
 11
18.71336672604264
 21
-26.499999999999901
 31
0.0
  0
LINE
  5
1531
  8
241
 10
14.48716275557474
 20
26.50000000000011
 30
0.0
 11
14.487162755556669
 21
-26.499999999999879
 31
0.0
  0
LINE
  5
1532
  8
241
 10
11.60041140962695
 20
31.500000000002949
 30
0.0
 11
11.60041140962467
 21
-31.500000000001268
 31
0.0
  0
LINE
  5
1533
  8
241
 10
18.713366726020759
 20
-26.499999999999901
 30
0.0
 11
18.713366726042921
 21
26.500000000000071
 31
0.0
  0
LINE
  5
1534
  8
241
 10
21.6001180719934
 20
31.50000000000276
 30
0.0
 11
21.600118071991108
 21
-31.500000000001421
 31
0.0
  0
LINE
  5
1535
  8
245
  6
CENTER2
 10
16.599999999999991
 20
-31.5
 30
0.0
 11
16.599999999999991
 21
31.5
 31
0.0
  0
LINE
  5
153B
  8
241
 10
74.299999999999585
 20
12.949999999992089
 30
0.0
 11
74.299999999993418
 21
-12.94999999999601
 31
0.0
  0
LINE
  5
154C
  8
240
  6
CONTINUOUS
 10
27.00000000000259
 20
31.50000000000821
 30
0.0
 11
26.999999999999339
 21
30.014213562355891
 31
0.0
  0
LINE
  5
154E
  8
241
 10
26.999999999999339
 20
30.014213562355891
 30
0.0
 11
26.999999999999339
 21
-30.014213562355881
 31
0.0
  0
LINE
  5
154F
  8
241
 10
1.0000000000039391
 20
22.224999999998118
 30
0.0
 11
1.0000000000003291
 21
-22.224999999998889
 31
0.0
  0
TEXT
  5
169E
  8
251
 10
24.79804057289298
 20
50.105090841043371
 30
0.0
 40
3.0
  1
クランプスクリュ
  7
YOKO
 11
24.79804057289298
 21
50.105090841043371
 31
0.0
 73
     1
  0
TEXT
  5
169F
  8
241
 10
-69.367466945559556
 20
70.127179778550698
 30
0.0
 40
5.0
  1
BBT40-HDC19-75
  7
YOKO
 11
-69.367466945559556
 21
70.127179778550698
 31
0.0
 73
     1
  0
LINE
  5
16A0
  8
250
 10
-32.458445288334552
 20
-28.4094330668852
 30
0.0
 11
-50.191778628334532
 21
-28.4094330668852
 31
0.0
1001
ITEMNAME
1000
LNSP2
  0
LINE
  5
16A1
  8
241
  6
CONTINUOUS
 10
36.599951811851
 20
34.75279108086977
 30
0.0
 11
36.599951811851028
 21
48.434140144762623
 31
0.0
  0
INSERT
  5
16A2
  8
241
  6
CONTINUOUS
  2
_OPEN
 10
36.599951811851
 20
32.522791080869773
 30
0.0
 41
6.6900000000000004
 42
6.6900000000000004
 43
6.6900000000000004
 50
269.99999999999989
  0
POLYLINE
  5
16A3
  8
251
 66
     1
 10
0.0
 20
0.0
 30
0.0
 70
     8
  0
VERTEX
  5
16A4
  8
251
 10
34.599916552473552
 20
47.279924553114768
 30
0.0
 70
    32
  0
VERTEX
  5
16A5
  8
251
 10
34.303116552473547
 20
47.232024553114769
 30
0.0
 70
    32
  0
VERTEX
  5
16A6
  8
251
 10
34.01081655247355
 20
47.177624553114768
 30
0.0
 70
    32
  0
VERTEX
  5
16A7
  8
251
 10
33.723716552473547
 20
47.116724553114778
 30
0.0
 70
    32
  0
VERTEX
  5
16A8
  8
251
 10
33.44231655247355
 20
47.049524553114779
 30
0.0
 70
    32
  0
VERTEX
  5
16A9
  8
251
 10
33.167116552473551
 20
46.976024553114783
 30
0.0
 70
    32
  0
VERTEX
  5
16AA
  8
251
 10
32.898816552473548
 20
46.896624553114798
 30
0.0
 70
    32
  0
VERTEX
  5
16AB
  8
251
 10
32.637816552473552
 20
46.811224553114798
 30
0.0
 70
    32
  0
VERTEX
  5
16AC
  8
251
 10
32.384716552473549
 20
46.720124553114779
 30
0.0
 70
    32
  0
VERTEX
  5
16AD
  8
251
 10
32.139916552473551
 20
46.623424553114774
 30
0.0
 70
    32
  0
VERTEX
  5
16AE
  8
251
 10
31.90401655247355
 20
46.52142455311477
 30
0.0
 70
    32
  0
VERTEX
  5
16AF
  8
251
 10
31.677416552473549
 20
46.414224553114799
 30
0.0
 70
    32
  0
VERTEX
  5
16B0
  8
251
 10
31.460616552473549
 20
46.30212455311478
 30
0.0
 70
    32
  0
VERTEX
  5
16B1
  8
251
 10
31.254016552473551
 20
46.185324553114803
 30
0.0
 70
    32
  0
VERTEX
  5
16B2
  8
251
 10
31.05801655247355
 20
46.064024553114798
 30
0.0
 70
    32
  0
VERTEX
  5
16B3
  8
251
 10
30.873016552473551
 20
45.938424553114778
 30
0.0
 70
    32
  0
VERTEX
  5
16B4
  8
251
 10
30.699416552473551
 20
45.808924553114778
 30
0.0
 70
    32
  0
VERTEX
  5
16B5
  8
251
 10
30.537516552473551
 20
45.67562455311478
 30
0.0
 70
    32
  0
VERTEX
  5
16B6
  8
251
 10
30.387616552473549
 20
45.538824553114779
 30
0.0
 70
    32
  0
VERTEX
  5
16B7
  8
251
 10
30.25011655247355
 20
45.398924553114803
 30
0.0
 70
    32
  0
VERTEX
  5
16B8
  8
251
 10
30.12521655247355
 20
45.256024553114798
 30
0.0
 70
    32
  0
VERTEX
  5
16B9
  8
251
 10
30.013116552473551
 20
45.110424553114782
 30
0.0
 70
    32
  0
VERTEX
  5
16BA
  8
251
 10
29.914116552473551
 20
44.962624553114779
 30
0.0
 70
    32
  0
VERTEX
  5
16BB
  8
251
 10
29.828416552473549
 20
44.812624553114787
 30
0.0
 70
    32
  0
VERTEX
  5
16BC
  8
251
 10
29.75611655247355
 20
44.660924553114782
 30
0.0
 70
    32
  0
VERTEX
  5
16BD
  8
251
 10
29.697416552473548
 20
44.50782455311478
 30
0.0
 70
    32
  0
VERTEX
  5
16BE
  8
251
 10
29.65241655247355
 20
44.353424553114799
 30
0.0
 70
    32
  0
VERTEX
  5
16BF
  8
251
 10
29.621216552473548
 20
44.19832455311478
 30
0.0
 70
    32
  0
VERTEX
  5
16C0
  8
251
 10
29.60381655247355
 20
44.042624553114798
 30
0.0
 70
    32
  0
VERTEX
  5
16C1
  8
251
 10
29.600416552473551
 20
43.886624553114778
 30
0.0
 70
    32
  0
VERTEX
  5
16C2
  8
251
 10
29.610816552473551
 20
43.730824553114779
 30
0.0
 70
    32
  0
VERTEX
  5
16C3
  8
251
 10
29.635116552473551
 20
43.575324553114797
 30
0.0
 70
    32
  0
VERTEX
  5
16C4
  8
251
 10
29.673316552473551
 20
43.420524553114767
 30
0.0
 70
    32
  0
VERTEX
  5
16C5
  8
251
 10
29.725216552473551
 20
43.266724553114798
 30
0.0
 70
    32
  0
VERTEX
  5
16C6
  8
251
 10
29.790716552473551
 20
43.114324553114798
 30
0.0
 70
    32
  0
VERTEX
  5
16C7
  8
251
 10
29.869816552473551
 20
42.963424553114798
 30
0.0
 70
    32
  0
VERTEX
  5
16C8
  8
251
 10
29.962216552473549
 20
42.814524553114794
 30
0.0
 70
    32
  0
VERTEX
  5
16C9
  8
251
 10
30.067816552473548
 20
42.66772455311478
 30
0.0
 70
    32
  0
VERTEX
  5
16CA
  8
251
 10
30.186316552473549
 20
42.523524553114797
 30
0.0
 70
    32
  0
VERTEX
  5
16CB
  8
251
 10
30.317616552473549
 20
42.382124553114792
 30
0.0
 70
    32
  0
VERTEX
  5
16CC
  8
251
 10
30.461416552473551
 20
42.243724553114781
 30
0.0
 70
    32
  0
VERTEX
  5
16CD
  8
251
 10
30.61741655247355
 20
42.108624553114787
 30
0.0
 70
    32
  0
VERTEX
  5
16CE
  8
251
 10
30.78521655247355
 20
41.97722455311478
 30
0.0
 70
    32
  0
VERTEX
  5
16CF
  8
251
 10
30.964616552473551
 20
41.849624553114793
 30
0.0
 70
    32
  0
VERTEX
  5
16D0
  8
251
 10
31.155116552473551
 20
41.726124553114794
 30
0.0
 70
    32
  0
VERTEX
  5
16D1
  8
251
 10
31.356516552473551
 20
41.607024553114783
 30
0.0
 70
    32
  0
VERTEX
  5
16D2
  8
251
 10
31.568316552473551
 20
41.492624553114787
 30
0.0
 70
    32
  0
VERTEX
  5
16D3
  8
251
 10
31.790116552473549
 20
41.38292455311479
 30
0.0
 70
    32
  0
VERTEX
  5
16D4
  8
251
 10
32.021416552473561
 20
41.278324553114793
 30
0.0
 70
    32
  0
VERTEX
  5
16D5
  8
251
 10
32.261816552473547
 20
41.179024553114793
 30
0.0
 70
    32
  0
VERTEX
  5
16D6
  8
251
 10
32.510816552473543
 20
41.085124553114788
 30
0.0
 70
    32
  0
VERTEX
  5
16D7
  8
251
 10
32.768016552473547
 20
40.996824553114791
 30
0.0
 70
    32
  0
VERTEX
  5
16D8
  8
251
 10
33.032716552473552
 20
40.91442455311477
 30
0.0
 70
    32
  0
VERTEX
  5
16D9
  8
251
 10
33.304616552473547
 20
40.837924553114789
 30
0.0
 70
    32
  0
VERTEX
  5
16DA
  8
251
 10
33.582916552473549
 20
40.767624553114793
 30
0.0
 70
    32
  0
VERTEX
  5
16DB
  8
251
 10
33.867316552473547
 20
40.703524553114782
 30
0.0
 70
    32
  0
VERTEX
  5
16DC
  8
251
 10
34.157116552473553
 20
40.645924553114789
 30
0.0
 70
    32
  0
VERTEX
  5
16DD
  8
251
 10
34.451716552473549
 20
40.594724553114787
 30
0.0
 70
    32
  0
VERTEX
  5
16DE
  8
251
 10
34.750616552473552
 20
40.550224553114788
 30
0.0
 70
    32
  0
VERTEX
  5
16DF
  8
251
 10
35.053216552473543
 20
40.512324553114787
 30
0.0
 70
    32
  0
VERTEX
  5
16E0
  8
251
 10
35.358916552473531
 20
40.481324553114789
 30
0.0
 70
    32
  0
VERTEX
  5
16E1
  8
251
 10
35.667016552473548
 20
40.457024553114799
 30
0.0
 70
    32
  0
VERTEX
  5
16E2
  8
251
 10
35.976916552473547
 20
40.439724553114793
 30
0.0
 70
    32
  0
VERTEX
  5
16E3
  8
251
 10
36.288116552473547
 20
40.429324553114782
 30
0.0
 70
    32
  0
VERTEX
  5
16E4
  8
251
 10
36.599916552473552
 20
40.425824553114794
 30
0.0
 70
    32
  0
VERTEX
  5
16E5
  8
251
 10
36.911816552473553
 20
40.429324553114782
 30
0.0
 70
    32
  0
VERTEX
  5
16E6
  8
251
 10
37.222916552473528
 20
40.439724553114793
 30
0.0
 70
    32
  0
VERTEX
  5
16E7
  8
251
 10
37.53291655247353
 20
40.457024553114799
 30
0.0
 70
    32
  0
VERTEX
  5
16E8
  8
251
 10
37.841016552473548
 20
40.481324553114789
 30
0.0
 70
    32
  0
VERTEX
  5
16E9
  8
251
 10
38.146716552473528
 20
40.512324553114787
 30
0.0
 70
    32
  0
VERTEX
  5
16EA
  8
251
 10
38.44921655247353
 20
40.550224553114788
 30
0.0
 70
    32
  0
VERTEX
  5
16EB
  8
251
 10
38.748116552473547
 20
40.594724553114787
 30
0.0
 70
    32
  0
VERTEX
  5
16EC
  8
251
 10
39.042816552473553
 20
40.645924553114789
 30
0.0
 70
    32
  0
VERTEX
  5
16ED
  8
251
 10
39.332616552473553
 20
40.703524553114782
 30
0.0
 70
    32
  0
VERTEX
  5
16EE
  8
251
 10
39.616916552473548
 20
40.767624553114793
 30
0.0
 70
    32
  0
VERTEX
  5
16EF
  8
251
 10
39.895316552473531
 20
40.837924553114789
 30
0.0
 70
    32
  0
VERTEX
  5
16F0
  8
251
 10
40.16711655247353
 20
40.91442455311477
 30
0.0
 70
    32
  0
VERTEX
  5
16F1
  8
251
 10
40.431916552473531
 20
40.996824553114791
 30
0.0
 70
    32
  0
VERTEX
  5
16F2
  8
251
 10
40.689016552473532
 20
41.085124553114788
 30
0.0
 70
    32
  0
VERTEX
  5
16F3
  8
251
 10
40.938116552473517
 20
41.179024553114793
 30
0.0
 70
    32
  0
VERTEX
  5
16F4
  8
251
 10
41.178516552473532
 20
41.278324553114793
 30
0.0
 70
    32
  0
VERTEX
  5
16F5
  8
251
 10
41.409816552473529
 20
41.38292455311479
 30
0.0
 70
    32
  0
VERTEX
  5
16F6
  8
251
 10
41.631616552473517
 20
41.492624553114787
 30
0.0
 70
    32
  0
VERTEX
  5
16F7
  8
251
 10
41.843316552473532
 20
41.607024553114783
 30
0.0
 70
    32
  0
VERTEX
  5
16F8
  8
251
 10
42.044716552473531
 20
41.726124553114794
 30
0.0
 70
    32
  0
VERTEX
  5
16F9
  8
251
 10
42.23531655247352
 20
41.849624553114793
 30
0.0
 70
    32
  0
VERTEX
  5
16FA
  8
251
 10
42.414716552473529
 20
41.97722455311478
 30
0.0
 70
    32
  0
VERTEX
  5
16FB
  8
251
 10
42.582516552473507
 20
42.108624553114787
 30
0.0
 70
    32
  0
VERTEX
  5
16FC
  8
251
 10
42.738516552473527
 20
42.243724553114781
 30
0.0
 70
    32
  0
VERTEX
  5
16FD
  8
251
 10
42.88221655247353
 20
42.382124553114792
 30
0.0
 70
    32
  0
VERTEX
  5
16FE
  8
251
 10
43.013516552473533
 20
42.523524553114797
 30
0.0
 70
    32
  0
VERTEX
  5
16FF
  8
251
 10
43.132116552473533
 20
42.66772455311478
 30
0.0
 70
    32
  0
VERTEX
  5
1700
  8
251
 10
43.237716552473529
 20
42.814524553114794
 30
0.0
 70
    32
  0
VERTEX
  5
1701
  8
251
 10
43.330116552473527
 20
42.963424553114798
 30
0.0
 70
    32
  0
VERTEX
  5
1702
  8
251
 10
43.409216552473531
 20
43.114324553114798
 30
0.0
 70
    32
  0
VERTEX
  5
1703
  8
251
 10
43.474716552473531
 20
43.266724553114798
 30
0.0
 70
    32
  0
VERTEX
  5
1704
  8
251
 10
43.526616552473548
 20
43.420524553114767
 30
0.0
 70
    32
  0
VERTEX
  5
1705
  8
251
 10
43.564716552473548
 20
43.575324553114797
 30
0.0
 70
    32
  0
VERTEX
  5
1706
  8
251
 10
43.589116552473548
 20
43.730824553114779
 30
0.0
 70
    32
  0
VERTEX
  5
1707
  8
251
 10
43.599516552473531
 20
43.886624553114778
 30
0.0
 70
    32
  0
VERTEX
  5
1708
  8
251
 10
43.596016552473529
 20
44.042624553114798
 30
0.0
 70
    32
  0
VERTEX
  5
1709
  8
251
 10
43.57871655247353
 20
44.19832455311478
 30
0.0
 70
    32
  0
VERTEX
  5
170A
  8
251
 10
43.547516552473539
 20
44.353424553114799
 30
0.0
 70
    32
  0
VERTEX
  5
170B
  8
251
 10
43.502516552473537
 20
44.50782455311478
 30
0.0
 70
    32
  0
VERTEX
  5
170C
  8
251
 10
43.443816552473528
 20
44.660924553114782
 30
0.0
 70
    32
  0
VERTEX
  5
170D
  8
251
 10
43.37151655247353
 20
44.812624553114787
 30
0.0
 70
    32
  0
VERTEX
  5
170E
  8
251
 10
43.285816552473527
 20
44.962624553114779
 30
0.0
 70
    32
  0
VERTEX
  5
170F
  8
251
 10
43.18681655247353
 20
45.110424553114782
 30
0.0
 70
    32
  0
VERTEX
  5
1710
  8
251
 10
43.074716552473532
 20
45.256024553114798
 30
0.0
 70
    32
  0
VERTEX
  5
1711
  8
251
 10
42.949816552473543
 20
45.398924553114803
 30
0.0
 70
    32
  0
VERTEX
  5
1712
  8
251
 10
42.812216552473522
 20
45.538824553114779
 30
0.0
 70
    32
  0
VERTEX
  5
1713
  8
251
 10
42.66241655247353
 20
45.67562455311478
 30
0.0
 70
    32
  0
VERTEX
  5
1714
  8
251
 10
42.500516552473528
 20
45.808924553114778
 30
0.0
 70
    32
  0
VERTEX
  5
1715
  8
251
 10
42.326816552473531
 20
45.938424553114778
 30
0.0
 70
    32
  0
VERTEX
  5
1716
  8
251
 10
42.141916552473532
 20
46.064024553114798
 30
0.0
 70
    32
  0
VERTEX
  5
1717
  8
251
 10
41.945916552473527
 20
46.185324553114803
 30
0.0
 70
    32
  0
VERTEX
  5
1718
  8
251
 10
41.739316552473532
 20
46.30212455311478
 30
0.0
 70
    32
  0
VERTEX
  5
1719
  8
251
 10
41.522516552473533
 20
46.414224553114799
 30
0.0
 70
    32
  0
VERTEX
  5
171A
  8
251
 10
41.295916552473507
 20
46.52142455311477
 30
0.0
 70
    32
  0
VERTEX
  5
171B
  8
251
 10
41.060016552473527
 20
46.623424553114774
 30
0.0
 70
    32
  0
VERTEX
  5
171C
  8
251
 10
40.815216552473522
 20
46.720124553114779
 30
0.0
 70
    32
  0
VERTEX
  5
171D
  8
251
 10
40.562116552473547
 20
46.811224553114798
 30
0.0
 70
    32
  0
VERTEX
  5
171E
  8
251
 10
40.30111655247353
 20
46.896624553114798
 30
0.0
 70
    32
  0
VERTEX
  5
171F
  8
251
 10
40.032816552473548
 20
46.976024553114783
 30
0.0
 70
    32
  0
VERTEX
  5
1720
  8
251
 10
39.75761655247355
 20
47.049524553114779
 30
0.0
 70
    32
  0
VERTEX
  5
1721
  8
251
 10
39.476216552473552
 20
47.116724553114778
 30
0.0
 70
    32
  0
VERTEX
  5
1722
  8
251
 10
39.189016552473547
 20
47.177624553114768
 30
0.0
 70
    32
  0
VERTEX
  5
1723
  8
251
 10
38.896816552473531
 20
47.232024553114769
 30
0.0
 70
    32
  0
VERTEX
  5
1724
  8
251
 10
38.59991655247353
 20
47.279924553114768
 30
0.0
 70
    32
  0
SEQEND
  5
1725
  8
251
  0
INSERT
  5
1726
  8
251
  6
CONTINUOUS
  2
_OPEN
 10
34.599951811851028
 20
47.279938759796231
 30
0.0
 41
2.2299999999999951
 42
2.2299999999999951
 43
2.2299999999999991
 50
13.18143906999993
  0
TEXT
  5
1727
  8
250
 10
-47.925111961667859
 20
-27.4094330668852
 30
0.0
 40
2.799999999999998
  1
BBT40
  7
YOKO
1001
ITEMNAME
1000
LNSP3
  0
LINE
  5
1728
  8
250
 10
-27.7594689990222
 20
-20.270567396927479
 30
0.0
 11
-32.458445288334552
 21
-28.4094330668852
 31
0.0
1001
ACAD
1000
DSTYLE
1002
{
1070
     6
1000
OPEN
1070
   343
1005
0
1002
}
  0
LINE
  5
1729
  8
250
 10
-28.081341774029251
 20
-20.084734063479541
 30
0.0
 11
-26.644468998334538
 21
-18.339330746885199
 31
0.0
  0
LINE
  5
172A
  8
250
 10
-27.437596224015149
 20
-20.45640073037541
 30
0.0
 11
-26.644468998334538
 21
-18.339330746885199
 31
0.0
  0
LINE
  5
172B
  8
250
 10
-26.644468998334538
 20
-18.339330746885199
 30
0.0
 11
-27.7594689990222
 21
-20.270567396927479
 31
0.0
  0
LINE
  5
173F
  8
250
 10
75.000000000002188
 20
12.37365440326516
 30
0.0
 11
75.000000000002188
 21
57.0
 31
0.0
  0
LINE
  5
1740
  8
250
 10
-0.0000963764029506
 20
22.725049106241801
 30
0.0
 11
-0.0000963764029485
 21
57.0
 31
0.0
  0
LINE
  5
1741
  8
250
 10
72.770000000002184
 20
56.0
 30
0.0
 11
2.2299036235970511
 21
56.0
 31
0.0
  0
LINE
  5
1745
  8
250
 10
75.000000000001194
 20
12.335786437623019
 30
0.0
 11
75.000000000001194
 21
64.0
 31
0.0
  0
LINE
  5
1746
  8
250
 10
-35.999999999997812
 20
12.37365440328642
 30
0.0
 11
-35.999999999997812
 21
64.0
 31
0.0
  0
LINE
  5
1747
  8
250
 10
72.770000000001204
 20
63.0
 30
0.0
 11
-33.769999999997829
 21
63.0
 31
0.0
  0
LINE
  5
174B
  8
250
 10
62.77627330407725
 20
24.599999999949851
 30
0.0
 11
92.0
 21
24.599999999949841
 31
0.0
  0
LINE
  5
174C
  8
250
 10
62.776273304072021
 20
-24.59999999994778
 30
0.0
 11
92.0
 21
-24.599999999947801
 31
0.0
  0
LINE
  5
174D
  8
250
 10
91.0
 20
22.369999999949851
 30
0.0
 11
91.0
 21
-22.36999999994779
 31
0.0
  0
LINE
  5
1751
  8
250
 10
75.500000000001734
 20
9.4999999999999982
 30
0.0
 11
85.0
 21
9.4999999999999911
 31
0.0
  0
LINE
  5
1752
  8
250
 10
84.0
 20
7.2699999999999951
 30
0.0
 11
84.0
 21
-4.4666666666666668
 31
0.0
  0
TEXT
  5
1755
  8
250
 10
90.000000000000014
 20
-5.7999999999989562
 30
0.0
 40
2.799999999999998
  1
\U+220549.2
 50
90.0
  0
LINE
  5
1756
  8
250
 10
91.371666666666684
 20
-22.36999999994779
 30
0.0
 11
91.0
 21
-24.599999999947791
 31
0.0
  0
LINE
  5
1757
  8
250
 10
90.628333333333345
 20
-22.36999999994779
 30
0.0
 11
91.0
 21
-24.599999999947791
 31
0.0
  0
LINE
  5
1758
  8
250
 10
91.0
 20
-24.599999999947791
 30
0.0
 11
91.0
 21
-22.36999999994779
 31
0.0
  0
LINE
  5
1759
  8
250
 10
90.628333333333345
 20
22.369999999949851
 30
0.0
 11
91.0
 21
24.599999999949841
 31
0.0
  0
LINE
  5
175A
  8
250
 10
91.371666666666684
 20
22.369999999949851
 30
0.0
 11
91.0
 21
24.599999999949841
 31
0.0
  0
LINE
  5
175B
  8
250
 10
91.0
 20
24.599999999949841
 30
0.0
 11
91.0
 21
22.369999999949851
 31
0.0
  0
TEXT
  5
175C
  8
250
 10
83.0
 20
-3.733333333333321
 30
0.0
 40
2.799999999999998
  1
\U+220519
 50
90.0
  0
LINE
  5
175D
  8
250
 10
83.628333333333316
 20
7.269999999999996
 30
0.0
 11
84.0
 21
9.4999999999999964
 31
0.0
  0
LINE
  5
175E
  8
250
 10
84.371666666666684
 20
7.269999999999996
 30
0.0
 11
84.0
 21
9.4999999999999964
 31
0.0
  0
LINE
  5
175F
  8
250
 10
84.0
 20
9.4999999999999964
 30
0.0
 11
84.0
 21
7.269999999999996
 31
0.0
  0
TEXT
  5
1760
  8
250
 10
34.833285145132962
 20
57.0
 30
0.0
 40
2.799999999999998
  1
75
  0
LINE
  5
1761
  8
250
 10
2.2299036235970511
 20
55.62833333333333
 30
0.0
 11
-0.0000963764029486
 21
56.0
 31
0.0
  0
LINE
  5
1762
  8
250
 10
2.2299036235970511
 20
56.37166666666667
 30
0.0
 11
-0.0000963764029486
 21
56.0
 31
0.0
  0
LINE
  5
1763
  8
250
 10
-0.0000963764029486
 20
56.0
 30
0.0
 11
2.2299036235970511
 21
56.0
 31
0.0
  0
LINE
  5
1764
  8
250
 10
72.770000000002184
 20
56.37166666666667
 30
0.0
 11
75.000000000002188
 21
56.0
 31
0.0
  0
LINE
  5
1765
  8
250
 10
72.770000000002184
 20
55.62833333333333
 30
0.0
 11
75.000000000002188
 21
56.0
 31
0.0
  0
LINE
  5
1766
  8
250
 10
75.000000000002188
 20
56.0
 30
0.0
 11
72.770000000002184
 21
56.0
 31
0.0
  0
TEXT
  5
1767
  8
250
 10
8.5666666666683575
 20
65.199999999999989
 30
0.0
 40
2.799999999999998
  1
(max.111)
  0
LINE
  5
1768
  8
250
 10
-33.769999999997829
 20
62.62833333333333
 30
0.0
 11
-35.999999999997812
 21
63.0
 31
0.0
  0
LINE
  5
1769
  8
250
 10
-33.769999999997829
 20
63.37166666666667
 30
0.0
 11
-35.999999999997812
 21
63.0
 31
0.0
  0
LINE
  5
176A
  8
250
 10
-35.999999999997812
 20
63.0
 30
0.0
 11
-33.769999999997829
 21
63.0
 31
0.0
  0
LINE
  5
176B
  8
250
 10
72.770000000001204
 20
63.37166666666667
 30
0.0
 11
75.000000000001194
 21
63.0
 31
0.0
  0
LINE
  5
176C
  8
250
 10
72.770000000001204
 20
62.62833333333333
 30
0.0
 11
75.000000000001194
 21
63.0
 31
0.0
  0
LINE
  5
176D
  8
250
 10
75.000000000001194
 20
63.0
 30
0.0
 11
72.770000000001204
 21
63.0
 31
0.0
  0
LINE
  5
1A2E
  8
241
 10
0.0000000000000014
 20
22.2250631611339
 30
0.0
 11
-0.0000000000000014
 21
-22.22506316112224
 31
0.0
  0
LINE
  5
1E2F
  8
240
 10
0.0000000000000014
 20
22.2250631611339
 30
0.0
 11
1.0000000000039391
 21
22.2250631611339
 31
0.0
  0
LINE
  5
1E33
  8
240
 10
-0.0000000000000014
 20
-22.22506316112224
 30
0.0
 11
1.0000000000003291
 21
-22.22506316112224
 31
0.0
  0
VIEWPORT
  5
22
 67
     1
  8
0
 10
261.51769911504419
 20
148.5
 30
0.0
 40
523.0353982300885
 41
297.0
 68
     1
 69
     1
1001
ACAD
1000
MVIEW
1002
{
1070
    16
1010
0.0
1020
0.0
1030
0.0
1010
0.0
1020
0.0
1030
1.0
1040
0.0
1040
297.0
1040
261.51769911504419
1040
148.5
1040
50.0
1040
0.0
1040
0.0
1070
     0
1070
   100
1070
     1
1070
     1
1070
     0
1070
     0
1070
     0
1070
     0
1040
0.0
1040
0.0
1040
0.0
1040
1.0
1040
1.0
1040
10.0
1040
10.0
1070
     0
1002
{
1002
}
1002
}
1001
GENIUS_GENODEF_13
1002
{
1000
HIER
1070
     0
1002
}
1002
{
1000
MANEDIT
1070
     0
1002
}
1002
{
1000
NOSEL
1070
     0
1002
}
1002
{
1000
BEHIND
1070
     0
1002
}
1002
{
1000
OTHER
1070
     0
1002
}
1002
{
1000
REACTOR
1002
}
1001
GENIUS_GENOBJ-N-SDF_13
1002
{
1000
OWNER
1000
GEN
1002
}
1001
GENIUS_GENSCREG_15
1000
PF
1040
1.0
1000
DF
1040
1.0
1000
MIN
1011
0.0
1021
-1.#QNAN00000000000E+000
1031
5.9826010394357958E+291
1021
0.0
1031
0.0
1000
MAX
1011
523.0353982300885
1021
-1.#QNAN00000000000E+000
1031
5.9826010394357958E+291
1021
297.0
1031
0.0
1000
FLAGS
1070
     2
  0
ENDSEC
  0
EOF
