  0
SECTION
  2
HEADER
  9
$ACADVER
  1
AC1009
  9
$INSBASE
 10
0.0
 20
0.0
 30
0.0
  9
$EXTMIN
 10
-66.4000000000001762
 20
-31.5000000000007105
 30
0.0
  9
$EXTMAX
 10
67.223455400000006
 20
61.0000000000000426
 30
0.0
  9
$LIMMIN
 10
0.0
 20
0.0
  9
$LIMMAX
 10
297.0
 20
210.0
  9
$ORTHOMODE
 70
     1
  9
$REGENMODE
 70
     1
  9
$FILLMODE
 70
     1
  9
$QTEXTMODE
 70
     0
  9
$MIRRTEXT
 70
     1
  9
$DRAGMODE
 70
     2
  9
$LTSCALE
 40
10.0
  9
$OSMODE
 70
   807
  9
$ATTMODE
 70
     1
  9
$TEXTSIZE
 40
3.0
  9
$TRACEWID
 40
1.0
  9
$TEXTSTYLE
  7
YOKO
  9
$CLAYER
  8
240
  9
$CELTYPE
  6
BYLAYER
  9
$CECOLOR
 62
   256
  9
$DIMSCALE
 40
1.0
  9
$DIMASZ
 40
2.2299999999999991
  9
$DIMEXO
 40
0.5
  9
$DIMDLI
 40
7.0
  9
$DIMRND
 40
0.0
  9
$DIMDLE
 40
0.0
  9
$DIMEXE
 40
1.0
  9
$DIMTP
 40
0.0
  9
$DIMTM
 40
0.01
  9
$DIMTXT
 40
2.799999999999998
  9
$DIMCEN
 40
0.0
  9
$DIMTSZ
 40
0.0
  9
$DIMTOL
 70
     0
  9
$DIMLIM
 70
     0
  9
$DIMTIH
 70
     0
  9
$DIMTOH
 70
     0
  9
$DIMSE1
 70
     0
  9
$DIMSE2
 70
     0
  9
$DIMTAD
 70
     3
  9
$DIMZIN
 70
     9
  9
$DIMBLK
  1
OPEN
  9
$DIMASO
 70
     1
  9
$DIMSHO
 70
     1
  9
$DIMPOST
  1

  9
$DIMAPOST
  1

  9
$DIMALT
 70
     0
  9
$DIMALTD
 70
     2
  9
$DIMALTF
 40
25.3999999999999986
  9
$DIMLFAC
 40
1.0
  9
$DIMTOFL
 70
     1
  9
$DIMTVP
 40
0.0
  9
$DIMTIX
 70
     1
  9
$DIMSOXD
 70
     0
  9
$DIMSAH
 70
     0
  9
$DIMBLK1
  1

  9
$DIMBLK2
  1

  9
$DIMSTYLE
  2
BIGT
  9
$DIMCLRD
 70
   256
  9
$DIMCLRE
 70
   256
  9
$DIMCLRT
 70
    40
  9
$DIMTFAC
 40
1.0
  9
$DIMGAP
 40
1.0
  9
$LUNITS
 70
     2
  9
$LUPREC
 70
     6
  9
$SKETCHINC
 40
1.0
  9
$FILLETRAD
 40
5.0
  9
$AUNITS
 70
     0
  9
$AUPREC
 70
     6
  9
$MENU
  1
.
  9
$ELEVATION
 40
0.0
  9
$PELEVATION
 40
0.0
  9
$THICKNESS
 40
0.0
  9
$LIMCHECK
 70
     0
  9
$BLIPMODE
 70
     0
  9
$CHAMFERA
 40
0.2
  9
$CHAMFERB
 40
0.2
  9
$SKPOLY
 70
     0
  9
$TDCREATE
 40
2457729.5826041670516133
  9
$TDUPDATE
 40
2458289.7094097221270204
  9
$TDINDWG
 40
0.0143899653
  9
$TDUSRTIMER
 40
0.014389919
  9
$USRTIMER
 70
     1
  9
$ANGBASE
 50
0.0
  9
$ANGDIR
 70
     0
  9
$PDMODE
 70
     1
  9
$PDSIZE
 40
0.0
  9
$PLINEWID
 40
0.0
  9
$COORDS
 70
     1
  9
$SPLFRAME
 70
     0
  9
$SPLINETYPE
 70
     6
  9
$SPLINESEGS
 70
     4
  9
$ATTDIA
 70
     1
  9
$ATTREQ
 70
     1
  9
$HANDLING
 70
     1
  9
$HANDSEED
  5
47D8
  9
$SURFTAB1
 70
     6
  9
$SURFTAB2
 70
     6
  9
$SURFTYPE
 70
     6
  9
$SURFU
 70
     6
  9
$SURFV
 70
     6
  9
$UCSNAME
  2

  9
$UCSORG
 10
0.0
 20
0.0
 30
0.0
  9
$UCSXDIR
 10
1.0
 20
0.0
 30
0.0
  9
$UCSYDIR
 10
0.0
 20
1.0
 30
0.0
  9
$PUCSNAME
  2

  9
$PUCSORG
 10
0.0
 20
0.0
 30
0.0
  9
$PUCSXDIR
 10
1.0
 20
0.0
 30
0.0
  9
$PUCSYDIR
 10
0.0
 20
1.0
 30
0.0
  9
$USERI1
 70
     1
  9
$USERI2
 70
     0
  9
$USERI3
 70
     0
  9
$USERI4
 70
     0
  9
$USERI5
 70
     0
  9
$USERR1
 40
0.0
  9
$USERR2
 40
0.0
  9
$USERR3
 40
0.0
  9
$USERR4
 40
0.0
  9
$USERR5
 40
0.0
  9
$WORLDVIEW
 70
     1
  9
$SHADEDGE
 70
     3
  9
$SHADEDIF
 70
    70
  9
$TILEMODE
 70
     1
  9
$MAXACTVP
 70
    16
  9
$PLIMCHECK
 70
     0
  9
$PEXTMIN
 10
1.0000000000000000E+20
 20
1.0000000000000000E+20
 30
1.0000000000000000E+20
  9
$PEXTMAX
 10
-1.0000000000000000E+20
 20
-1.0000000000000000E+20
 30
-1.0000000000000000E+20
  9
$PLIMMIN
 10
0.0
 20
0.0
  9
$PLIMMAX
 10
420.0
 20
297.0
  9
$UNITMODE
 70
     0
  9
$VISRETAIN
 70
     1
  9
$PLINEGEN
 70
     0
  9
$PSLTSCALE
 70
     1
  0
ENDSEC
  0
SECTION
  2
TABLES
  0
TABLE
  2
VPORT
 70
     1
  0
VPORT
  2
*ACTIVE
 70
     0
 10
0.0
 20
0.0
 11
1.0
 21
1.0
 12
25.6640522787526493
 22
19.8190064226591716
 13
0.0
 23
0.0
 14
7.0
 24
7.0
 15
7.0
 25
7.0
 16
0.0
 26
0.0
 36
1.0
 17
0.0
 27
0.0
 37
0.0
 40
144.3149111317704865
 41
1.887387387387387
 42
50.0
 43
0.0
 44
0.0
 50
0.0
 51
0.0
 71
     0
 72
  2000
 73
     1
 74
     0
 75
     0
 76
     1
 77
     0
 78
     0
  0
ENDTAB
  0
TABLE
  2
LTYPE
 70
    22
  0
LTYPE
  2
CONTINUOUS
 70
     0
  3
Solid line
 72
    65
 73
     0
 40
0.0
  0
LTYPE
  2
CENTER2
 70
     0
  3
___ _ ___ _ ___ _ ___ _ ___ _ ___ _ ___ _ ___ _
 72
    65
 73
     4
 40
1.125
 49
0.75
 49
-0.125
 49
0.125
 49
-0.125
  0
LTYPE
  2
HIDDEN2
 70
     0
  3
_ _ _ _ _ _ _ _ _ _ _ _ _ _ _ _ _ _ _ _ _ _ _ _
 72
    65
 73
     2
 40
0.1875
 49
0.125
 49
-0.0625
  0
LTYPE
  2
PHANTOM2
 70
     0
  3
___ _ _ ___ _ _ ___ _ _ ___ _ _ ___ _ _ ___ _ _
 72
    65
 73
     6
 40
1.25
 49
0.625
 49
-0.125
 49
0.125
 49
-0.125
 49
0.125
 49
-0.125
  0
LTYPE
  2
AMCONSTR
 70
     0
  3
_______________________
 72
    65
 73
     2
 40
9999.0
 49
9999.0
 49
0.0
  0
LTYPE
  2
HIDDEN
 70
     0
  3
Hidden __ __ __ __ __ __ __ __ __ __ __ __ __ _
 72
    65
 73
     2
 40
0.375
 49
0.25
 49
-0.125
  0
LTYPE
  2
CENTER
 70
     0
  3
Center ____ _ ____ _ ____ _ ____ _ ____ _ ____
 72
    65
 73
     4
 40
2.0
 49
1.25
 49
-0.25
 49
0.25
 49
-0.25
  0
LTYPE
  2
AMZIGZAG2
 70
     0
  3
/\/-/\/-/\/-/\/-/\/-/\/
 72
    65
 73
     2
 40
0.4401
 49
0.0001
 49
-0.4400000000000001
  0
LTYPE
  2
ACANSTGB
 70
     0
  3
__ . . __ . .
 72
    65
 73
     6
 40
0.35433070866
 49
0.15748031496
 49
-0.03937007874
 49
0.03937007874
 49
-0.03937007874
 49
0.03937007874
 49
-0.03937007874
  0
LTYPE
  2
ACANSTGL
 70
     0
  3
_ _ _ _ _
 72
    65
 73
     2
 40
0.11811023622
 49
0.07874015748
 49
-0.03937007874
  0
ENDTAB
  0
TABLE
  2
LAYER
 70
     9
  0
LAYER
  2
0
 70
     0
 62
     7
  6
CONTINUOUS
  0
LAYER
  2
240
 70
     0
 62
     4
  6
CONTINUOUS
  0
LAYER
  2
DEFPOINTS
 70
     0
 62
     7
  6
CONTINUOUS
  0
LAYER
  2
245
 70
     0
 62
     2
  6
CENTER2
  0
LAYER
  2
241
 70
     0
 62
   211
  6
CONTINUOUS
  0
LAYER
  2
242
 70
     0
 62
     3
  6
CONTINUOUS
  0
LAYER
  2
243
 70
     0
 62
   211
  6
HIDDEN2
  0
LAYER
  2
247
 70
     0
 62
    60
  6
CONTINUOUS
  0
LAYER
  2
250
 70
     0
 62
     3
  6
CONTINUOUS
  0
ENDTAB
  0
TABLE
  2
STYLE
 70
    10
  0
STYLE
  2
STANDARD
 70
     0
 40
0.0
 41
1.0
 50
0.0
 71
     0
 42
3.0
  3
romans.shx
  4
extfont.shx
  0
STYLE
  2
YOKO
 70
     0
 40
0.0
 41
1.0
 50
0.0
 71
     0
 42
3.0
  3
romans.shx
  4
extfont.shx
  0
STYLE
  2

 70
     1
 40
0.0
 41
1.0
 50
0.0
 71
     0
 42
3.0
  3
genltshp.shx
  4

  0
STYLE
  2
ACANSGDT
 70
     0
 40
0.0
 41
1.0
 50
0.0
 71
     0
 42
3.0
  3
amgdt.shx
  4

  0
ENDTAB
  0
TABLE
  2
VIEW
 70
     0
  0
ENDTAB
  0
TABLE
  2
UCS
 70
     0
  0
ENDTAB
  0
TABLE
  2
APPID
 70
    38
  0
APPID
  2
ACAD
 70
     0
  0
APPID
  2
ACADANNOTATIVE
 70
     0
  0
APPID
  2
GLOBAL
 70
     0
  0
APPID
  2
DETAIL
 70
     0
  0
APPID
  2
GRPNAME
 70
     0
  0
APPID
  2
GPARA
 70
     0
  0
APPID
  2
MCAD_NO_VIS
 70
     0
  0
APPID
  2
ACAD_TEMP_GRAPHIC
 70
     0
  0
APPID
  2
ACATTRIBSERVICES
 70
     0
  0
APPID
  2
GENIUS_GENSCREG_15
 70
     0
  0
APPID
  2
GENIUS_GENODEF_13
 70
     0
  0
APPID
  2
GENIUS_GENOBJ-N-SDF_13
 70
     0
  0
APPID
  2
GENIUS_GENREC_14
 70
     0
  0
APPID
  2
GENIUS_GENOBJ-N-REC_13
 70
     0
  0
APPID
  2
GENIUS_GENDIMSH_14
 70
     0
  0
APPID
  2
GENIUS_GENOBJ-N-DIM_13
 70
     0
  0
APPID
  2
GENIUS_GENDIM_13
 70
     0
  0
APPID
  2
GENIUS_GENDTOL_13
 70
     0
  0
APPID
  2
GENIUS_GENOLIS_13
 70
     0
  0
APPID
  2
GENIUS_GENOENT_13
 70
     0
  0
APPID
  2
GENIUS_GENOBJ-F-FEM_13
 70
     0
  0
APPID
  2
GENIUS_GENOREF_13
 70
     0
  0
APPID
  2
GENIUS_GEFFEM_13
 70
     0
  0
APPID
  2
GENIUS_GEFFEMP_13
 70
     0
  0
APPID
  2
AD_DRAW
 70
     0
  0
APPID
  2
DESIGNERASSEMBLIES
 70
     0
  0
APPID
  2
ACADM_DIM_EDIT
 70
     0
  0
APPID
  2
AMDT_DM_ADJ
 70
     0
  0
APPID
  2
ITEMNAME
 70
     0
  0
APPID
  2
GENIUS_GENOBJ-N-FIL_13
 70
     0
  0
APPID
  2
GENIUS_GENFIL_13
 70
     0
  0
APPID
  2
GENIUS_GENOBJ-N-CHA_13
 70
     0
  0
APPID
  2
ACAD_NAV_VCDISPLAY
 70
     0
  0
APPID
  2
ACAD_EXEMPT_FROM_CAD_STANDARDS
 70
     0
  0
APPID
  2
ACAECLAYERSTANDARD
 70
     0
  0
APPID
  2
ACAD_MLEADERVER
 70
     0
  0
APPID
  2
ACAD_DSTYLE_DIMJAG
 70
     0
  0
APPID
  2
ACAD_DSTYLE_DIMBREAK
 70
     0
  0
ENDTAB
  0
TABLE
  2
DIMSTYLE
 70
    31
  0
DIMSTYLE
  2
STANDARD
 70
     0
  3

  4

  5

  6

  7

 40
1.0
 41
0.18
 42
0.0625
 43
0.38
 44
0.18
 45
0.0
 46
0.0
 47
0.0
 48
0.0
140
0.18
141
0.09
142
0.0
143
25.3999999999999986
144
1.0
145
0.0
146
1.0
147
0.09
 71
     0
 72
     0
 73
     1
 74
     1
 75
     0
 76
     0
 77
     0
 78
     0
170
     0
171
     2
172
     0
173
     0
174
     0
175
     0
176
     0
177
     0
178
     0
  0
DIMSTYLE
  2
BIGT
 70
     0
  3

  4

  5

  6

  7

 40
1.0
 41
2.2299999999999991
 42
0.5
 43
7.0
 44
1.0
 45
0.0
 46
0.0
 47
0.0
 48
0.01
140
2.799999999999998
141
0.0
142
0.0
143
25.3999999999999986
144
1.0
145
0.0
146
1.0
147
1.0
 71
     0
 72
     0
 73
     0
 74
     0
 75
     0
 76
     0
 77
     3
 78
     9
170
     0
171
     2
172
     1
173
     0
174
     1
175
     0
176
   256
177
   256
178
    40
  0
DIMSTYLE
  2
AM_ANSI
 70
     0
  3

  4
mm
  5

  6

  7

 40
1.0
 41
0.12
 42
0.05
 43
0.5
 44
0.1
 45
0.0
 46
0.0
 47
0.1
 48
0.1
140
0.12
141
0.0
142
0.0
143
25.3999999999999986
144
1.0
145
0.0
146
0.71
147
0.06
 71
     0
 72
     0
 73
     1
 74
     1
 75
     0
 76
     0
 77
     0
 78
     7
170
     0
171
     2
172
     0
173
     0
174
     0
175
     0
176
   256
177
   256
178
     2
  0
DIMSTYLE
  2
AM_ANSI$3
 70
     0
  3

  4
mm
  5

  6

  7

 40
1.0
 41
0.12
 42
0.05
 43
0.5
 44
0.1
 45
0.0
 46
0.0
 47
0.1
 48
0.1
140
0.12
141
0.0
142
0.0
143
25.3999999999999986
144
1.0
145
0.0
146
0.71
147
0.06
 71
     0
 72
     0
 73
     1
 74
     1
 75
     0
 76
     0
 77
     0
 78
     7
170
     0
171
     2
172
     0
173
     0
174
     0
175
     0
176
   256
177
   256
178
     2
  0
DIMSTYLE
  2
AM_ANSI$4
 70
     0
  3

  4
mm
  5

  6

  7

 40
1.0
 41
0.12
 42
0.05
 43
0.5
 44
0.1
 45
0.0
 46
0.0
 47
0.1
 48
0.1
140
0.12
141
0.0
142
0.0
143
25.3999999999999986
144
1.0
145
0.0
146
0.71
147
0.06
 71
     0
 72
     0
 73
     1
 74
     1
 75
     0
 76
     0
 77
     0
 78
     7
170
     0
171
     2
172
     0
173
     0
174
     0
175
     0
176
   256
177
   256
178
     2
  0
DIMSTYLE
  2
AM_ANSI$7
 70
     0
  3

  4
mm
  5

  6

  7

 40
1.0
 41
0.12
 42
0.05
 43
0.5
 44
0.1
 45
0.0
 46
0.0
 47
0.1
 48
0.1
140
0.12
141
0.0
142
0.0
143
25.3999999999999986
144
1.0
145
0.0
146
0.71
147
0.06
 71
     0
 72
     0
 73
     1
 74
     1
 75
     0
 76
     0
 77
     0
 78
     7
170
     0
171
     2
172
     0
173
     0
174
     0
175
     0
176
   256
177
   256
178
     2
  0
DIMSTYLE
  2
AM_ANSI$SF
 70
     0
  3

  4
mm
  5

  6

  7

 40
1.0
 41
0.12
 42
0.05
 43
0.5
 44
0.1
 45
0.0
 46
0.0
 47
0.1
 48
0.1
140
0.12
141
0.0
142
0.0
143
25.3999999999999986
144
1.0
145
0.0
146
0.71
147
0.06
 71
     0
 72
     0
 73
     1
 74
     1
 75
     1
 76
     1
 77
     0
 78
     7
170
     0
171
     2
172
     0
173
     0
174
     0
175
     0
176
   256
177
   256
178
     2
  0
DIMSTYLE
  2
AM_ANSI$SH
 70
     0
  3

  4
mm
  5

  6
GENAXEH
  7

 40
1.0
 41
0.12
 42
0.05
 43
0.5
 44
0.1
 45
0.0
 46
0.0
 47
0.1
 48
0.1
140
0.12
141
0.0
142
0.0
143
25.3999999999999986
144
1.0
145
0.0
146
0.71
147
0.06
 71
     0
 72
     0
 73
     1
 74
     1
 75
     1
 76
     1
 77
     0
 78
     7
170
     0
171
     2
172
     0
173
     1
174
     0
175
     0
176
   256
177
   256
178
     2
  0
ENDTAB
  0
ENDSEC
  0
SECTION
  2
BLOCKS
  0
BLOCK
  8
0
  2
$MODEL_SPACE
 70
     0
 10
0.0
 20
0.0
 30
0.0
  3
$MODEL_SPACE
  1

  0
ENDBLK
  5
4696
  8
0
  0
BLOCK
 67
     1
  8
0
  2
$PAPER_SPACE
 70
     0
 10
0.0
 20
0.0
 30
0.0
  3
$PAPER_SPACE
  1

  0
ENDBLK
  5
4692
 67
     1
  8
0
  0
BLOCK
  8
0
  2
_OPEN
 70
     0
 10
0.0
 20
0.0
 30
0.0
  3
_OPEN
  1

  0
LINE
  5
451F
  8
0
  6
BYBLOCK
 62
     0
 10
-1.0
 20
0.1666666666666666
 30
0.0
 11
0.0
 21
0.0
 31
0.0
  0
LINE
  5
4520
  8
0
  6
BYBLOCK
 62
     0
 10
-1.0
 20
-0.1666666666666666
 30
0.0
 11
0.0
 21
0.0
 31
0.0
  0
LINE
  5
4521
  8
0
  6
BYBLOCK
 62
     0
 10
0.0
 20
0.0
 30
0.0
 11
-1.0
 21
0.0
 31
0.0
  0
ENDBLK
  5
4522
  8
0
  0
BLOCK
  8
0
  2
GENAXEH
 70
     0
 10
0.0
 20
0.0
 30
0.0
  3
GENAXEH
  1

  0
LINE
  5
455A
  8
0
 10
-1.0
 20
0.0
 30
0.0
 11
1.0
 21
0.0
 31
0.0
  0
ENDBLK
  5
455B
  8
0
  0
BLOCK
  8
0
  2
*U5
 70
     1
 10
0.0
 20
0.0
 30
0.0
  3
*U5
  1

  0
TEXT
  5
461C
  8
250
 10
56.5567887400000018
 20
43.5520030800001905
 30
0.0
 40
2.799999999999998
  1
CK5
  7
YOKO
  0
ENDBLK
  5
461E
  8
0
  0
BLOCK
  8
0
  2
_ACMFILLEDHALF
 70
     0
 10
0.0
 20
0.0
 30
0.0
  3
_ACMFILLEDHALF
  1

  0
TRACE
  5
4759
  8
240
 62
     0
 10
-0.8
 20
0.0
 30
0.0
 11
-1.0
 21
0.166666666
 31
0.0
 12
0.0
 22
0.0
 32
0.0
 13
0.0
 23
0.0
 33
0.0
  0
LINE
  5
475A
  8
240
 62
     0
 10
-1.0
 20
0.0
 30
0.0
 11
-0.8
 21
0.0
 31
0.0
  0
ENDBLK
  5
4758
  8
0
  0
ENDSEC
  0
SECTION
  2
ENTITIES
  0
LINE
  5
422C
  8
240
  6
CONTINUOUS
 10
26.9999999999998899
 20
-31.5000000000004299
 30
0.0
 11
26.9999999999998899
 21
-30.0000000000000711
 31
0.0
  0
LINE
  5
422D
  8
240
  6
CONTINUOUS
 10
-65.4000000000001194
 20
-12.6875000000000302
 30
0.0
 11
-65.4000000000000909
 21
12.6875000000002007
 31
0.0
  0
LINE
  5
422E
  8
240
  6
CONTINUOUS
 10
0.9999999999997442
 20
-31.4999999999996305
 30
0.0
 11
0.9999999999998574
 21
-22.2250000000000512
 31
0.0
  0
LINE
  5
422F
  8
241
  6
CONTINUOUS
 10
-0.0000000000000853
 20
-22.2250000000000014
 30
0.0
 11
0.0000000000000853
 21
22.2250000000001187
 31
0.0
  0
LINE
  5
4230
  8
240
  6
CONTINUOUS
 10
-0.0000000000001137
 20
-22.2250000000000014
 30
0.0
 11
-65.4000000000001194
 21
-12.6875000000000302
 31
0.0
  0
LINE
  5
4231
  8
240
  6
CONTINUOUS
 10
26.9999999999998899
 20
-31.5000000000004299
 30
0.0
 11
21.6344943473333089
 21
-31.5000000000007105
 31
0.0
  0
LINE
  5
4232
  8
243
  6
HIDDEN2
 10
22.9999999999998899
 20
-22.4999999999999716
 30
0.0
 11
22.9999999999998899
 21
-31.4999999999999716
 31
0.0
  0
LINE
  5
4233
  8
240
  6
CONTINUOUS
 10
0.9999999999997442
 20
-31.4999999999996305
 30
0.0
 11
11.5655056526661006
 21
-31.5000000000003091
 31
0.0
  0
LINE
  5
4234
  8
243
  6
HIDDEN2
 10
22.9999999999998899
 20
-22.4999999999999716
 30
0.0
 11
0.9999999999998864
 21
-22.4999999999999716
 31
0.0
  0
LINE
  5
4235
  8
245
  6
CENTER2
 10
-66.4000000000001762
 20
0.0000000000000853
 30
0.0
 11
49.9298509002502371
 21
-0.0000000000000284
 31
0.0
  0
LINE
  5
4236
  8
240
  6
CONTINUOUS
 10
14.4522569986148604
 20
-26.499999999999801
 30
0.0
 11
11.5655056526662392
 21
-31.5000000000004299
 31
0.0
  0
LINE
  5
4237
  8
240
  6
CONTINUOUS
 10
18.7477430013853983
 20
-26.5000000000000284
 30
0.0
 11
21.6344943473343392
 21
-31.5000000000004299
 31
0.0
  0
LINE
  5
4238
  8
240
  6
CONTINUOUS
 10
14.4522569986145299
 20
-26.4999999999995204
 30
0.0
 11
18.7477430013853983
 21
-26.5000000000000284
 31
0.0
  0
LINE
  5
4239
  8
241
  6
CONTINUOUS
 10
11.5655056526661006
 20
31.5000000000004299
 30
0.0
 11
11.5655056526662392
 21
-31.5000000000004299
 31
0.0
  0
LINE
  5
423A
  8
241
  6
CONTINUOUS
 10
14.4522569986145299
 20
-26.4999999999995204
 30
0.0
 11
14.4522569986144092
 21
26.4999999999993996
 31
0.0
  0
LINE
  5
423B
  8
241
  6
CONTINUOUS
 10
18.7477430013852917
 20
-26.4999999999998614
 30
0.0
 11
18.7477430013853983
 21
26.4999999999999716
 31
0.0
  0
LINE
  5
423C
  8
241
  6
CONTINUOUS
 10
21.6344943473333089
 20
-31.5000000000007105
 30
0.0
 11
21.6344943473333693
 21
31.5000000000006608
 31
0.0
  0
LINE
  5
423D
  8
240
  6
CONTINUOUS
 10
-0.0000000000000853
 20
-22.2250000000000014
 30
0.0
 11
0.9999999999998574
 21
-22.2250000000000512
 31
0.0
  0
LINE
  5
423E
  8
241
  6
CONTINUOUS
 10
0.9999999999998574
 20
-22.2249999999998202
 30
0.0
 11
0.9999999999998574
 21
22.2249999999998202
 31
0.0
  0
LINE
  5
423F
  8
240
  6
CONTINUOUS
 10
0.9999999999998292
 20
31.4999999999996909
 30
0.0
 11
0.9999999999999148
 21
22.2250000000000512
 31
0.0
  0
LINE
  5
4240
  8
240
  6
CONTINUOUS
 10
-0.0000000000000568
 20
22.2250000000000014
 30
0.0
 11
-65.4000000000000909
 21
12.6875000000002007
 31
0.0
  0
LINE
  5
4241
  8
240
  6
CONTINUOUS
 10
26.9999999999999396
 20
31.5000000000003801
 30
0.0
 11
21.6344943473333693
 21
31.5000000000007105
 31
0.0
  0
LINE
  5
4242
  8
243
  6
HIDDEN2
 10
22.9999999999999396
 20
22.4999999999999183
 30
0.0
 11
23.0
 21
31.4999999999999112
 31
0.0
  0
LINE
  5
4243
  8
240
  6
CONTINUOUS
 10
0.9999999999998292
 20
31.4999999999996909
 30
0.0
 11
11.5655056526661895
 21
31.5000000000003801
 31
0.0
  0
LINE
  5
4244
  8
243
  6
HIDDEN2
 10
22.9999999999999396
 20
22.4999999999999183
 30
0.0
 11
0.999999999999943
 21
22.5000000000000284
 31
0.0
  0
LINE
  5
4245
  8
240
  6
CONTINUOUS
 10
14.4522569986149794
 20
26.499999999999801
 30
0.0
 11
11.5655056526663298
 21
31.5000000000004299
 31
0.0
  0
LINE
  5
4246
  8
240
  6
CONTINUOUS
 10
18.7477430013855084
 20
26.5000000000000284
 30
0.0
 11
21.6344943473344493
 21
31.5000000000003801
 31
0.0
  0
LINE
  5
4247
  8
240
  6
CONTINUOUS
 10
14.4522569986145903
 20
26.49999999999946
 30
0.0
 11
18.7477430013855084
 21
26.5000000000000284
 31
0.0
  0
LINE
  5
4248
  8
240
  6
CONTINUOUS
 10
-0.0000000000000284
 20
22.2250000000000512
 30
0.0
 11
0.9999999999999148
 21
22.2250000000000512
 31
0.0
  0
LINE
  5
4249
  8
247
  6
CONTINUOUS
 10
7.999999999999857
 20
-18.2500000000699991
 30
0.0
 11
7.999999999999857
 21
-11.5576923080299991
 31
0.0
  0
ARC
  5
424A
  8
247
  6
CONTINUOUS
 10
6.2500000000698321
 20
-18.2500000000699991
 30
0.0
 40
1.7499999999299991
 50
180.0
 51
0.0
  0
ARC
  5
424B
  8
247
  6
CONTINUOUS
 10
6.2500000000698321
 20
-11.5576923080299991
 30
0.0
 40
1.7499999999299991
 50
0.0
 51
180.0
  0
LINE
  5
424C
  8
247
  6
CONTINUOUS
 10
4.5000000001398632
 20
-17.3846153847199787
 30
0.0
 11
7.5000000000198659
 21
-18.2448515419619888
 31
0.0
  0
LINE
  5
424D
  8
247
  6
CONTINUOUS
 10
5.923076923159865
 20
-16.4849838183357917
 30
0.0
 11
5.923076923159865
 21
-17.7926761259758095
 31
0.0
  0
ARC
  5
424E
  8
247
  6
CONTINUOUS
 10
5.0495986677028384
 20
-16.1451438160897602
 30
0.0
 40
0.5538165441895349
 50
72.9978896752917734
 51
172.9241662185135908
  0
ARC
  5
424F
  8
247
  6
CONTINUOUS
 10
4.9360330444656313
 20
-16.5668783230287602
 30
0.0
 40
0.9904354236226808
 50
4.7429368522022122
 51
73.8492262732662965
1001
GENIUS_GENOBJ-N-FIL_13
1002
{
1000
OWNER
1000
GEN
1002
}
1001
GENIUS_GENODEF_13
1002
{
1000
HIER
1070
     0
1002
}
1002
{
1000
MANEDIT
1070
     0
1002
}
1002
{
1000
NOSEL
1070
     0
1002
}
1002
{
1000
BEHIND
1070
     0
1002
}
1002
{
1000
OTHER
1070
     0
1002
}
1002
{
1000
REACTOR
1002
}
  0
LINE
  5
4250
  8
247
  6
CONTINUOUS
 10
7.5000000000198659
 20
-16.9371592343220208
 30
0.0
 11
7.5000000000198659
 21
-18.2448515419619888
 31
0.0
  0
LINE
  5
4251
  8
247
  6
CONTINUOUS
 10
4.5000000001398632
 20
-17.3846153847199787
 30
0.0
 11
4.5000000001398632
 21
-16.0769230770799503
 31
0.0
  0
ARC
  5
4252
  8
247
  6
CONTINUOUS
 10
6.4820242326653954
 20
-16.56091963654697
 30
0.0
 40
0.5640818586791229
 50
65.990941652528889
 51
172.2634434590690944
  0
ARC
  5
4253
  8
247
  6
CONTINUOUS
 10
6.4874290391864227
 20
-17.0382626853470605
 30
0.0
 40
1.0176059446230981
 50
5.701985164259785
 51
77.2773384368223759
1001
GENIUS_GENOBJ-N-FIL_13
1002
{
1000
OWNER
1000
GEN
1002
}
1001
GENIUS_GENODEF_13
1002
{
1000
HIER
1070
     0
1002
}
1002
{
1000
MANEDIT
1070
     0
1002
}
1002
{
1000
NOSEL
1070
     0
1002
}
1002
{
1000
BEHIND
1070
     0
1002
}
1002
{
1000
OTHER
1070
     0
1002
}
1002
{
1000
REACTOR
1002
}
  0
LINE
  5
4254
  8
247
  6
CONTINUOUS
 10
7.5000000000198659
 20
-15.2833130805419994
 30
0.0
 11
4.5000000001398632
 21
-14.4230769232999894
 31
0.0
  0
LINE
  5
4255
  8
247
  6
CONTINUOUS
 10
4.5000000001398632
 20
-12.00000000032
 30
0.0
 11
4.5000000001398632
 21
-12.5657366194565991
 31
0.0
  0
LINE
  5
4256
  8
247
  6
CONTINUOUS
 10
7.5000000000198659
 20
-13.4615384617999592
 30
0.0
 11
7.5000000000198659
 21
-12.8461538464399894
 31
0.0
  0
ARC
  5
4257
  8
247
  6
CONTINUOUS
 10
6.5832851359732274
 20
-11.7087912091228308
 30
0.0
 40
2.2526500823422122
 50
202.3594881415291127
 51
254.9932485428460893
  0
ARC
  5
4258
  8
247
  6
CONTINUOUS
 10
5.3083126551943831
 20
-12.3740694792131993
 30
0.0
 40
0.8906723995727782
 50
94.9945893190753168
 51
155.1663289573039037
1001
GENIUS_GENOBJ-N-FIL_13
1002
{
1000
OWNER
1000
GEN
1002
}
1001
GENIUS_GENODEF_13
1002
{
1000
HIER
1070
     0
1002
}
1002
{
1000
MANEDIT
1070
     0
1002
}
1002
{
1000
NOSEL
1070
     0
1002
}
1002
{
1000
BEHIND
1070
     0
1002
}
1002
{
1000
OTHER
1070
     0
1002
}
1002
{
1000
REACTOR
1002
}
  0
ARC
  5
4259
  8
247
  6
CONTINUOUS
 10
6.160145888667639
 20
-13.2264588862125496
 30
0.0
 40
1.392781735586712
 50
15.8460965557808002
 51
82.3251370041690649
  0
ARC
  5
425A
  8
247
  6
CONTINUOUS
 10
6.4592434315271401
 20
-12.6422127258403805
 30
0.0
 40
1.324563662670287
 50
249.7136016704968995
 51
321.7887456564092759
1001
GENIUS_GENOBJ-N-FIL_13
1002
{
1000
OWNER
1000
GEN
1002
}
1001
GENIUS_GENODEF_13
1002
{
1000
HIER
1070
     0
1002
}
1002
{
1000
MANEDIT
1070
     0
1002
}
1002
{
1000
NOSEL
1070
     0
1002
}
1002
{
1000
BEHIND
1070
     0
1002
}
1002
{
1000
OTHER
1070
     0
1002
}
1002
{
1000
REACTOR
1002
}
  0
LINE
  5
425B
  8
247
  6
CONTINUOUS
 10
6.3461538462198321
 20
-12.53846153876
 30
0.0
 11
6.3461538462198321
 21
-11.84615384648
 31
0.0
  0
LINE
  5
425C
  8
250
  6
CONTINUOUS
 10
-34.1368727750733001
 20
-19.2016533171059507
 30
0.0
 11
-32.7000000000001023
 21
-17.4562499999999794
 31
0.0
  0
LINE
  5
425D
  8
250
  6
CONTINUOUS
 10
-33.4931272249268801
 20
-19.5733199837726204
 30
0.0
 11
-32.7000000000001023
 21
-17.4562499999999794
 31
0.0
  0
LINE
  5
425E
  8
250
  6
CONTINUOUS
 10
-32.7000000000001023
 20
-17.4562499999999794
 30
0.0
 11
-33.8150000000001114
 21
-19.3874866504392784
 31
0.0
  0
LINE
  5
425F
  8
250
  6
CONTINUOUS
 10
-33.8150000000001114
 20
-19.3874866504392784
 30
0.0
 11
-38.3631300681913103
 21
-27.2650790079781906
 31
0.0
1001
ACAD
1000
DSTYLE
1002
{
1070
   140
1040
4.0
1070
   178
1070
   256
1002
}
  0
TEXT
  5
4260
  8
250
  6
CONTINUOUS
 10
-53.8297967348579505
 20
-26.2650790079781906
 30
0.0
 40
2.799999999999998
  1
BBT40
  7
YOKO
1001
ITEMNAME
1000
LNSP3
  0
LINE
  5
4261
  8
250
  6
CONTINUOUS
 10
-38.3631300681913103
 20
-27.2650790079781906
 30
0.0
 11
-56.0964634015246517
 21
-27.2650790079781906
 31
0.0
1001
ITEMNAME
1000
LNSP2
  0
LINE
  5
4262
  8
247
  6
CONTINUOUS
 10
4.500000000139833
 20
-18.2500000000699991
 30
0.0
 11
4.500000000139833
 21
-17.5769230770200409
 31
0.0
  0
LINE
  5
4270
  8
240
  6
CONTINUOUS
 10
47.9999999999990621
 20
24.9999999999999503
 30
0.0
 11
47.9999999999990621
 21
-25.0000000000000497
 31
0.0
1001
GRPNAME
1000
PASTMD03
  0
LINE
  5
4271
  8
240
  6
CONTINUOUS
 10
31.9999999999998899
 20
-25.0000000000000497
 30
0.0
 11
47.9999999999990621
 21
-25.0000000000000497
 31
0.0
1001
GRPNAME
1000
PASTMD03
  0
LINE
  5
4272
  8
243
  6
HIDDEN2
 10
47.9999999999990408
 20
13.9999999999999503
 30
0.0
 11
15.9499999999990507
 21
13.9999999999999503
 31
0.0
1001
GRPNAME
1000
PASTMD03
  0
LINE
  5
4273
  8
240
  6
CONTINUOUS
 10
31.9999999999997797
 20
24.9999999999999503
 30
0.0
 11
47.9999999999990621
 21
24.9999999999999503
 31
0.0
1001
GRPNAME
1000
PASTMD03
  0
ARC
  5
4274
  8
240
  6
CONTINUOUS
 10
31.9999999999998899
 20
-30.0000000000000497
 30
0.0
 40
5.0
 50
90.0
 51
180.0000000000001137
1001
GENIUS_GENODEF_13
1002
{
1000
HIER
1070
     0
1002
}
1002
{
1000
MANEDIT
1070
     0
1002
}
1002
{
1000
NOSEL
1070
     0
1002
}
1002
{
1000
BEHIND
1070
     0
1002
}
1002
{
1000
OTHER
1070
     0
1002
}
1002
{
1000
REACTOR
1002
}
1001
GENIUS_GENOBJ-N-FIL_13
1002
{
1000
OWNER
1000
GEN
1002
}
  0
ARC
  5
4276
  8
240
  6
CONTINUOUS
 10
31.9999999999997797
 20
29.9999999999999503
 30
0.0
 40
5.0
 50
180.0000000000001137
 51
270.0
1001
GENIUS_GENODEF_13
1002
{
1000
HIER
1070
     0
1002
}
1002
{
1000
MANEDIT
1070
     0
1002
}
1002
{
1000
NOSEL
1070
     0
1002
}
1002
{
1000
BEHIND
1070
     0
1002
}
1002
{
1000
OTHER
1070
     0
1002
}
1002
{
1000
REACTOR
1002
}
1001
GENIUS_GENOBJ-N-FIL_13
1002
{
1000
OWNER
1000
GEN
1002
}
  0
LINE
  5
427E
  8
243
  6
HIDDEN2
 10
47.9999999999990408
 20
-14.0
 30
0.0
 11
15.9499999999990507
 21
-14.0
 31
0.0
1001
GRPNAME
1000
PASTMD03
  0
LINE
  5
427F
  8
240
  6
CONTINUOUS
 10
26.9999999999997797
 20
29.9999999999999503
 30
0.0
 11
26.9999999999997691
 21
31.5000000000003801
 31
0.0
  0
LINE
  5
4280
  8
241
  6
CONTINUOUS
 10
26.9999999999998899
 20
-30.0000000000000497
 30
0.0
 11
26.9999999999997797
 21
29.9999999999999289
 31
0.0
  0
TEXT
  5
42A7
  8
241
  6
CONTINUOUS
 10
-65.4000000000000057
 20
56.0000000000000426
 30
0.0
 40
5.0
  1
BBT40-CKB5-48
  7
YOKO
 11
-65.4000000000000057
 21
56.0000000000000426
 31
0.0
 73
     1
  0
LINE
  5
42A8
  8
250
  6
CONTINUOUS
 10
48.5
 20
-24.9999999999999503
 30
0.0
 11
60.0
 21
-24.9999999999999503
 31
0.0
  0
LINE
  5
42A9
  8
250
  6
CONTINUOUS
 10
48.5
 20
25.0000000000000604
 30
0.0
 11
60.0
 21
25.0000000000000604
 31
0.0
  0
LINE
  5
42AA
  8
250
  6
CONTINUOUS
 10
59.0
 20
-22.7699999999999285
 30
0.0
 11
59.0
 21
22.77000000000006
 31
0.0
  0
LINE
  5
42AB
  8
250
  6
CONTINUOUS
 10
59.3716666666666697
 20
-22.7699999999999285
 30
0.0
 11
59.0
 21
-24.9999999999999503
 31
0.0
  0
LINE
  5
42AC
  8
250
  6
CONTINUOUS
 10
58.6283333333333303
 20
-22.7699999999999285
 30
0.0
 11
59.0
 21
-24.9999999999999503
 31
0.0
  0
LINE
  5
42AD
  8
250
  6
CONTINUOUS
 10
59.0
 20
-24.9999999999999503
 30
0.0
 11
59.0
 21
-22.7699999999999285
 31
0.0
  0
LINE
  5
42AE
  8
250
  6
CONTINUOUS
 10
58.6283333333333303
 20
22.77000000000006
 30
0.0
 11
59.0
 21
25.0000000000000604
 31
0.0
  0
LINE
  5
42AF
  8
250
  6
CONTINUOUS
 10
59.3716666666666697
 20
22.77000000000006
 30
0.0
 11
59.0
 21
25.0000000000000604
 31
0.0
  0
LINE
  5
42B0
  8
250
  6
CONTINUOUS
 10
59.0
 20
25.0000000000000604
 30
0.0
 11
59.0
 21
22.77000000000006
 31
0.0
  0
TEXT
  5
42B1
  8
250
  6
CONTINUOUS
 10
58.0
 20
-3.9333333333332732
 30
0.0
 40
2.799999999999998
  1
\U+220550
 50
90.0
1001
ACAD
1000
MTEXTBEGIN
1070
    73
1070
     1
1070
    44
1040
1.0
1070
    74
1070
     0
1000
MTEXTEND
  0
LINE
  5
42B2
  8
250
  6
CONTINUOUS
 10
0.0
 20
22.7250000000000512
 30
0.0
 11
0.0
 21
43.0000000000000568
 31
0.0
  0
LINE
  5
42B3
  8
250
  6
CONTINUOUS
 10
48.0
 20
25.5000000000000604
 30
0.0
 11
48.0
 21
43.0000000000000568
 31
0.0
  0
LINE
  5
42B4
  8
250
  6
CONTINUOUS
 10
2.2299999999999991
 20
42.0000000000000497
 30
0.0
 11
45.7700000000000031
 21
42.0000000000000497
 31
0.0
  0
LINE
  5
42B5
  8
250
  6
CONTINUOUS
 10
2.2299999999999991
 20
41.6283333333333729
 30
0.0
 11
0.0
 21
42.0000000000000497
 31
0.0
  0
LINE
  5
42B6
  8
250
  6
CONTINUOUS
 10
2.2299999999999991
 20
42.3716666666667265
 30
0.0
 11
0.0
 21
42.0000000000000497
 31
0.0
  0
LINE
  5
42B7
  8
250
  6
CONTINUOUS
 10
0.0
 20
42.0000000000000497
 30
0.0
 11
2.2299999999999991
 21
42.0000000000000497
 31
0.0
  0
LINE
  5
42B8
  8
250
  6
CONTINUOUS
 10
45.7700000000000031
 20
42.3716666666667265
 30
0.0
 11
48.0
 21
42.0000000000000497
 31
0.0
  0
LINE
  5
42B9
  8
250
  6
CONTINUOUS
 10
45.7700000000000031
 20
41.6283333333333729
 30
0.0
 11
48.0
 21
42.0000000000000497
 31
0.0
  0
LINE
  5
42BA
  8
250
  6
CONTINUOUS
 10
48.0
 20
42.0000000000000497
 30
0.0
 11
45.7700000000000031
 21
42.0000000000000497
 31
0.0
  0
TEXT
  5
42BB
  8
250
  6
CONTINUOUS
 10
21.3333333333333393
 20
43.0000000000000568
 30
0.0
 40
2.799999999999998
  1
48
1001
ACAD
1000
MTEXTBEGIN
1070
    73
1070
     1
1070
    44
1040
1.0
1070
    74
1070
     0
1000
MTEXTEND
  0
LINE
  5
42BC
  8
250
  6
CONTINUOUS
 10
45.4600078055911823
 20
26.74540331667977
 30
0.0
 11
44.0231350299999988
 21
25.0000000000001883
 31
0.0
  0
LINE
  5
42BD
  8
250
  6
CONTINUOUS
 10
44.8162622555550385
 20
27.1170699835374585
 30
0.0
 11
44.0231350299999988
 21
25.0000000000001883
 31
0.0
  0
LINE
  5
42BE
  8
250
  6
CONTINUOUS
 10
44.0231350299999988
 20
25.0000000000001883
 30
0.0
 11
45.1381350305731033
 21
26.9312366501086089
 31
0.0
  0
POLYLINE
  5
42BF
  8
250
  6
CONTINUOUS
 66
     1
 10
0.0
 20
0.0
 30
0.0
1001
ACAD
1000
DSTYLE
1002
{
1070
     6
1000
OPEN
1070
   343
1005
594
1002
}
  0
VERTEX
  5
4618
  8
250
  6
CONTINUOUS
 10
45.1381350305731033
 20
26.9312366501086089
 30
0.0
  0
VERTEX
  5
4619
  8
250
  6
CONTINUOUS
 10
54.1567887400000103
 20
42.5520030800001834
 30
0.0
  0
SEQEND
  5
461A
  8
250
  6
CONTINUOUS
  0
INSERT
  5
42C0
  8
240
  2
*U5
 10
0.0
 20
0.0
 30
0.0
  0
LINE
  5
42C1
  8
250
  6
CONTINUOUS
 10
54.1567887400000103
 20
42.5520030800001834
 30
0.0
 11
67.223455400000006
 21
42.5520030800001834
 31
0.0
1001
ITEMNAME
1000
LNSP2
  0
CIRCLE
  5
42C2
  8
241
  6
CONTINUOUS
 10
35.0
 20
0.0000000000000586
 30
0.0
 40
5.1500000000000004
  0
CIRCLE
  5
42C3
  8
242
  6
CONTINUOUS
 10
35.0
 20
0.0000000000000586
 30
0.0
 40
4.5
  0
LINE
  5
42C4
  8
245
  6
CENTER2
 10
35.0
 20
6.1982482400000567
 30
0.0
 11
35.0
 21
-6.14999999999994
 31
0.0
  0
POLYLINE
  5
42C5
  8
241
  6
CONTINUOUS
 66
     1
 10
0.0
 20
0.0
 30
0.0
 70
     1
  0
VERTEX
  5
461F
  8
241
  6
CONTINUOUS
 10
32.5
 20
-1.44337566999994
 30
0.0
  0
VERTEX
  5
4620
  8
241
  6
CONTINUOUS
 10
35.0
 20
-2.88675134999994
 30
0.0
  0
VERTEX
  5
4621
  8
241
  6
CONTINUOUS
 10
37.5
 20
-1.44337566999994
 30
0.0
  0
VERTEX
  5
4622
  8
241
  6
CONTINUOUS
 10
37.5
 20
1.443375670000058
 30
0.0
  0
VERTEX
  5
4623
  8
241
  6
CONTINUOUS
 10
35.0
 20
2.8867513500000581
 30
0.0
  0
VERTEX
  5
4624
  8
241
  6
CONTINUOUS
 10
32.5
 20
1.443375670000058
 30
0.0
  0
SEQEND
  5
4625
  8
241
  6
CONTINUOUS
  0
VIEWPORT
  5
22
 67
     1
  8
0
 10
261.517699115044195
 20
148.5
 30
0.0
 40
523.0353982300885036
 41
297.0
 68
     1
 69
     1
1001
ACAD
1000
MVIEW
1002
{
1070
    16
1010
0.0
1020
0.0
1030
0.0
1010
0.0
1020
0.0
1030
1.0
1040
0.0
1040
297.0
1040
261.517699115044195
1040
148.5
1040
50.0
1040
0.0
1040
0.0
1070
     0
1070
   100
1070
     1
1070
     1
1070
     0
1070
     0
1070
     0
1070
     0
1040
0.0
1040
0.0
1040
0.0
1040
1.0
1040
1.0
1040
10.0
1040
10.0
1070
     0
1002
{
1002
}
1002
}
1001
GENIUS_GENODEF_13
1002
{
1000
HIER
1070
     0
1002
}
1002
{
1000
MANEDIT
1070
     0
1002
}
1002
{
1000
NOSEL
1070
     0
1002
}
1002
{
1000
BEHIND
1070
     0
1002
}
1002
{
1000
OTHER
1070
     0
1002
}
1002
{
1000
REACTOR
1002
}
1001
GENIUS_GENOBJ-N-SDF_13
1002
{
1000
OWNER
1000
GEN
1002
}
1001
GENIUS_GENSCREG_15
1000
PF
1040
1.0
1000
DF
1040
1.0
1000
MIN
1011
0.0
1021
0.0
1031
0.0
1021
0.0
1031
0.0
1000
MAX
1011
523.0353982300885036
1021
0.0
1031
0.0
1021
297.0
1031
0.0
1000
FLAGS
1070
     4
  0
ENDSEC
  0
EOF
