  0
SECTION
  2
HEADER
  9
$ACADVER
  1
AC1009
  9
$INSBASE
 10
0.0
 20
0.0
 30
0.0
  9
$EXTMIN
 10
-62.058575475423822
 20
-36.007506751404783
 30
-0.0015258207003583
  9
$EXTMAX
 10
92.000552820164344
 20
61.005890291925418
 30
0.0000000349246037
  9
$LIMMIN
 10
0.0
 20
0.0
  9
$LIMMAX
 10
297.0
 20
210.0
  9
$ORTHOMODE
 70
     0
  9
$REGENMODE
 70
     1
  9
$FILLMODE
 70
     1
  9
$QTEXTMODE
 70
     0
  9
$MIRRTEXT
 70
     1
  9
$DRAGMODE
 70
     2
  9
$LTSCALE
 40
10.0
  9
$OSMODE
 70
    63
  9
$ATTMODE
 70
     1
  9
$TEXTSIZE
 40
3.0
  9
$TRACEWID
 40
1.0
  9
$TEXTSTYLE
  7
YOKO
  9
$CLAYER
  8
240
  9
$CELTYPE
  6
BYLAYER
  9
$CECOLOR
 62
   256
  9
$DIMSCALE
 40
1.0
  9
$DIMASZ
 40
2.2299999999999991
  9
$DIMEXO
 40
0.5
  9
$DIMDLI
 40
7.0
  9
$DIMRND
 40
0.0
  9
$DIMDLE
 40
0.0
  9
$DIMEXE
 40
1.0
  9
$DIMTP
 40
0.0
  9
$DIMTM
 40
0.01
  9
$DIMTXT
 40
2.7999999999999989
  9
$DIMCEN
 40
0.0
  9
$DIMTSZ
 40
0.0
  9
$DIMTOL
 70
     0
  9
$DIMLIM
 70
     0
  9
$DIMTIH
 70
     0
  9
$DIMTOH
 70
     0
  9
$DIMSE1
 70
     0
  9
$DIMSE2
 70
     0
  9
$DIMTAD
 70
     3
  9
$DIMZIN
 70
     9
  9
$DIMBLK
  1
OPEN
  9
$DIMASO
 70
     1
  9
$DIMSHO
 70
     1
  9
$DIMPOST
  1

  9
$DIMAPOST
  1

  9
$DIMALT
 70
     0
  9
$DIMALTD
 70
     2
  9
$DIMALTF
 40
25.399999999999999
  9
$DIMLFAC
 40
1.0
  9
$DIMTOFL
 70
     1
  9
$DIMTVP
 40
0.0
  9
$DIMTIX
 70
     1
  9
$DIMSOXD
 70
     0
  9
$DIMSAH
 70
     0
  9
$DIMBLK1
  1

  9
$DIMBLK2
  1

  9
$DIMSTYLE
  2
BIGT
  9
$DIMCLRD
 70
   256
  9
$DIMCLRE
 70
   256
  9
$DIMCLRT
 70
    40
  9
$DIMTFAC
 40
1.0
  9
$DIMGAP
 40
1.0
  9
$LUNITS
 70
     2
  9
$LUPREC
 70
     6
  9
$SKETCHINC
 40
1.0
  9
$FILLETRAD
 40
0.0
  9
$AUNITS
 70
     0
  9
$AUPREC
 70
     6
  9
$MENU
  1
.
  9
$ELEVATION
 40
0.0
  9
$PELEVATION
 40
0.0
  9
$THICKNESS
 40
0.0
  9
$LIMCHECK
 70
     0
  9
$BLIPMODE
 70
     0
  9
$CHAMFERA
 40
0.2
  9
$CHAMFERB
 40
0.2
  9
$SKPOLY
 70
     0
  9
$TDCREATE
 40
2457241.685157246
  9
$TDUPDATE
 40
2457242.3790044561
  9
$TDINDWG
 40
0.0208953935
  9
$TDUSRTIMER
 40
0.0208953588
  9
$USRTIMER
 70
     1
  9
$ANGBASE
 50
0.0
  9
$ANGDIR
 70
     0
  9
$PDMODE
 70
     1
  9
$PDSIZE
 40
0.0
  9
$PLINEWID
 40
0.0
  9
$COORDS
 70
     1
  9
$SPLFRAME
 70
     0
  9
$SPLINETYPE
 70
     6
  9
$SPLINESEGS
 70
     4
  9
$ATTDIA
 70
     1
  9
$ATTREQ
 70
     1
  9
$HANDLING
 70
     1
  9
$HANDSEED
  5
4AF9
  9
$SURFTAB1
 70
     6
  9
$SURFTAB2
 70
     6
  9
$SURFTYPE
 70
     6
  9
$SURFU
 70
     6
  9
$SURFV
 70
     6
  9
$UCSNAME
  2

  9
$UCSORG
 10
0.0
 20
0.0
 30
0.0
  9
$UCSXDIR
 10
1.0
 20
0.0
 30
0.0
  9
$UCSYDIR
 10
0.0
 20
1.0
 30
0.0
  9
$PUCSNAME
  2

  9
$PUCSORG
 10
0.0
 20
0.0
 30
0.0
  9
$PUCSXDIR
 10
1.0
 20
0.0
 30
0.0
  9
$PUCSYDIR
 10
0.0
 20
1.0
 30
0.0
  9
$USERI1
 70
     1
  9
$USERI2
 70
     0
  9
$USERI3
 70
     0
  9
$USERI4
 70
     0
  9
$USERI5
 70
     0
  9
$USERR1
 40
0.0
  9
$USERR2
 40
0.0
  9
$USERR3
 40
0.0
  9
$USERR4
 40
0.0
  9
$USERR5
 40
0.0
  9
$WORLDVIEW
 70
     1
  9
$SHADEDGE
 70
     3
  9
$SHADEDIF
 70
    70
  9
$TILEMODE
 70
     1
  9
$MAXACTVP
 70
    16
  9
$PLIMCHECK
 70
     0
  9
$PEXTMIN
 10
1.0000000000000000E+020
 20
1.0000000000000000E+020
 30
1.0000000000000000E+020
  9
$PEXTMAX
 10
-1.0000000000000000E+020
 20
-1.0000000000000000E+020
 30
-1.0000000000000000E+020
  9
$PLIMMIN
 10
0.0
 20
0.0
  9
$PLIMMAX
 10
420.0
 20
297.0
  9
$UNITMODE
 70
     0
  9
$VISRETAIN
 70
     1
  9
$PLINEGEN
 70
     0
  9
$PSLTSCALE
 70
     1
  0
ENDSEC
  0
SECTION
  2
TABLES
  0
TABLE
  2
VPORT
 70
     1
  0
VPORT
  2
*ACTIVE
 70
     0
 10
0.0
 20
0.0
 11
1.0
 21
1.0
 12
14.970988672370259
 22
12.499191770260319
 13
0.0
 23
0.0
 14
7.0
 24
7.0
 15
7.0
 25
7.0
 16
0.0
 26
0.0
 36
1.0
 17
0.0
 27
0.0
 37
0.0
 40
107.8147809180977
 41
1.4355016538037479
 42
50.0
 43
0.0
 44
0.0
 50
0.0
 51
0.0
 71
     0
 72
  2000
 73
     1
 74
     0
 75
     0
 76
     1
 77
     0
 78
     0
  0
ENDTAB
  0
TABLE
  2
LTYPE
 70
    13
  0
LTYPE
  2
CONTINUOUS
 70
     0
  3
Solid line
 72
    65
 73
     0
 40
0.0
  0
LTYPE
  2
CENTER2
 70
     0
  3
___ _ ___ _ ___ _ ___ _ ___ _ ___ _ ___ _ ___ _
 72
    65
 73
     4
 40
1.125
 49
0.75
 49
-0.125
 49
0.125
 49
-0.125
  0
LTYPE
  2
HIDDEN2
 70
     0
  3
_ _ _ _ _ _ _ _ _ _ _ _ _ _ _ _ _ _ _ _ _ _ _ _
 72
    65
 73
     2
 40
0.1875
 49
0.125
 49
-0.0625
  0
LTYPE
  2
PHANTOM2
 70
     0
  3
___ _ _ ___ _ _ ___ _ _ ___ _ _ ___ _ _ ___ _ _
 72
    65
 73
     6
 40
1.25
 49
0.625
 49
-0.125
 49
0.125
 49
-0.125
 49
0.125
 49
-0.125
  0
LTYPE
  2
AM_ISO02W050
 70
     0
  3
__ __ __ __ __ __ __ __ __ __ __ __ __ __ __
 72
    65
 73
     2
 40
7.5
 49
6.0
 49
-1.5
  0
LTYPE
  2
AMCONSTR
 70
     0
  3
_______________________
 72
    65
 73
     2
 40
9999.0
 49
9999.0
 49
0.0
  0
LTYPE
  2
ACISOWELD
 70
     0
  3
_ _ _ _ _
 72
    65
 73
     2
 40
2.0
 49
2.0
 49
-1.0
  0
LTYPE
  2
ACISOTGB
 70
     0
  3
__ . . __ . .
 72
    65
 73
     6
 40
9.0
 49
4.0
 49
-1.0
 49
1.0
 49
-1.0
 49
1.0
 49
-1.0
  0
LTYPE
  2
ACISOTGL
 70
     0
  3
_ _ _ _ _
 72
    65
 73
     2
 40
3.0
 49
2.0
 49
-1.0
  0
LTYPE
  2
ACJISTGB
 70
     0
  3
__ . . __ . .
 72
    65
 73
     6
 40
9.0
 49
4.0
 49
-1.0
 49
1.0
 49
-1.0
 49
1.0
 49
-1.0
  0
LTYPE
  2
ACJISTGL
 70
     0
  3
_ _ _ _ _
 72
    65
 73
     2
 40
3.0
 49
2.0
 49
-1.0
  0
ENDTAB
  0
TABLE
  2
LAYER
 70
    10
  0
LAYER
  2
0
 70
     0
 62
     7
  6
CONTINUOUS
  0
LAYER
  2
DEFPOINTS
 70
     0
 62
     7
  6
CONTINUOUS
  0
LAYER
  2
245
 70
     0
 62
     2
  6
CENTER2
  0
LAYER
  2
240
 70
     0
 62
     4
  6
CONTINUOUS
  0
LAYER
  2
241
 70
     0
 62
   211
  6
CONTINUOUS
  0
LAYER
  2
242
 70
     0
 62
     3
  6
CONTINUOUS
  0
LAYER
  2
243
 70
     0
 62
   211
  6
HIDDEN2
  0
LAYER
  2
244
 70
     0
 62
     3
  6
HIDDEN2
  0
LAYER
  2
246
 70
     0
 62
     3
  6
PHANTOM2
  0
LAYER
  2
250
 70
     0
 62
     3
  6
CONTINUOUS
  0
ENDTAB
  0
TABLE
  2
STYLE
 70
     6
  0
STYLE
  2
STANDARD
 70
     0
 40
0.0
 41
1.0
 50
0.0
 71
     0
 42
3.0
  3
romans.shx
  4
extfont.shx
  0
STYLE
  2
ACISOTS
 70
     0
 40
1.0
 41
1.0
 50
0.0
 71
     0
 42
3.0
  3
amgdt.shx
  4
extfont.shx
  0
STYLE
  2
ACISOGDT
 70
     0
 40
0.0
 41
1.0
 50
0.0
 71
     0
 42
3.0
  3
amgdt.shx
  4
extfont.shx
  0
STYLE
  2
ACJISTS
 70
     0
 40
1.0
 41
1.0
 50
0.0
 71
     0
 42
3.0
  3
amgdt.shx
  4
extfont.shx
  0
STYLE
  2
ACJISGDT
 70
     0
 40
0.0
 41
1.0
 50
0.0
 71
     0
 42
3.0
  3
amgdt.shx
  4
extfont.shx
  0
STYLE
  2
YOKO
 70
     0
 40
0.0
 41
1.0
 50
0.0
 71
     0
 42
3.0
  3
romans.shx
  4
extfont.shx
  0
ENDTAB
  0
TABLE
  2
VIEW
 70
     0
  0
ENDTAB
  0
TABLE
  2
UCS
 70
     0
  0
ENDTAB
  0
TABLE
  2
APPID
 70
    41
  0
APPID
  2
ACAD
 70
     0
  0
APPID
  2
GLOBAL
 70
     0
  0
APPID
  2
DETAIL
 70
     0
  0
APPID
  2
GRPNAME
 70
     0
  0
APPID
  2
GPARA
 70
     0
  0
APPID
  2
MCAD_NO_VIS
 70
     0
  0
APPID
  2
ACAD_TEMP_GRAPHIC
 70
     0
  0
APPID
  2
ACATTRIBSERVICES
 70
     0
  0
APPID
  2
GENIUS_GENSCREG_15
 70
     0
  0
APPID
  2
GENIUS_GENODEF_13
 70
     0
  0
APPID
  2
GENIUS_GENOBJ-N-SDF_13
 70
     0
  0
APPID
  2
GENIUS_GENREC_14
 70
     0
  0
APPID
  2
GENIUS_GENOBJ-N-REC_13
 70
     0
  0
APPID
  2
GENIUS_GENDIMSH_14
 70
     0
  0
APPID
  2
GENIUS_GENOBJ-N-DIM_13
 70
     0
  0
APPID
  2
GENIUS_GENDIM_13
 70
     0
  0
APPID
  2
GENIUS_GENDTOL_13
 70
     0
  0
APPID
  2
GENIUS_GENOLIS_13
 70
     0
  0
APPID
  2
GENIUS_GENOENT_13
 70
     0
  0
APPID
  2
GENIUS_GENOBJ-F-FEM_13
 70
     0
  0
APPID
  2
GENIUS_GENOREF_13
 70
     0
  0
APPID
  2
GENIUS_GEFFEM_13
 70
     0
  0
APPID
  2
GENIUS_GEFFEMP_13
 70
     0
  0
APPID
  2
AD_DRAW
 70
     0
  0
APPID
  2
DESIGNERASSEMBLIES
 70
     0
  0
APPID
  2
ACADM_DIM_EDIT
 70
     0
  0
APPID
  2
AMDT_DM_ADJ
 70
     0
  0
APPID
  2
ITEMNAME
 70
     0
  0
APPID
  2
GENIUS_GENOBJ-N-FIL_13
 70
     0
  0
APPID
  2
GENIUS_GENFIL_13
 70
     0
  0
APPID
  2
GENIUS_GENOBJ-N-CHA_13
 70
     0
  0
APPID
  2
ACAD_NAV_VCDISPLAY
 70
     0
  0
APPID
  2
ACAD_DSTYLE_DIMINSPECT
 70
     0
  0
APPID
  2
ACAD_DSTYLE_DIMJAG
 70
     0
  0
APPID
  2
ACAD_DSTYLE_DIMBREAK
 70
     0
  0
APPID
  2
ACAD_EXEMPT_FROM_CAD_STANDARDS
 70
     0
  0
APPID
  2
ACAD_MLEADERVER
 70
     0
  0
APPID
  2
ACAD_DSTYLE_DIMARC_LENGTH_
 70
     0
  0
APPID
  2
ACAD_DSTYLE_DIM_LINETYPE
 70
     0
  0
APPID
  2
ACAD_DSTYLE_DIM_EXT1_LINETYPE
 70
     0
  0
APPID
  2
ACAD_DSTYLE_DIM_EXT2_LINETYPE
 70
     0
  0
ENDTAB
  0
TABLE
  2
DIMSTYLE
 70
    23
  0
DIMSTYLE
  2
BIGT
 70
     0
  3

  4

  5
OPEN
  6

  7

 40
1.0
 41
2.2299999999999991
 42
0.5
 43
7.0
 44
1.0
 45
0.0
 46
0.0
 47
0.0
 48
0.01
140
2.7999999999999989
141
0.0
142
0.0
143
25.399999999999999
144
1.0
145
0.0
146
1.0
147
1.0
 71
     0
 72
     0
 73
     0
 74
     0
 75
     0
 76
     0
 77
     3
 78
     9
170
     0
171
     2
172
     1
173
     0
174
     1
175
     0
176
   256
177
   256
178
    40
  0
DIMSTYLE
  2
AM_ISO
 70
     0
  3

  4
"
  5

  6

  7

 40
1.0
 41
2.5
 42
1.0
 43
10.0
 44
1.0
 45
0.0
 46
0.0
 47
0.1
 48
0.1
140
3.5
141
0.0
142
0.0
143
0.0393701
144
1.0
145
0.0
146
0.71
147
1.5
 71
     0
 72
     0
 73
     0
 74
     0
 75
     0
 76
     0
 77
     1
 78
     8
170
     0
171
     2
172
     1
173
     0
174
     0
175
     0
176
   256
177
   256
178
     2
  0
DIMSTYLE
  2
AM_ISO$3
 70
     0
  3

  4
"
  5

  6

  7

 40
1.0
 41
2.5
 42
1.0
 43
10.0
 44
1.0
 45
0.0
 46
0.0
 47
0.1
 48
0.1
140
3.5
141
0.0
142
0.0
143
0.0393701
144
1.0
145
0.0
146
0.71
147
1.5
 71
     0
 72
     0
 73
     0
 74
     1
 75
     0
 76
     0
 77
     1
 78
     8
170
     0
171
     2
172
     0
173
     0
174
     0
175
     0
176
   256
177
   256
178
     2
  0
DIMSTYLE
  2
AM_ISO$4
 70
     0
  3

  4
"
  5

  6

  7

 40
1.0
 41
2.5
 42
1.0
 43
10.0
 44
1.0
 45
0.0
 46
0.0
 47
0.1
 48
0.1
140
3.5
141
0.0
142
0.0
143
0.0393701
144
1.0
145
0.0
146
0.71
147
1.5
 71
     0
 72
     0
 73
     0
 74
     1
 75
     0
 76
     0
 77
     1
 78
     8
170
     0
171
     2
172
     0
173
     0
174
     0
175
     0
176
   256
177
   256
178
     2
  0
DIMSTYLE
  2
AM_ISO$6
 70
     0
  3

  4
"
  5

  6

  7

 40
1.0
 41
2.5
 42
1.0
 43
10.0
 44
1.0
 45
0.0
 46
0.0
 47
0.1
 48
0.1
140
3.5
141
0.0
142
0.0
143
0.0393701
144
1.0
145
0.0
146
0.71
147
1.5
 71
     0
 72
     0
 73
     0
 74
     0
 75
     0
 76
     0
 77
     0
 78
     8
170
     0
171
     2
172
     1
173
     0
174
     0
175
     0
176
   256
177
   256
178
     2
  0
DIMSTYLE
  2
AM_ISO$7
 70
     0
  3

  4
"
  5

  6

  7

 40
1.0
 41
2.5
 42
1.0
 43
10.0
 44
1.0
 45
0.0
 46
0.0
 47
0.1
 48
0.1
140
5.0
141
0.0
142
0.0
143
0.0393701
144
1.0
145
0.0
146
0.71
147
1.5
 71
     0
 72
     0
 73
     0
 74
     0
 75
     0
 76
     0
 77
     1
 78
     8
170
     0
171
     2
172
     1
173
     0
174
     0
175
     0
176
   256
177
   256
178
     2
  0
DIMSTYLE
  2
AM_ISO$SF
 70
     0
  3

  4
"
  5

  6

  7

 40
1.0
 41
2.5
 42
1.0
 43
10.0
 44
1.0
 45
0.0
 46
0.0
 47
0.1
 48
0.1
140
3.5
141
0.0
142
0.0
143
0.0393701
144
1.0
145
0.0
146
0.71
147
1.5
 71
     0
 72
     0
 73
     0
 74
     0
 75
     1
 76
     1
 77
     1
 78
     8
170
     0
171
     2
172
     1
173
     0
174
     0
175
     0
176
   256
177
   256
178
     2
  0
DIMSTYLE
  2
AM_ISO$SH
 70
     0
  3

  4
"
  5

  6
GENAXEH
  7

 40
1.0
 41
2.5
 42
1.0
 43
10.0
 44
1.0
 45
0.0
 46
0.0
 47
0.1
 48
0.1
140
3.5
141
0.0
142
0.0
143
0.0393701
144
2.0
145
0.0
146
0.71
147
1.5
 71
     0
 72
     0
 73
     0
 74
     0
 75
     1
 76
     1
 77
     1
 78
     8
170
     0
171
     2
172
     1
173
     1
174
     0
175
     0
176
   256
177
   256
178
     2
  0
DIMSTYLE
  2
BIGT$2
 70
     0
  3

  4

  5
OPEN
  6

  7

 40
1.0
 41
2.2299999999999991
 42
0.5
 43
7.0
 44
1.0
 45
0.0
 46
0.0
 47
0.0
 48
0.01
140
2.7999999999999989
141
0.0
142
0.0
143
25.399999999999999
144
1.0
145
0.0
146
1.0
147
1.0
 71
     0
 72
     0
 73
     0
 74
     0
 75
     0
 76
     0
 77
     3
 78
     9
170
     0
171
     2
172
     1
173
     0
174
     0
175
     0
176
   256
177
   256
178
    40
  0
DIMSTYLE
  2
BIGT$3
 70
     0
  3

  4

  5
OPEN
  6

  7

 40
1.0
 41
2.2299999999999991
 42
0.5
 43
2.5
 44
1.0
 45
0.0
 46
0.0
 47
0.0
 48
0.01
140
2.7999999999999989
141
0.0
142
0.0
143
25.399999999999999
144
1.0
145
0.0
146
1.0
147
1.0
 71
     0
 72
     0
 73
     0
 74
     0
 75
     0
 76
     0
 77
     3
 78
     9
170
     0
171
     2
172
     1
173
     0
174
     0
175
     0
176
   256
177
   256
178
    40
  0
DIMSTYLE
  2
BIGT$7
 70
     0
  3

  4

  5
OPEN
  6

  7

 40
0.0
 41
2.2299999999999991
 42
0.5
 43
7.0
 44
1.0
 45
0.0
 46
0.0
 47
0.0
 48
0.01
140
2.7999999999999989
141
0.0
142
0.0
143
25.399999999999999
144
1.0
145
0.0
146
1.0
147
1.0
 71
     0
 72
     0
 73
     0
 74
     0
 75
     0
 76
     0
 77
     3
 78
     9
170
     0
171
     2
172
     0
173
     0
174
     0
175
     0
176
   256
177
   256
178
    40
  0
DIMSTYLE
  2
BIGT$6
 70
     0
  3

  4

  5
OPEN
  6

  7

 40
1.0
 41
2.2299999999999991
 42
0.5
 43
2.5
 44
1.0
 45
0.0
 46
0.0
 47
0.0
 48
0.01
140
2.7999999999999989
141
0.0
142
0.0
143
25.399999999999999
144
1.0
145
0.0
146
1.0
147
1.0
 71
     0
 72
     0
 73
     0
 74
     0
 75
     0
 76
     0
 77
     3
 78
     9
170
     0
171
     2
172
     1
173
     0
174
     0
175
     0
176
   256
177
   256
178
    40
  0
DIMSTYLE
  2
BIGT$0
 70
     0
  3

  4

  5
OPEN
  6

  7

 40
1.0
 41
2.2299999999999991
 42
0.5
 43
7.0
 44
1.0
 45
0.0
 46
0.0
 47
0.0
 48
0.01
140
2.7999999999999989
141
0.0
142
0.0
143
25.399999999999999
144
1.0
145
0.0
146
1.0
147
1.0
 71
     0
 72
     0
 73
     0
 74
     0
 75
     0
 76
     0
 77
     3
 78
     9
170
     0
171
     2
172
     1
173
     0
174
     1
175
     0
176
   256
177
   256
178
    40
  0
DIMSTYLE
  2
BIGT$4
 70
     0
  3

  4

  5
OPEN
  6

  7

 40
1.0
 41
2.2299999999999991
 42
0.5
 43
2.5
 44
1.0
 45
0.0
 46
0.0
 47
0.0
 48
0.01
140
2.7999999999999989
141
0.0
142
0.0
143
25.399999999999999
144
1.0
145
0.0
146
1.0
147
1.0
 71
     0
 72
     0
 73
     0
 74
     0
 75
     0
 76
     0
 77
     3
 78
     9
170
     0
171
     2
172
     1
173
     0
174
     0
175
     0
176
   256
177
   256
178
    40
  0
DIMSTYLE
  2
BIGT$SH
 70
     0
  3

  4

  5
OPEN
  6

  7

 40
1.0
 41
2.2299999999999991
 42
0.5
 43
7.0
 44
1.0
 45
0.0
 46
0.0
 47
0.0
 48
0.0
140
2.7999999999999989
141
0.0
142
0.0
143
25.399999999999999
144
1.0
145
0.0
146
1.0
147
1.0
 71
     0
 72
     0
 73
     0
 74
     0
 75
     0
 76
     0
 77
     3
 78
     9
170
     0
171
     2
172
     1
173
     0
174
     0
175
     0
176
   256
177
   256
178
    40
  0
DIMSTYLE
  2
BIGT$SF
 70
     0
  3

  4

  5
OPEN
  6

  7

 40
1.0
 41
2.2299999999999991
 42
0.5
 43
7.0
 44
1.0
 45
0.0
 46
0.0
 47
0.0
 48
0.0
140
2.7999999999999989
141
0.0
142
0.0
143
25.399999999999999
144
1.0
145
0.0
146
1.0
147
1.0
 71
     0
 72
     0
 73
     0
 74
     0
 75
     0
 76
     0
 77
     3
 78
     9
170
     0
171
     2
172
     1
173
     0
174
     0
175
     0
176
   256
177
   256
178
    40
  0
DIMSTYLE
  2
TECHNICAL_OSAKA
 70
     0
  3

  4
"
  5
OPEN30
  6

  7

 40
1.0
 41
2.5
 42
1.0
 43
10.0
 44
1.0
 45
0.0
 46
0.0
 47
0.1
 48
0.1
140
2.7999999999999989
141
0.0
142
0.0
143
0.0393701
144
1.0
145
0.0
146
0.71
147
1.5
 71
     0
 72
     0
 73
     0
 74
     0
 75
     0
 76
     0
 77
     3
 78
     8
170
     0
171
     2
172
     1
173
     0
174
     0
175
     0
176
   256
177
   256
178
    40
  0
DIMSTYLE
  2
TECHNICAL_OSAKA$3
 70
     0
  3

  4
"
  5
OPEN30
  6

  7

 40
1.0
 41
2.5
 42
1.0
 43
10.0
 44
1.0
 45
0.0
 46
0.0
 47
0.1
 48
0.1
140
2.7999999999999989
141
0.0
142
0.0
143
0.0393701
144
1.0
145
0.0
146
0.71
147
1.5
 71
     0
 72
     0
 73
     0
 74
     1
 75
     0
 76
     0
 77
     3
 78
     8
170
     0
171
     2
172
     0
173
     0
174
     0
175
     0
176
   256
177
   256
178
    40
  0
DIMSTYLE
  2
TECHNICAL_OSAKA$4
 70
     0
  3

  4
"
  5
OPEN30
  6

  7

 40
1.0
 41
2.5
 42
1.0
 43
10.0
 44
1.0
 45
0.0
 46
0.0
 47
0.1
 48
0.1
140
2.7999999999999989
141
0.0
142
0.0
143
0.0393701
144
1.0
145
0.0
146
0.71
147
1.5
 71
     0
 72
     0
 73
     0
 74
     1
 75
     0
 76
     0
 77
     3
 78
     8
170
     0
171
     2
172
     0
173
     0
174
     0
175
     0
176
   256
177
   256
178
    40
  0
DIMSTYLE
  2
TECHNICAL_OSAKA$6
 70
     0
  3

  4
"
  5
OPEN30
  6

  7

 40
1.0
 41
2.5
 42
1.0
 43
10.0
 44
1.0
 45
0.0
 46
0.0
 47
0.1
 48
0.1
140
2.7999999999999989
141
0.0
142
0.0
143
0.0393701
144
1.0
145
0.0
146
0.71
147
1.5
 71
     0
 72
     0
 73
     0
 74
     0
 75
     0
 76
     0
 77
     0
 78
     8
170
     0
171
     2
172
     1
173
     0
174
     0
175
     0
176
   256
177
   256
178
    40
  0
DIMSTYLE
  2
TECHNICAL_OSAKA$7
 70
     0
  3

  4
"
  5
OPEN30
  6

  7

 40
1.0
 41
2.5
 42
1.0
 43
10.0
 44
1.0
 45
0.0
 46
0.0
 47
0.1
 48
0.1
140
2.7999999999999989
141
0.0
142
0.0
143
0.0393701
144
1.0
145
0.0
146
0.71
147
1.5
 71
     0
 72
     0
 73
     0
 74
     0
 75
     0
 76
     0
 77
     3
 78
     8
170
     0
171
     2
172
     1
173
     0
174
     0
175
     0
176
   256
177
   256
178
    40
  0
DIMSTYLE
  2
TECHNICAL_OSAKA$SF
 70
     0
  3

  4
"
  5
OPEN30
  6
OPEN30
  7
OPEN30
 40
1.0
 41
2.5
 42
1.0
 43
10.0
 44
1.0
 45
0.0
 46
0.0
 47
0.1
 48
0.1
140
3.5
141
0.0
142
0.0
143
0.0393701
144
1.0
145
0.0
146
0.71
147
1.5
 71
     0
 72
     0
 73
     0
 74
     0
 75
     1
 76
     1
 77
     3
 78
     8
170
     0
171
     2
172
     1
173
     0
174
     0
175
     0
176
   256
177
   256
178
    40
  0
DIMSTYLE
  2
TECHNICAL_OSAKA$SH
 70
     0
  3

  4
"
  5
OPEN30
  6
GENAXEH
  7
OPEN30
 40
1.0
 41
2.5
 42
1.0
 43
10.0
 44
1.0
 45
0.0
 46
0.0
 47
0.1
 48
0.1
140
3.5
141
0.0
142
0.0
143
0.0393701
144
2.0
145
0.0
146
0.71
147
1.5
 71
     0
 72
     0
 73
     0
 74
     0
 75
     1
 76
     1
 77
     3
 78
     8
170
     0
171
     2
172
     1
173
     1
174
     0
175
     0
176
   256
177
   256
178
    40
  0
ENDTAB
  0
ENDSEC
  0
SECTION
  2
BLOCKS
  0
BLOCK
  8
0
  2
$MODEL_SPACE
 70
     0
 10
0.0
 20
0.0
 30
0.0
  3
$MODEL_SPACE
  1

  0
ENDBLK
  5
1C
  8
0
  0
BLOCK
 67
     1
  8
0
  2
$PAPER_SPACE
 70
     0
 10
0.0
 20
0.0
 30
0.0
  3
$PAPER_SPACE
  1

  0
ENDBLK
  5
19
 67
     1
  8
0
  0
BLOCK
  8
0
  2
_OPEN
 70
     0
 10
0.0
 20
0.0
 30
0.0
  3
_OPEN
  1

  0
LINE
  5
49F9
  8
0
  6
BYBLOCK
 62
     0
 10
-1.0
 20
0.1666666666666666
 30
0.0
 11
0.0
 21
0.0
 31
0.0
  0
LINE
  5
49FA
  8
0
  6
BYBLOCK
 62
     0
 10
-1.0
 20
-0.1666666666666666
 30
0.0
 11
0.0
 21
0.0
 31
0.0
  0
LINE
  5
49FB
  8
0
  6
BYBLOCK
 62
     0
 10
0.0
 20
0.0
 30
0.0
 11
-1.0
 21
0.0
 31
0.0
  0
ENDBLK
  5
49FC
  8
0
  0
BLOCK
  8
0
  2
GENAXEH
 70
     0
 10
0.0
 20
0.0
 30
0.0
  3
GENAXEH
  1

  0
LINE
  5
4A34
  8
0
 10
-1.0
 20
0.0
 30
0.0
 11
1.0
 21
0.0
 31
0.0
  0
ENDBLK
  5
4A35
  8
0
  0
BLOCK
  8
0
  2
_OPEN30
 70
     0
 10
0.0
 20
0.0
 30
0.0
  3
_OPEN30
  1

  0
LINE
  5
4A70
  8
0
  6
BYBLOCK
 62
     0
 10
-1.0
 20
0.26794919
 30
0.0
 11
0.0
 21
0.0
 31
0.0
  0
LINE
  5
4A71
  8
0
  6
BYBLOCK
 62
     0
 10
0.0
 20
0.0
 30
0.0
 11
-1.0
 21
-0.26794919
 31
0.0
  0
LINE
  5
4A72
  8
0
  6
BYBLOCK
 62
     0
 10
0.0
 20
0.0
 30
0.0
 11
-1.0
 21
0.0
 31
0.0
  0
ENDBLK
  5
4A73
  8
0
  0
ENDSEC
  0
SECTION
  2
ENTITIES
  0
LINE
  5
4353
  8
240
 10
59.499999999999879
 20
9.2499999999996447
 30
0.0
 11
59.499999999999879
 21
8.9999999999999858
 31
0.0
  0
LINE
  5
4354
  8
240
 10
59.499999999999879
 20
-9.2499999999996732
 30
0.0
 11
59.499999999999879
 21
-9.0000000000000142
 31
0.0
  0
LINE
  5
4355
  8
241
 10
58.499999999999879
 20
10.249999999999639
 30
0.0
 11
58.499999999999879
 21
7.5034638508251268
 31
0.0
  0
LINE
  5
4356
  8
241
 10
59.499999999999879
 20
-9.0000000000000142
 30
0.0
 11
59.499999999999879
 21
-0.0000000000000142
 31
0.0
  0
LINE
  5
4357
  8
245
 10
-51.865453573878767
 20
0.0
 30
0.0
 11
79.887047895146452
 21
-0.0000000000000135
 31
0.0
1001
GRPNAME
1000
PASTMD03
  0
LINE
  5
4358
  8
250
 10
74.999999999995936
 20
4.0000000000592273
 30
0.0
 11
86.01106050591649
 21
4.0000000000701537
 31
0.0
1001
GRPNAME
1000
PASTMD03
  0
LINE
  5
4359
  8
250
 10
75.00000000000388
 20
-3.9999999999407732
 30
0.0
 11
86.011060505924405
 21
-3.9999999999298308
 31
0.0
1001
GRPNAME
1000
PASTMD03
  0
LINE
  5
435A
  8
241
 10
22.0
 20
22.499999999999869
 30
0.0
 11
22.0
 21
-22.500000000000011
 31
0.0
1001
GRPNAME
1000
PASTMD03
  0
LINE
  5
435B
  8
240
 10
22.199999999999989
 20
22.499999999999869
 30
0.0
 11
31.5
 21
22.499999999999869
 31
0.0
  0
LINE
  5
435C
  8
240
 10
21.500000000000231
 20
22.999999999999702
 30
0.0
 11
22.0
 21
22.499999999999869
 31
0.0
  0
LINE
  5
435D
  8
240
 10
22.0
 20
22.29999999999994
 30
0.0
 11
22.199999999999989
 21
22.499999999999869
 31
0.0
1001
GENIUS_GENFIL_13
1070
     0
1040
0.2
1040
0.2
1040
0.2500000000000284
1040
45.00000000000162
1002
{
1002
}
1001
GENIUS_GENODEF_13
1002
{
1000
HIER
1070
     0
1002
}
1002
{
1000
MANEDIT
1070
     0
1002
}
1002
{
1000
NOSEL
1070
     0
1002
}
1002
{
1000
BEHIND
1070
     0
1002
}
1002
{
1000
OTHER
1070
     0
1002
}
1002
{
1000
REACTOR
1002
}
1001
GENIUS_GENOBJ-N-CHA_13
1002
{
1000
OWNER
1000
GEN
1002
}
  0
LINE
  5
435E
  8
240
 10
31.5
 20
22.499999999999869
 30
0.0
 11
32.0
 21
21.999999999999869
 31
0.0
1001
GENIUS_GENFIL_13
1070
     0
1040
0.5
1040
0.5
1040
0.2500000000000284
1040
45.00000000000162
1002
{
1002
}
1001
GENIUS_GENODEF_13
1002
{
1000
HIER
1070
     0
1002
}
1002
{
1000
MANEDIT
1070
     0
1002
}
1002
{
1000
NOSEL
1070
     0
1002
}
1002
{
1000
BEHIND
1070
     0
1002
}
1002
{
1000
OTHER
1070
     0
1002
}
1002
{
1000
REACTOR
1002
}
1001
GENIUS_GENOBJ-N-CHA_13
1002
{
1000
OWNER
1000
GEN
1002
}
  0
LINE
  5
435F
  8
240
 10
32.25
 20
21.999999999999869
 30
0.0
 11
32.0
 21
21.749999999999869
 31
0.0
1001
GENIUS_GENFIL_13
1070
     0
1040
0.25
1040
0.25
1040
0.2500000000000284
1040
45.00000000000162
1002
{
1002
}
1001
GENIUS_GENODEF_13
1002
{
1000
HIER
1070
     0
1002
}
1002
{
1000
MANEDIT
1070
     0
1002
}
1002
{
1000
NOSEL
1070
     0
1002
}
1002
{
1000
BEHIND
1070
     0
1002
}
1002
{
1000
OTHER
1070
     0
1002
}
1002
{
1000
REACTOR
1002
}
1001
GENIUS_GENOBJ-N-CHA_13
1002
{
1000
OWNER
1000
GEN
1002
}
  0
LINE
  5
4360
  8
240
 10
32.25
 20
21.999999999999869
 30
0.0
 11
39.171572875249922
 21
21.999999999999989
 31
0.0
  0
LINE
  5
4361
  8
240
 10
47.249999999994252
 20
10.49999999999976
 30
0.0
 11
46.999999999996298
 21
10.49999999999976
 31
0.0
  0
LINE
  5
4362
  8
240
 10
47.499999999994259
 20
10.24999999999976
 30
0.0
 11
47.249999999994252
 21
10.49999999999976
 31
0.0
  0
LINE
  5
4363
  8
240
 10
46.999999999996191
 20
14.171572875253769
 30
0.0
 11
46.999999999996191
 21
10.49999999999976
 31
0.0
  0
LINE
  5
4364
  8
240
 10
47.499999999994259
 20
10.24999999999976
 30
0.0
 11
58.499999999999879
 21
10.249999999999639
 31
0.0
  0
ARC
  5
4365
  8
240
 10
58.499999999999879
 20
9.2499999999996447
 30
0.0
 40
1.0
 50
0.0
 51
90.0
1001
GENIUS_GENODEF_13
1002
{
1000
HIER
1070
     0
1002
}
1002
{
1000
MANEDIT
1070
     0
1002
}
1002
{
1000
NOSEL
1070
     0
1002
}
1002
{
1000
BEHIND
1070
     0
1002
}
1002
{
1000
OTHER
1070
     0
1002
}
1002
{
1000
REACTOR
1002
}
1001
GENIUS_GENOBJ-N-FIL_13
1002
{
1000
OWNER
1000
GEN
1002
}
  0
LINE
  5
4366
  8
241
 10
58.499999999999879
 20
-10.24999999999967
 30
0.0
 11
58.499999999999879
 21
-7.5034638508251561
 31
0.0
  0
LINE
  5
4367
  8
240
 10
47.499999999994429
 20
-10.249999999999559
 30
0.0
 11
58.499999999999879
 21
-10.24999999999967
 31
0.0
  0
ARC
  5
4368
  8
240
 10
58.499999999999879
 20
-9.2499999999996732
 30
0.0
 40
1.0
 50
270.0
 51
0.0
1001
GENIUS_GENODEF_13
1002
{
1000
HIER
1070
     0
1002
}
1002
{
1000
MANEDIT
1070
     0
1002
}
1002
{
1000
NOSEL
1070
     0
1002
}
1002
{
1000
BEHIND
1070
     0
1002
}
1002
{
1000
OTHER
1070
     0
1002
}
1002
{
1000
REACTOR
1002
}
1001
GENIUS_GENOBJ-N-FIL_13
1002
{
1000
OWNER
1000
GEN
1002
}
  0
LINE
  5
4369
  8
240
 10
22.199999999999989
 20
-22.500000000000011
 30
0.0
 11
31.5
 21
-22.500000000000011
 31
0.0
  0
LINE
  5
436A
  8
240
 10
21.500000000000281
 20
-22.99999999999973
 30
0.0
 11
22.0
 21
-22.500000000000011
 31
0.0
  0
LINE
  5
436B
  8
240
 10
22.0
 20
-22.300000000000079
 30
0.0
 11
22.199999999999989
 21
-22.500000000000011
 31
0.0
1001
GENIUS_GENFIL_13
1070
     0
1040
0.2
1040
0.2
1040
0.2500000000000284
1040
45.00000000000162
1002
{
1002
}
1001
GENIUS_GENODEF_13
1002
{
1000
HIER
1070
     0
1002
}
1002
{
1000
MANEDIT
1070
     0
1002
}
1002
{
1000
NOSEL
1070
     0
1002
}
1002
{
1000
BEHIND
1070
     0
1002
}
1002
{
1000
OTHER
1070
     0
1002
}
1002
{
1000
REACTOR
1002
}
1001
GENIUS_GENOBJ-N-CHA_13
1002
{
1000
OWNER
1000
GEN
1002
}
  0
LINE
  5
436C
  8
240
 10
31.5
 20
-22.500000000000011
 30
0.0
 11
32.0
 21
-22.000000000000011
 31
0.0
1001
GENIUS_GENFIL_13
1070
     0
1040
0.5
1040
0.5
1040
0.2500000000000284
1040
45.00000000000162
1002
{
1002
}
1001
GENIUS_GENODEF_13
1002
{
1000
HIER
1070
     0
1002
}
1002
{
1000
MANEDIT
1070
     0
1002
}
1002
{
1000
NOSEL
1070
     0
1002
}
1002
{
1000
BEHIND
1070
     0
1002
}
1002
{
1000
OTHER
1070
     0
1002
}
1002
{
1000
REACTOR
1002
}
1001
GENIUS_GENOBJ-N-CHA_13
1002
{
1000
OWNER
1000
GEN
1002
}
  0
LINE
  5
436D
  8
240
 10
32.25
 20
-22.000000000000011
 30
0.0
 11
32.0
 21
-21.750000000000021
 31
0.0
1001
GENIUS_GENFIL_13
1070
     0
1040
0.25
1040
0.25
1040
0.2500000000000284
1040
45.00000000000162
1002
{
1002
}
1001
GENIUS_GENODEF_13
1002
{
1000
HIER
1070
     0
1002
}
1002
{
1000
MANEDIT
1070
     0
1002
}
1002
{
1000
NOSEL
1070
     0
1002
}
1002
{
1000
BEHIND
1070
     0
1002
}
1002
{
1000
OTHER
1070
     0
1002
}
1002
{
1000
REACTOR
1002
}
1001
GENIUS_GENOBJ-N-CHA_13
1002
{
1000
OWNER
1000
GEN
1002
}
  0
LINE
  5
436E
  8
241
 10
32.0
 20
-22.000000000000011
 30
0.0
 11
32.0
 21
21.999999999999869
 31
0.0
  0
LINE
  5
436F
  8
241
 10
32.0
 20
-3.046754139409813
 30
0.0
 11
22.0
 21
-3.0467541394098272
 31
0.0
  0
LINE
  5
4370
  8
241
 10
22.0
 20
-8.5078150951328695
 30
0.0
 11
32.0
 21
-8.5078150951328695
 31
0.0
  0
LINE
  5
4371
  8
241
 10
32.0
 20
-13.78494806276173
 30
0.0
 11
22.0
 21
-13.78494806276173
 31
0.0
  0
LINE
  5
4372
  8
241
 10
22.0
 20
-17.782722145581609
 30
0.0
 11
32.0
 21
-17.782722145581609
 31
0.0
  0
LINE
  5
4373
  8
241
 10
32.0
 20
-20.82947628499166
 30
0.0
 11
22.0
 21
-20.82947628499166
 31
0.0
  0
LINE
  5
4374
  8
240
 10
40.585786437623021
 20
21.414213562373089
 30
0.0
 11
46.414213562369291
 21
15.585786437626879
 31
0.0
  0
ARC
  5
4375
  8
240
 10
39.171572875249979
 20
19.999999999999979
 30
0.0
 40
2.0
 50
45.0
 51
90.000000000001606
1001
GENIUS_GENODEF_13
1002
{
1000
HIER
1070
     0
1002
}
1002
{
1000
MANEDIT
1070
     0
1002
}
1002
{
1000
NOSEL
1070
     0
1002
}
1002
{
1000
BEHIND
1070
     0
1002
}
1002
{
1000
OTHER
1070
     0
1002
}
1002
{
1000
REACTOR
1002
}
1001
GENIUS_GENOBJ-N-FIL_13
1002
{
1000
OWNER
1000
GEN
1002
}
  0
ARC
  5
4376
  8
240
 10
44.999999999996298
 20
14.171572875253769
 30
0.0
 40
2.0
 50
359.99999999999352
 51
45.000000000000568
1001
GENIUS_GENODEF_13
1002
{
1000
HIER
1070
     0
1002
}
1002
{
1000
MANEDIT
1070
     0
1002
}
1002
{
1000
NOSEL
1070
     0
1002
}
1002
{
1000
BEHIND
1070
     0
1002
}
1002
{
1000
OTHER
1070
     0
1002
}
1002
{
1000
REACTOR
1002
}
1001
GENIUS_GENOBJ-N-FIL_13
1002
{
1000
OWNER
1000
GEN
1002
}
  0
LINE
  5
4377
  8
240
 10
32.250000000000121
 20
-21.999999999999901
 30
0.0
 11
39.171572875250043
 21
-22.000000000000011
 31
0.0
  0
LINE
  5
4378
  8
240
 10
47.249999999994323
 20
-10.49999999999978
 30
0.0
 11
46.999999999996362
 21
-10.49999999999978
 31
0.0
  0
LINE
  5
4379
  8
240
 10
47.499999999994309
 20
-10.24999999999979
 30
0.0
 11
47.249999999994323
 21
-10.49999999999978
 31
0.0
  0
LINE
  5
437A
  8
240
 10
46.999999999996248
 20
-14.171572875253799
 30
0.0
 11
46.999999999996248
 21
-10.49999999999978
 31
0.0
  0
LINE
  5
437B
  8
240
 10
40.585786437623142
 20
-21.414213562373121
 30
0.0
 11
46.414213562369348
 21
-15.58578643762691
 31
0.0
  0
ARC
  5
437C
  8
240
 10
39.171572875250043
 20
-20.000000000000011
 30
0.0
 40
2.0
 50
269.99999999999841
 51
315.0
1001
GENIUS_GENODEF_13
1002
{
1000
HIER
1070
     0
1002
}
1002
{
1000
MANEDIT
1070
     0
1002
}
1002
{
1000
NOSEL
1070
     0
1002
}
1002
{
1000
BEHIND
1070
     0
1002
}
1002
{
1000
OTHER
1070
     0
1002
}
1002
{
1000
REACTOR
1002
}
1001
GENIUS_GENOBJ-N-FIL_13
1002
{
1000
OWNER
1000
GEN
1002
}
  0
ARC
  5
437D
  8
240
 10
44.999999999996362
 20
-14.171572875253799
 30
0.0
 40
2.0
 50
314.99999999999949
 51
0.0
1001
GENIUS_GENODEF_13
1002
{
1000
HIER
1070
     0
1002
}
1002
{
1000
MANEDIT
1070
     0
1002
}
1002
{
1000
NOSEL
1070
     0
1002
}
1002
{
1000
BEHIND
1070
     0
1002
}
1002
{
1000
OTHER
1070
     0
1002
}
1002
{
1000
REACTOR
1002
}
1001
GENIUS_GENOBJ-N-FIL_13
1002
{
1000
OWNER
1000
GEN
1002
}
  0
LINE
  5
437E
  8
241
 10
46.999999999996362
 20
-10.49999999999978
 30
0.0
 11
46.999999999996298
 21
10.49999999999976
 31
0.0
  0
LINE
  5
437F
  8
241
 10
47.499999999994543
 20
-10.249999999999559
 30
0.0
 11
47.499999999994571
 21
10.249999999999471
 31
0.0
  0
LINE
  5
4380
  8
241
 10
39.999999999996248
 20
-21.820359442248911
 30
0.0
 11
39.999999999996248
 21
21.820359442248861
 31
0.0
  0
ARC
  5
4385
  8
240
 10
60.499999999999893
 20
8.9999999999999858
 30
0.0
 40
1.0
 50
180.0
 51
270.0
  0
LINE
  5
4386
  8
240
 10
63.999999999999879
 20
7.9999999999999849
 30
0.0
 11
60.499999999999893
 21
7.9999999999999849
 31
0.0
  0
LINE
  5
4387
  8
240
 10
63.999999999999879
 20
-8.0000000000000142
 30
0.0
 11
60.499999999999893
 21
-8.0000000000000142
 31
0.0
  0
ARC
  5
4388
  8
240
 10
60.499999999999893
 20
-9.0000000000000142
 30
0.0
 40
1.0
 50
90.0
 51
180.0
  0
LINE
  5
4389
  8
240
 10
63.999999999999879
 20
9.4999999999999858
 30
0.0
 11
64.299999999999883
 21
9.7999999999999972
 31
0.0
  0
LINE
  5
438A
  8
240
 10
63.999999999999879
 20
-9.5000000000000142
 30
0.0
 11
64.299999999999883
 21
-9.8000000000000114
 31
0.0
  0
LINE
  5
438B
  8
240
 10
64.299999999999883
 20
9.7999999999999972
 30
0.0
 11
64.299999999999883
 21
11.89999999999999
 31
0.0
  0
ARC
  5
438C
  8
240
 10
64.899999999999864
 20
11.89999999999999
 30
0.0
 40
0.5999999999999944
 50
90.0
 51
180.0
  0
LINE
  5
438D
  8
240
 10
64.299999999999883
 20
-11.9
 30
0.0
 11
64.299999999999883
 21
-9.8000000000000114
 31
0.0
  0
ARC
  5
438E
  8
240
 10
64.899999999999864
 20
-11.9
 30
0.0
 40
0.5999999999999944
 50
180.0
 51
270.0
  0
LINE
  5
438F
  8
240
 10
64.899999999999864
 20
12.49999999999998
 30
0.0
 11
74.051471862575795
 21
12.500000000000179
 31
0.0
  0
ARC
  5
4390
  8
240
 10
74.051471862575795
 20
11.90000000000019
 30
0.0
 40
0.5999999999999888
 50
44.999999999999417
 51
90.000000000001606
  0
LINE
  5
4391
  8
240
 10
64.899999999999864
 20
-12.500000000000011
 30
0.0
 11
74.051471862575852
 21
-12.500000000000171
 31
0.0
  0
ARC
  5
4392
  8
240
 10
74.051471862575909
 20
-11.900000000000171
 30
0.0
 40
0.5999999999999944
 50
269.99999999999682
 51
314.99999999999829
  0
LINE
  5
4393
  8
240
 10
74.853553390593163
 20
11.946446609406721
 30
0.0
 11
74.475735931287772
 21
12.324264068712109
 31
0.0
  0
ARC
  5
4394
  8
240
 10
74.499999999999886
 20
11.59289321881344
 30
0.0
 40
0.5
 50
0.0
 51
44.999999999999417
  0
LINE
  5
4395
  8
240
 10
74.999999999999886
 20
11.59289321881344
 30
0.0
 11
74.999999999999886
 21
-11.592893218813479
 31
0.0
  0
LINE
  5
4396
  8
240
 10
74.475735931287772
 20
-12.324264068712109
 30
0.0
 11
74.853553390593163
 21
-11.94644660940676
 31
0.0
  0
ARC
  5
4397
  8
240
 10
74.499999999999886
 20
-11.592893218813479
 30
0.0
 40
0.500000000000004
 50
315.00000000000063
 51
0.0
  0
LINE
  5
4398
  8
240
 10
63.999999999999879
 20
9.4999999999999858
 30
0.0
 11
63.999999999999879
 21
7.9999999999999849
 31
0.0
  0
LINE
  5
4399
  8
240
 10
63.999999999999879
 20
-9.5000000000000142
 30
0.0
 11
63.999999999999879
 21
-8.0000000000000142
 31
0.0
  0
LINE
  5
439A
  8
241
 10
61.499999999999879
 20
-7.5000000000000142
 30
0.0
 11
61.499999999999879
 21
0.0
 31
0.0
  0
LINE
  5
439B
  8
241
 10
64.299999999999883
 20
-9.8000000000000114
 30
0.0
 11
64.299999999999841
 21
9.7999999999999687
 31
0.0
  0
LINE
  5
439C
  8
241
 10
74.051471862575852
 20
12.13812677388834
 30
0.0
 11
74.051471862575852
 21
-12.18543046357617
 31
0.0
  0
LINE
  5
439D
  8
241
 10
64.899999999999864
 20
12.49999999999998
 30
0.0
 11
64.899999999999864
 21
11.49709263010233
 31
0.0
  0
LINE
  5
439E
  8
241
 10
64.899999999999864
 20
9.9970926301023582
 30
0.0
 11
64.899999999999864
 21
1.5
 31
0.0
  0
LINE
  5
439F
  8
241
 10
64.899999999999864
 20
-1.500000000000028
 30
0.0
 11
64.899999999999864
 21
-9.9970926301023866
 31
0.0
  0
LINE
  5
43A0
  8
241
 10
64.899999999999864
 20
-11.497092630102371
 30
0.0
 11
64.899999999999864
 21
-12.500000000000011
 31
0.0
  0
LINE
  5
43A1
  8
241
 10
59.499999999999879
 20
-9.0000000000000142
 30
0.0
 11
59.499999999999879
 21
-0.0000000000000142
 31
0.0
  0
LINE
  5
43A2
  8
241
 10
63.999999999999879
 20
-8.0000000000000142
 30
0.0
 11
63.999999999999879
 21
7.9999999999999849
 31
0.0
  0
LINE
  5
43A3
  8
241
 10
70.999999999999886
 20
11.49709263010233
 30
0.0
 11
64.299999999999883
 21
11.49709263010233
 31
0.0
  0
LINE
  5
43A4
  8
241
 10
70.999999999999886
 20
9.9970926301023582
 30
0.0
 11
64.299999999999883
 21
9.9970926301023582
 31
0.0
  0
LINE
  5
43A5
  8
241
 10
70.999999999999886
 20
11.49709263010233
 30
0.0
 11
70.999999999999886
 21
9.9970926301023582
 31
0.0
  0
LINE
  5
43A6
  8
241
 10
70.999999999999886
 20
1.5
 30
0.0
 11
64.299999999999883
 21
1.5
 31
0.0
  0
LINE
  5
43A7
  8
241
 10
70.999999999999886
 20
-1.500000000000028
 30
0.0
 11
64.299999999999883
 21
-1.500000000000028
 31
0.0
  0
LINE
  5
43A8
  8
241
 10
70.999999999999886
 20
-1.500000000000028
 30
0.0
 11
70.999999999999886
 21
-0.0000000000000142
 31
0.0
  0
LINE
  5
43A9
  8
241
 10
70.999999999999886
 20
1.5
 30
0.0
 11
70.999999999999886
 21
-0.0000000000000142
 31
0.0
  0
LINE
  5
43AA
  8
241
 10
70.999999999999886
 20
-9.9970926301023724
 30
0.0
 11
64.299999999999883
 21
-9.9970926301023866
 31
0.0
  0
LINE
  5
43AB
  8
241
 10
70.999999999999886
 20
-11.49709263010236
 30
0.0
 11
64.299999999999883
 21
-11.497092630102371
 31
0.0
  0
LINE
  5
43AC
  8
241
 10
70.999999999999886
 20
-11.49709263010236
 30
0.0
 11
70.999999999999886
 21
-9.9970926301023724
 31
0.0
  0
LINE
  5
43AD
  8
242
 10
61.499999999999879
 20
7.4999999999999849
 30
0.0
 11
60.999999999999879
 21
7.9999999999999849
 31
0.0
  0
LINE
  5
43AE
  8
242
 10
61.499999999999879
 20
-7.5000000000000142
 30
0.0
 11
60.999999999999879
 21
-8.0000000000000142
 31
0.0
  0
LINE
  5
43AF
  8
242
 10
63.999999999999879
 20
7.4999999999999849
 30
0.0
 11
61.499999999999879
 21
7.4999999999999849
 31
0.0
  0
LINE
  5
43B0
  8
242
 10
63.999999999999879
 20
-7.5000000000000142
 30
0.0
 11
61.499999999999879
 21
-7.5
 31
0.0
  0
LINE
  5
43B1
  8
243
 10
68.299999999999898
 20
-8.0000000000000142
 30
0.0
 11
63.999999999999879
 21
-8.0000000000000142
 31
0.0
  0
LINE
  5
43B2
  8
243
 10
68.999999999999886
 20
7.2999999999999972
 30
0.0
 11
68.299999999999898
 21
7.9999999999999849
 31
0.0
  0
LINE
  5
43B3
  8
243
 10
68.299999999999898
 20
7.9999999999999849
 30
0.0
 11
63.999999999999879
 21
7.9999999999999849
 31
0.0
  0
LINE
  5
43B4
  8
243
 10
68.999999999999886
 20
-7.3000000000000114
 30
0.0
 11
68.299999999999898
 21
-8.0000000000000142
 31
0.0
  0
LINE
  5
43B5
  8
246
 10
34.334731284387431
 20
4.5
 30
0.0
 11
33.734731284387379
 21
3.899999999999991
 31
0.0
  0
LINE
  5
43B6
  8
246
 10
31.734731284387411
 20
3.899999999999991
 30
0.0
 11
33.734731284387379
 21
3.899999999999991
 31
0.0
  0
ARC
  5
43B7
  8
246
 10
31.734731284387411
 20
2.899999999999991
 30
0.0
 40
1.0
 50
90.0
 51
180.0
  0
LINE
  5
43B8
  8
246
 10
39.234731284387408
 20
1.9999999999999709
 30
0.0
 11
39.234731284387408
 21
1.02999969481489
 31
0.0
  0
LINE
  5
43B9
  8
246
 10
39.234731284387408
 20
1.9999999999999709
 30
0.0
 11
39.556098489433282
 21
1.4433756729740419
 31
0.0
  0
LINE
  5
43BA
  8
246
 10
41.428106957361472
 20
1.4433756729740419
 30
0.0
 11
39.556098489433282
 21
1.4433756729740419
 31
0.0
  0
LINE
  5
43BB
  8
246
 10
41.428106957361472
 20
0.721687836487007
 30
0.0
 11
39.556098489433282
 21
0.721687836487007
 31
0.0
  0
LINE
  5
43BC
  8
246
 10
41.428106957361472
 20
1.4433756729740419
 30
0.0
 11
43.734731284387408
 21
3.7499999999999849
 31
0.0
  0
LINE
  5
43BE
  8
246
 10
74.999999999999886
 20
3.9999999999999849
 30
0.0
 11
56.999999999999879
 21
3.9999999999999849
 31
0.0
  0
LINE
  5
43BF
  8
246
 10
71.399999999999864
 20
6.2499999999999574
 30
0.0
 11
56.999999999999879
 21
4.7364990121742201
 31
0.0
  0
LINE
  5
43C0
  8
246
 10
71.399999999999864
 20
5.2499999999999849
 30
0.0
 11
73.299999999999898
 21
5.2499999999999849
 31
0.0
  0
LINE
  5
43C1
  8
246
 10
71.399999999999864
 20
5.2499999999999849
 30
0.0
 11
71.399999999999864
 21
6.2499999999999574
 31
0.0
  0
LINE
  5
43C2
  8
246
 10
73.299999999999898
 20
5.2499999999999849
 30
0.0
 11
73.299999999999898
 21
6.2499999999999849
 31
0.0
  0
LINE
  5
43C3
  8
246
 10
73.299999999999898
 20
6.2499999999999849
 30
0.0
 11
73.399999999999864
 21
6.2499999999999849
 31
0.0
  0
LINE
  5
43C4
  8
246
 10
74.999999999999886
 20
5.3262395692965887
 30
0.0
 11
73.399999999999864
 21
6.2499999999999849
 31
0.0
  0
LINE
  5
43C5
  8
246
 10
34.334731284387431
 20
-4.5000000000000284
 30
0.0
 11
33.734731284387379
 21
-3.9000000000000048
 31
0.0
  0
LINE
  5
43C6
  8
246
 10
31.734731284387411
 20
-3.9000000000000048
 30
0.0
 11
33.734731284387379
 21
-3.9000000000000048
 31
0.0
  0
LINE
  5
43C7
  8
246
 10
39.234731284387408
 20
-1.9999999999999849
 30
0.0
 11
39.234731284387408
 21
-1.0299996948149179
 31
0.0
  0
LINE
  5
43C8
  8
246
 10
39.234731284387408
 20
-1.9999999999999849
 30
0.0
 11
39.556098489433282
 21
-1.4433756729740559
 31
0.0
  0
LINE
  5
43C9
  8
246
 10
41.428106957361472
 20
-1.4433756729740559
 30
0.0
 11
39.556098489433282
 21
-1.4433756729740559
 31
0.0
  0
LINE
  5
43CA
  8
246
 10
41.428106957361472
 20
-0.7216878364870212
 30
0.0
 11
39.556098489433282
 21
-0.7216878364870212
 31
0.0
  0
LINE
  5
43CB
  8
246
 10
41.428106957361472
 20
-1.4433756729740559
 30
0.0
 11
43.734731284387408
 21
-3.75
 31
0.0
  0
LINE
  5
43CD
  8
246
 10
74.999999999999886
 20
-4.0000000000000142
 30
0.0
 11
56.999999999999879
 21
-4.0000000000000142
 31
0.0
  0
LINE
  5
43CE
  8
246
 10
71.399999999999864
 20
-6.2499999999999849
 30
0.0
 11
56.999999999999879
 21
-4.7364990121742494
 31
0.0
  0
LINE
  5
43CF
  8
246
 10
71.399999999999864
 20
-5.2500000000000142
 30
0.0
 11
73.299999999999898
 21
-5.2500000000000142
 31
0.0
  0
LINE
  5
43D0
  8
246
 10
71.399999999999864
 20
-5.2500000000000142
 30
0.0
 11
71.399999999999864
 21
-6.2499999999999849
 31
0.0
  0
LINE
  5
43D1
  8
246
 10
73.299999999999898
 20
-5.2500000000000142
 30
0.0
 11
73.299999999999898
 21
-6.2500000000000142
 31
0.0
  0
LINE
  5
43D2
  8
246
 10
73.299999999999898
 20
-6.2500000000000142
 30
0.0
 11
73.399999999999864
 21
-6.2500000000000142
 31
0.0
  0
LINE
  5
43D3
  8
246
 10
74.999999999999886
 20
-5.3262395692966029
 30
0.0
 11
73.399999999999864
 21
-6.2500000000000142
 31
0.0
  0
LINE
  5
43D4
  8
246
 10
39.556098489433282
 20
1.4433756729740419
 30
0.0
 11
39.556098489433282
 21
-1.4433756729740559
 31
0.0
  0
LINE
  5
43D5
  8
246
 10
41.428106957361472
 20
1.4433756729740419
 30
0.0
 11
41.428106957361472
 21
-1.4433756729740559
 31
0.0
  0
LINE
  5
43D7
  8
246
 10
56.999999999999879
 20
4.7364990121742201
 30
0.0
 11
56.999999999999879
 21
-4.7364990121742494
 31
0.0
  0
LINE
  5
43D8
  8
246
 10
43.234731284387408
 20
-4.5000000000000142
 30
0.0
 11
43.734731284387408
 21
-4.0000000000000142
 31
0.0
  0
LINE
  5
43D9
  8
246
 10
43.734731284387408
 20
3.9999999999999849
 30
0.0
 11
43.734731284387408
 21
-4.0000000000000142
 31
0.0
  0
LINE
  5
43DA
  8
246
 10
43.734731284387408
 20
3.9999999999999849
 30
0.0
 11
43.234731284387408
 21
4.4999999999999849
 31
0.0
  0
LINE
  5
43DB
  8
246
 10
34.334731284387431
 20
-4.5000000000000142
 30
0.0
 11
43.234731284387408
 21
-4.5000000000000142
 31
0.0
  0
LINE
  5
43DC
  8
246
 10
30.734731284387411
 20
-2.9000000000000048
 30
0.0
 11
30.734731284387411
 21
2.899999999999991
 31
0.0
  0
ARC
  5
43DD
  8
246
 10
31.734731284387411
 20
-2.9000000000000048
 30
0.0
 40
1.0
 50
180.0
 51
270.0
  0
LINE
  5
43DF
  8
246
 10
34.334731284387431
 20
4.4999999999999849
 30
0.0
 11
43.234731284387408
 21
4.4999999999999849
 31
0.0
  0
LINE
  5
43E8
  8
246
 10
30.734731284387411
 20
2.0000000000000142
 30
0.0
 11
39.234731284387408
 21
1.9999999999999709
 31
0.0
  0
LINE
  5
43E9
  8
246
 10
30.734731284387411
 20
-2.000000000000028
 30
0.0
 11
39.234731284387408
 21
-1.9999999999999849
 31
0.0
  0
LINE
  5
43EA
  8
243
 10
68.999999999999886
 20
7.2999999999999972
 30
0.0
 11
68.999999999999886
 21
5.9977498353623409
 31
0.0
  0
LINE
  5
43EB
  8
243
 10
68.999999999999886
 20
-5.9977498353623702
 30
0.0
 11
68.999999999999886
 21
-7.3000000000000114
 31
0.0
  0
LINE
  5
43EC
  8
244
 10
63.999999999999879
 20
7.4999999999999849
 30
0.0
 11
68.799999999999898
 21
7.4999999999999849
 31
0.0
  0
LINE
  5
43ED
  8
244
 10
63.999999999999879
 20
-7.5000000000000142
 30
0.0
 11
68.799999999999898
 21
-7.5000000000000142
 31
0.0
  0
LINE
  5
43F4
  8
246
 10
34.034731284387419
 20
-4.2000000000000313
 30
0.0
 11
43.534731284387362
 21
-4.2000000000000313
 31
0.0
  0
LINE
  5
43F5
  8
246
 10
34.034731284387391
 20
4.200000000000002
 30
0.0
 11
43.534731284387362
 21
4.200000000000002
 31
0.0
  0
LINE
  5
43F6
  8
241
 10
9.5672083697143222
 20
22.884529946160271
 30
0.0
 11
9.5672083697082826
 21
-22.884529946166001
 31
0.0
  0
LINE
  5
43F7
  8
241
 10
11.87660944647169
 20
19.0367006838127
 30
0.0
 11
11.87660944646654
 21
-19.036700683815489
 31
0.0
  0
LINE
  5
43F8
  8
241
 10
17.632791630294289
 20
22.88452994616576
 30
0.0
 11
17.632791630288239
 21
-22.884529946171881
 31
0.0
  0
LINE
  5
43F9
  8
241
 10
15.32339055353439
 20
19.036700683816559
 30
0.0
 11
15.323390553529411
 21
-19.036700683814761
 31
0.0
  0
LINE
  5
43FA
  8
240
 10
9.3672083697115909
 20
-22.999999999999741
 30
0.0
 11
1.500000000000056
 21
-22.999999999999741
 31
0.0
  0
LINE
  5
43FB
  8
240
 10
17.832791630287431
 20
-22.999999999999741
 30
0.0
 11
21.500000000000281
 21
-22.99999999999973
 31
0.0
  0
LINE
  5
43FC
  8
240
 10
11.992079500305969
 20
-19.00000000000076
 30
0.0
 11
15.20792049969293
 21
-18.999999999999691
 31
0.0
  0
LINE
  5
43FD
  8
240
 10
9.367208369710454
 20
-23.00000000000043
 30
0.0
 11
9.6672083697104085
 21
-22.82679491924355
 31
0.0
  0
ARC
  5
43FE
  8
240
 10
11.99207950030603
 20
-19.200000000000809
 30
0.0
 40
0.2
 50
90.000000000019526
 51
150.00000000000389
  0
LINE
  5
43FF
  8
240
 10
11.818874419549161
 20
-19.10000000000079
 30
0.0
 11
9.6672083697104085
 21
-22.82679491924355
 31
0.0
  0
LINE
  5
4400
  8
240
 10
17.532791630290319
 20
-22.82679491924458
 30
0.0
 11
15.38112558044986
 21
-19.09999999999965
 31
0.0
  0
ARC
  5
4401
  8
240
 10
15.207920499692991
 20
-19.199999999999669
 30
0.0
 40
0.2
 50
30.000000000003769
 51
90.000000000019526
  0
LINE
  5
4402
  8
240
 10
17.83279163029033
 20
-23.000000000001389
 30
0.0
 11
17.532791630290319
 21
-22.82679491924458
 31
0.0
  0
LINE
  5
4403
  8
240
 10
17.83279163029033
 20
23.00000000000135
 30
0.0
 11
17.532791630290319
 21
22.826794919244531
 31
0.0
  0
ARC
  5
4404
  8
240
 10
15.207920499692991
 20
19.19999999999963
 30
0.0
 40
0.2
 50
269.99999999998039
 51
329.99999999999619
  0
LINE
  5
4405
  8
240
 10
17.532791630290319
 20
22.826794919244531
 30
0.0
 11
15.38112558044986
 21
19.099999999999611
 31
0.0
  0
LINE
  5
4406
  8
240
 10
11.818874419549161
 20
19.10000000000074
 30
0.0
 11
9.6672083697104085
 21
22.826794919243511
 31
0.0
  0
ARC
  5
4407
  8
240
 10
11.99207950030603
 20
19.20000000000077
 30
0.0
 40
0.2
 50
209.99999999999611
 51
269.99999999998039
  0
LINE
  5
4408
  8
240
 10
9.367208369710454
 20
23.00000000000038
 30
0.0
 11
9.6672083697104085
 21
22.826794919243511
 31
0.0
  0
LINE
  5
4409
  8
240
 10
11.992079500305969
 20
19.000000000000721
 30
0.0
 11
15.20792049969293
 21
18.999999999999641
 31
0.0
  0
LINE
  5
440A
  8
240
 10
17.832791630287431
 20
22.999999999999702
 30
0.0
 11
21.500000000000231
 21
22.999999999999702
 31
0.0
  0
LINE
  5
440B
  8
240
 10
9.3672083697115909
 20
22.999999999999702
 30
0.0
 11
1.500000000000056
 21
22.999999999999702
 31
0.0
  0
LINE
  5
440C
  8
243
 10
19.0
 20
16.300000000000001
 30
0.0
 11
0.9999999999998294
 21
16.300000000000281
 31
0.0
1001
GRPNAME
1000
PASTMD03
  0
LINE
  5
440D
  8
243
 10
19.0
 20
-16.300000000000018
 30
0.0
 11
1.000000000000113
 21
-16.299999999999979
 31
0.0
1001
GRPNAME
1000
PASTMD03
  0
LINE
  5
4410
  8
240
 10
-47.544310229592952
 20
-8.9412910381078774
 30
0.0
 11
0.0
 21
-15.875000000000041
 31
0.0
  0
ARC
  5
4411
  8
240
 10
-47.39999999999997
 20
-7.9517585436263536
 30
0.0
 40
1.0
 50
180.0
 51
261.70266183940231
  0
LINE
  5
4412
  8
240
 10
-48.399999999999977
 20
-7.9517585436263536
 30
0.0
 11
-48.399999999999977
 21
7.951758543626255
 31
0.0
  0
LINE
  5
4415
  8
241
 10
0.0
 20
-15.875000000000011
 30
0.0
 11
0.0
 21
15.87499999999998
 31
0.0
1001
GRPNAME
1000
PASTMD03
  0
LINE
  5
4416
  8
241
 10
1.0
 20
-15.875000000000041
 30
0.0
 11
1.0
 21
15.874999999999959
 31
0.0
1001
GRPNAME
1000
PASTMD03
  0
LINE
  5
4417
  8
240
 10
1.0
 20
-22.500000000000011
 30
0.0
 11
1.0
 21
-15.875000000000041
 31
0.0
1001
GRPNAME
1000
PASTMD03
  0
ARC
  5
4418
  8
240
 10
1.5
 20
-22.500000000000011
 30
0.0
 40
0.5
 50
179.99999999485411
 51
269.99999999485408
1001
GRPNAME
1000
PASTMD03
  0
LINE
  5
441D
  8
240
 10
-47.544310229592952
 20
8.9412910381077761
 30
0.0
 11
0.0000000000001137
 21
15.87499999999998
 31
0.0
  0
ARC
  5
441E
  8
240
 10
-47.39999999999997
 20
7.951758543626255
 30
0.0
 40
1.0
 50
98.297338160597704
 51
180.0
  0
LINE
  5
441F
  8
240
 10
1.0
 20
15.874999999999959
 30
0.0
 11
1.0
 21
22.499999999999989
 31
0.0
1001
GRPNAME
1000
PASTMD03
  0
ARC
  5
4424
  8
240
 10
1.5
 20
22.499999999999989
 30
0.0
 40
0.5
 50
89.999999997427054
 51
179.99999999742701
1001
GRPNAME
1000
PASTMD03
  0
LINE
  5
4425
  8
243
 10
19.0
 20
-16.300000000000018
 30
0.0
 11
19.0
 21
-23.000000000000021
 31
0.0
1001
GRPNAME
1000
PASTMD03
  0
LINE
  5
4426
  8
243
 10
19.0
 20
16.300000000000001
 30
0.0
 11
19.0
 21
22.999999999999979
 31
0.0
1001
GRPNAME
1000
PASTMD03
  0
LINE
  5
442F
  8
241
 10
32.0
 20
3.046754139409785
 30
0.0
 11
22.0
 21
3.0467541394097988
 31
0.0
  0
LINE
  5
4430
  8
241
 10
24.0
 20
20.27799999999986
 30
0.0
 11
24.0
 21
17.499999999999929
 31
0.0
  0
LINE
  5
4431
  8
241
 10
29.5
 20
17.499999999999929
 30
0.0
 11
29.5
 21
20.27799999999986
 31
0.0
  0
POLYLINE
  5
4526
  8
241
 66
     1
 10
0.0
 20
0.0
 30
0.0
 70
     1
  0
VERTEX
  5
4AEE
  8
241
 10
25.5
 20
18.221687836486929
 30
0.0
  0
VERTEX
  5
4AEF
  8
241
 10
25.499999999999972
 20
16.77831216351289
 30
0.0
  0
VERTEX
  5
4AF0
  8
241
 10
26.75
 20
16.056624327025862
 30
0.0
  0
VERTEX
  5
4AF1
  8
241
 10
28.0
 20
16.77831216351289
 30
0.0
  0
VERTEX
  5
4AF2
  8
241
 10
28.0
 20
18.221687836486961
 30
0.0
  0
VERTEX
  5
4AF3
  8
241
 10
26.75
 20
18.943375672973971
 30
0.0
  0
SEQEND
  5
4AF4
  8
241
  0
CIRCLE
  5
4527
  8
241
 10
26.75
 20
17.499999999999901
 30
0.0
 40
2.5
  0
ARC
  5
4529
  8
241
 10
26.75
 20
17.499999999999901
 30
0.0
 40
2.75
 50
180.0
 51
0.0
  0
LINE
  5
452A
  8
241
 10
24.0
 20
20.249999999999901
 30
0.0
 11
29.5
 21
20.249999999999901
 31
0.0
  0
LINE
  5
452B
  8
241
 10
24.0
 20
20.249999999999901
 30
0.0
 11
24.0
 21
17.499999999999901
 31
0.0
  0
LINE
  5
452C
  8
241
 10
29.5
 20
20.249999999999901
 30
0.0
 11
29.5
 21
17.499999999999901
 31
0.0
  0
LINE
  5
452E
  8
241
 10
61.499999999999879
 20
7.4999999999999911
 30
0.0
 11
61.499999999999879
 21
-0.0000000000000231
 31
0.0
  0
LINE
  5
452F
  8
241
 10
59.499999999999879
 20
8.9999999999999911
 30
0.0
 11
59.499999999999879
 21
-0.0000000000000084
 31
0.0
  0
LINE
  5
4622
  8
250
 10
-45.49824161194681
 20
-27.782263580736309
 30
0.0
 11
-28.934085922836339
 21
-27.782263580736309
 31
0.0
  0
LINE
  5
4623
  8
250
 10
-28.934085922836339
 20
-27.782263580736309
 30
0.0
 11
-16.52834420089048
 21
-15.376521858790451
 31
0.0
  0
LINE
  5
4624
  8
250
 10
-16.52834420089048
 20
-15.376521858790451
 30
0.0
 11
-14.95149607884448
 21
-13.799673736744451
 31
0.0
  0
LINE
  5
4625
  8
250
 10
-16.320748208233361
 20
-15.584117851447569
 30
0.0
 11
-14.95149607884448
 21
-13.799673736744451
 31
0.0
  0
LINE
  5
4626
  8
250
 10
-14.95149607884448
 20
-13.799673736744451
 30
0.0
 11
-16.735940193547599
 21
-15.16892586613333
 31
0.0
  0
TEXT
  5
4627
  8
250
 10
-46.35698007045827
 20
-26.382263580736311
 30
0.0
 40
2.799999999999998
  1
 BBT30
  7
ACJISTS
  0
TEXT
  5
4628
  8
241
 10
-63.0
 20
56.0
 30
0.0
 40
5.0
  1
BBT30-NBS8-75NRA
  7
YOKO
 11
-63.0
 21
56.0
 31
0.0
 73
     1
  0
LINE
  5
464C
  8
240
 10
0.0
 20
15.874999999999959
 30
0.0
 11
1.0
 21
15.874999999999959
 31
0.0
  0
LINE
  5
464D
  8
240
 10
0.0
 20
-15.875000000000041
 30
0.0
 11
1.0
 21
-15.875000000000041
 31
0.0
  0
LINE
  5
4650
  8
250
 10
0.0
 20
16.374999999999979
 30
0.0
 11
0.0000000000000017
 21
43.053847577293411
 31
0.0
  0
LINE
  5
4651
  8
250
 10
74.999999999999886
 20
12.09289321881344
 30
0.0
 11
74.999999999999886
 21
43.053847577293411
 31
0.0
  0
LINE
  5
4652
  8
250
 10
2.2300000000000009
 20
42.053847577293411
 30
0.0
 11
72.769999999999882
 21
42.053847577293411
 31
0.0
  0
LINE
  5
4656
  8
250
 10
0.0
 20
16.374999999999979
 30
0.0
 11
0.0000000000000012
 21
35.968911086753543
 31
0.0
  0
LINE
  5
4657
  8
250
 10
46.999999999996298
 20
14.67157287525354
 30
0.0
 11
46.999999999996298
 21
35.968911086753543
 31
0.0
  0
LINE
  5
4658
  8
250
 10
2.2300000000000009
 20
34.968911086753543
 30
0.0
 11
44.769999999996301
 21
34.968911086753543
 31
0.0
  0
LINE
  5
465C
  8
250
 10
74.999999999988376
 20
12.0928932188727
 30
0.0
 11
74.999999999988376
 21
36.0
 31
0.0
  0
LINE
  5
465D
  8
250
 10
46.9999999999823
 20
14.67157287528522
 30
0.0
 11
46.9999999999823
 21
36.0
 31
0.0
  0
LINE
  5
465E
  8
250
 10
72.769999999988372
 20
35.0
 30
0.0
 11
49.22999999998229
 21
35.0
 31
0.0
  0
LINE
  5
4662
  8
250
 10
83.814166666690326
 20
-1.7699999999407749
 30
0.0
 11
83.814166666690326
 21
1.770000000059224
 31
0.0
  0
LINE
  5
4663
  8
250
 10
83.814166666690326
 20
4.0000000000592237
 30
0.0
 11
83.814166666690326
 21
23.087142857202078
 31
0.0
  0
LINE
  5
4667
  8
250
 10
74.551471862563503
 20
12.50000000005843
 30
0.0
 11
91.999999999999972
 21
12.500000000058421
 31
0.0
  0
LINE
  5
4668
  8
250
 10
74.551471862588173
 20
-12.49999999994191
 30
0.0
 11
91.999999999999972
 21
-12.49999999994192
 31
0.0
  0
LINE
  5
4669
  8
250
 10
90.999999999999972
 20
10.27000000005842
 30
0.0
 11
90.999999999999972
 21
-10.26999999994192
 31
0.0
  0
LINE
  5
466D
  8
250
 10
43.734731284391131
 20
-4.2499999999718021
 30
0.0
 11
43.734731284391131
 21
-35.999999999940663
 31
0.0
  0
LINE
  5
466E
  8
250
 10
75.000000000011397
 20
-12.092893218754231
 30
0.0
 11
75.000000000011397
 21
-35.999999999940663
 31
0.0
  0
LINE
  5
466F
  8
250
 10
45.964731284391128
 20
-34.999999999940663
 30
0.0
 11
72.770000000011393
 21
-34.999999999940663
 31
0.0
  0
TEXT
  5
4673
  8
250
 10
82.814166666690326
 20
6.6585714286306672
 30
0.0
 40
3.0
  1
MAX.\U+22058
 50
90.0
  0
LINE
  5
4674
  8
250
 10
83.442500000023657
 20
1.770000000059224
 30
0.0
 11
83.814166666690326
 21
4.0000000000592237
 31
0.0
  0
LINE
  5
4675
  8
250
 10
84.185833333356996
 20
1.770000000059224
 30
0.0
 11
83.814166666690326
 21
4.0000000000592237
 31
0.0
  0
LINE
  5
4676
  8
250
 10
83.814166666690326
 20
4.0000000000592237
 30
0.0
 11
83.814166666690326
 21
1.770000000059224
 31
0.0
  0
LINE
  5
4677
  8
250
 10
84.185833333356996
 20
-1.7699999999407749
 30
0.0
 11
83.814166666690326
 21
-3.9999999999407749
 31
0.0
  0
LINE
  5
4678
  8
250
 10
83.442500000023657
 20
-1.7699999999407749
 30
0.0
 11
83.814166666690326
 21
-3.9999999999407749
 31
0.0
  0
LINE
  5
4679
  8
250
 10
83.814166666690326
 20
-3.9999999999407749
 30
0.0
 11
83.814166666690326
 21
-1.7699999999407749
 31
0.0
  0
TEXT
  5
467A
  8
250
 10
89.999999999999986
 20
-4.2142857142105941
 30
0.0
 40
3.0
  1
\U+220525
 50
90.0
  0
LINE
  5
467B
  8
250
 10
91.371666666666627
 20
-10.26999999994192
 30
0.0
 11
90.999999999999972
 21
-12.49999999994192
 31
0.0
  0
LINE
  5
467C
  8
250
 10
90.628333333333302
 20
-10.26999999994192
 30
0.0
 11
90.999999999999972
 21
-12.49999999994192
 31
0.0
  0
LINE
  5
467D
  8
250
 10
90.999999999999972
 20
-12.49999999994192
 30
0.0
 11
90.999999999999972
 21
-10.26999999994192
 31
0.0
  0
LINE
  5
467E
  8
250
 10
90.628333333333302
 20
10.27000000005842
 30
0.0
 11
90.999999999999972
 21
12.500000000058421
 31
0.0
  0
LINE
  5
467F
  8
250
 10
91.371666666666627
 20
10.27000000005842
 30
0.0
 11
90.999999999999972
 21
12.500000000058421
 31
0.0
  0
LINE
  5
4680
  8
250
 10
90.999999999999972
 20
12.500000000058421
 30
0.0
 11
90.999999999999972
 21
10.27000000005842
 31
0.0
  0
TEXT
  5
4681
  8
250
 10
34.833333333333279
 20
43.053847577293411
 30
0.0
 40
2.7999999999999989
  1
75
  0
LINE
  5
4682
  8
250
 10
72.769999999999882
 20
42.425514243960073
 30
0.0
 11
74.999999999999886
 21
42.053847577293411
 31
0.0
  0
LINE
  5
4683
  8
250
 10
72.769999999999882
 20
41.682180910626741
 30
0.0
 11
74.999999999999886
 21
42.053847577293411
 31
0.0
  0
LINE
  5
4684
  8
250
 10
74.999999999999886
 20
42.053847577293411
 30
0.0
 11
72.769999999999882
 21
42.053847577293411
 31
0.0
  0
LINE
  5
4685
  8
250
 10
2.2300000000000009
 20
41.682180910626741
 30
0.0
 11
0.0000000000000016
 21
42.053847577293411
 31
0.0
  0
LINE
  5
4686
  8
250
 10
2.2300000000000009
 20
42.425514243960073
 30
0.0
 11
0.0000000000000016
 21
42.053847577293411
 31
0.0
  0
LINE
  5
4687
  8
250
 10
0.0000000000000016
 20
42.053847577293411
 30
0.0
 11
2.2300000000000009
 21
42.053847577293411
 31
0.0
  0
TEXT
  5
4688
  8
250
 10
20.833333333331488
 20
35.968911086753543
 30
0.0
 40
2.7999999999999989
  1
47
  0
LINE
  5
4689
  8
250
 10
44.769999999996301
 20
35.340577753420213
 30
0.0
 11
46.999999999996298
 21
34.968911086753543
 31
0.0
  0
LINE
  5
468A
  8
250
 10
44.769999999996301
 20
34.597244420086867
 30
0.0
 11
46.999999999996298
 21
34.968911086753543
 31
0.0
  0
LINE
  5
468B
  8
250
 10
46.999999999996298
 20
34.968911086753543
 30
0.0
 11
44.769999999996301
 21
34.968911086753543
 31
0.0
  0
LINE
  5
468C
  8
250
 10
2.2300000000000009
 20
34.597244420086867
 30
0.0
 11
0.0000000000000012
 21
34.968911086753543
 31
0.0
  0
LINE
  5
468D
  8
250
 10
2.2300000000000009
 20
35.340577753420213
 30
0.0
 11
0.0000000000000012
 21
34.968911086753543
 31
0.0
  0
LINE
  5
468E
  8
250
 10
0.0000000000000012
 20
34.968911086753543
 30
0.0
 11
2.2300000000000009
 21
34.968911086753543
 31
0.0
  0
TEXT
  5
468F
  8
250
 10
58.33333333331867
 20
36.0
 30
0.0
 40
2.7999999999999989
  1
28
  0
LINE
  5
4690
  8
250
 10
49.22999999998229
 20
34.62833333333333
 30
0.0
 11
46.9999999999823
 21
35.0
 31
0.0
  0
LINE
  5
4691
  8
250
 10
49.22999999998229
 20
35.37166666666667
 30
0.0
 11
46.9999999999823
 21
35.0
 31
0.0
  0
LINE
  5
4692
  8
250
 10
46.9999999999823
 20
35.0
 30
0.0
 11
49.22999999998229
 21
35.0
 31
0.0
  0
LINE
  5
4693
  8
250
 10
72.769999999988372
 20
35.37166666666667
 30
0.0
 11
74.999999999988376
 21
35.0
 31
0.0
  0
LINE
  5
4694
  8
250
 10
72.769999999988372
 20
34.62833333333333
 30
0.0
 11
74.999999999988376
 21
35.0
 31
0.0
  0
LINE
  5
4695
  8
250
 10
74.999999999988376
 20
35.0
 30
0.0
 11
72.769999999988372
 21
35.0
 31
0.0
  0
TEXT
  5
4696
  8
250
 10
51.853079927915552
 20
-33.999999999940648
 30
0.0
 40
3.0
  1
26ü`42
  0
LINE
  5
4697
  8
250
 10
72.770000000011393
 20
-34.628333333273993
 30
0.0
 11
75.000000000011397
 21
-34.999999999940663
 31
0.0
  0
LINE
  5
4698
  8
250
 10
72.770000000011393
 20
-35.371666666607332
 30
0.0
 11
75.000000000011397
 21
-34.999999999940663
 31
0.0
  0
LINE
  5
4699
  8
250
 10
75.000000000011397
 20
-34.999999999940663
 30
0.0
 11
72.770000000011393
 21
-34.999999999940663
 31
0.0
  0
LINE
  5
469A
  8
250
 10
45.964731284391128
 20
-35.371666666607332
 30
0.0
 11
43.734731284391131
 21
-34.999999999940663
 31
0.0
  0
LINE
  5
469B
  8
250
 10
45.964731284391128
 20
-34.628333333273993
 30
0.0
 11
43.734731284391131
 21
-34.999999999940663
 31
0.0
  0
LINE
  5
469C
  8
250
 10
43.734731284391131
 20
-34.999999999940663
 30
0.0
 11
45.964731284391128
 21
-34.999999999940663
 31
0.0
  0
VIEWPORT
  5
22
 67
     1
  8
0
 10
261.51769911504419
 20
148.5
 30
0.0
 40
523.0353982300885
 41
297.0
 68
     1
 69
     1
1001
ACAD
1000
MVIEW
1002
{
1070
    16
1010
0.0
1020
0.0
1030
0.0
1010
0.0
1020
0.0
1030
1.0
1040
0.0
1040
297.0
1040
261.51769911504419
1040
148.5
1040
50.0
1040
0.0
1040
0.0
1070
     0
1070
   100
1070
     1
1070
     1
1070
     0
1070
     0
1070
     0
1070
     0
1040
0.0
1040
0.0
1040
0.0
1040
1.0
1040
1.0
1040
10.0
1040
10.0
1070
     0
1002
{
1002
}
1002
}
1001
GENIUS_GENODEF_13
1002
{
1000
HIER
1070
     0
1002
}
1002
{
1000
MANEDIT
1070
     0
1002
}
1002
{
1000
NOSEL
1070
     0
1002
}
1002
{
1000
BEHIND
1070
     0
1002
}
1002
{
1000
OTHER
1070
     0
1002
}
1002
{
1000
REACTOR
1002
}
1001
GENIUS_GENOBJ-N-SDF_13
1002
{
1000
OWNER
1000
GEN
1002
}
1001
GENIUS_GENSCREG_15
1000
PF
1040
1.0
1000
DF
1040
1.0
1000
MIN
1011
0.0
1021
0.0
1031
0.0
1021
0.0
1031
0.0
1000
MAX
1011
523.0353982300885
1021
0.0
1031
0.0
1021
297.0
1031
0.0
1000
FLAGS
1070
     4
  0
ENDSEC
  0
EOF
