  0
SECTION
  2
HEADER
  9
$ACADVER
  1
AC1009
  9
$INSBASE
 10
0.0
 20
0.0
 30
0.0
  9
$EXTMIN
 10
-62.062377646644109
 20
-43.003858235174611
 30
-0.0000000000112498
  9
$EXTMAX
 10
71.014999693245613
 20
68.010835883193749
 30
0.0000000000002956
  9
$LIMMIN
 10
0.0
 20
0.0
  9
$LIMMAX
 10
297.0
 20
210.0
  9
$ORTHOMODE
 70
     1
  9
$REGENMODE
 70
     1
  9
$FILLMODE
 70
     1
  9
$QTEXTMODE
 70
     0
  9
$MIRRTEXT
 70
     1
  9
$DRAGMODE
 70
     2
  9
$LTSCALE
 40
10.0
  9
$OSMODE
 70
  2597
  9
$ATTMODE
 70
     1
  9
$TEXTSIZE
 40
3.0
  9
$TRACEWID
 40
1.0
  9
$TEXTSTYLE
  7
YOKO
  9
$CLAYER
  8
240
  9
$CELTYPE
  6
BYLAYER
  9
$CECOLOR
 62
   256
  9
$DIMSCALE
 40
1.0
  9
$DIMASZ
 40
2.2299999999999991
  9
$DIMEXO
 40
0.5
  9
$DIMDLI
 40
2.5
  9
$DIMRND
 40
0.0
  9
$DIMDLE
 40
0.0
  9
$DIMEXE
 40
1.0
  9
$DIMTP
 40
0.0
  9
$DIMTM
 40
0.0
  9
$DIMTXT
 40
3.0
  9
$DIMCEN
 40
0.0
  9
$DIMTSZ
 40
0.0
  9
$DIMTOL
 70
     0
  9
$DIMLIM
 70
     0
  9
$DIMTIH
 70
     0
  9
$DIMTOH
 70
     0
  9
$DIMSE1
 70
     0
  9
$DIMSE2
 70
     0
  9
$DIMTAD
 70
     3
  9
$DIMZIN
 70
     8
  9
$DIMBLK
  1
OPEN
  9
$DIMASO
 70
     1
  9
$DIMSHO
 70
     1
  9
$DIMPOST
  1

  9
$DIMAPOST
  1

  9
$DIMALT
 70
     0
  9
$DIMALTD
 70
     2
  9
$DIMALTF
 40
25.399999999999999
  9
$DIMLFAC
 40
1.0
  9
$DIMTOFL
 70
     1
  9
$DIMTVP
 40
0.0
  9
$DIMTIX
 70
     0
  9
$DIMSOXD
 70
     0
  9
$DIMSAH
 70
     0
  9
$DIMBLK1
  1

  9
$DIMBLK2
  1

  9
$DIMSTYLE
  2
BIGT
  9
$DIMCLRD
 70
   256
  9
$DIMCLRE
 70
   256
  9
$DIMCLRT
 70
    40
  9
$DIMTFAC
 40
1.0
  9
$DIMGAP
 40
1.0
  9
$LUNITS
 70
     2
  9
$LUPREC
 70
     2
  9
$SKETCHINC
 40
1.0
  9
$FILLETRAD
 40
1.0
  9
$AUNITS
 70
     0
  9
$AUPREC
 70
     3
  9
$MENU
  1
.
  9
$ELEVATION
 40
0.0
  9
$PELEVATION
 40
0.0
  9
$THICKNESS
 40
0.0
  9
$LIMCHECK
 70
     0
  9
$BLIPMODE
 70
     0
  9
$CHAMFERA
 40
10.0
  9
$CHAMFERB
 40
10.0
  9
$SKPOLY
 70
     0
  9
$TDCREATE
 40
2452178.7007617131
  9
$TDUPDATE
 40
2454867.469391956
  9
$TDINDWG
 40
0.0406682523
  9
$TDUSRTIMER
 40
0.0406678819
  9
$USRTIMER
 70
     1
  9
$ANGBASE
 50
0.0
  9
$ANGDIR
 70
     0
  9
$PDMODE
 70
    35
  9
$PDSIZE
 40
2.0
  9
$PLINEWID
 40
0.0
  9
$COORDS
 70
     2
  9
$SPLFRAME
 70
     0
  9
$SPLINETYPE
 70
     6
  9
$SPLINESEGS
 70
     8
  9
$ATTDIA
 70
     1
  9
$ATTREQ
 70
     1
  9
$HANDLING
 70
     1
  9
$HANDSEED
  5
1A88
  9
$SURFTAB1
 70
     6
  9
$SURFTAB2
 70
     6
  9
$SURFTYPE
 70
     6
  9
$SURFU
 70
     6
  9
$SURFV
 70
     6
  9
$UCSNAME
  2

  9
$UCSORG
 10
0.0
 20
0.0
 30
0.0
  9
$UCSXDIR
 10
1.0
 20
0.0
 30
0.0
  9
$UCSYDIR
 10
0.0
 20
1.0
 30
0.0
  9
$PUCSNAME
  2

  9
$PUCSORG
 10
0.0
 20
0.0
 30
0.0
  9
$PUCSXDIR
 10
1.0
 20
0.0
 30
0.0
  9
$PUCSYDIR
 10
0.0
 20
1.0
 30
0.0
  9
$USERI1
 70
     1
  9
$USERI2
 70
     0
  9
$USERI3
 70
     0
  9
$USERI4
 70
     0
  9
$USERI5
 70
     0
  9
$USERR1
 40
0.0
  9
$USERR2
 40
0.0
  9
$USERR3
 40
0.0
  9
$USERR4
 40
0.0
  9
$USERR5
 40
0.0
  9
$WORLDVIEW
 70
     1
  9
$SHADEDGE
 70
     3
  9
$SHADEDIF
 70
    70
  9
$TILEMODE
 70
     1
  9
$MAXACTVP
 70
    16
  9
$PLIMCHECK
 70
     0
  9
$PEXTMIN
 10
1.0000000000000000E+020
 20
1.0000000000000000E+020
 30
1.0000000000000000E+020
  9
$PEXTMAX
 10
-1.0000000000000000E+020
 20
-1.0000000000000000E+020
 30
-1.0000000000000000E+020
  9
$PLIMMIN
 10
0.0
 20
0.0
  9
$PLIMMAX
 10
420.0
 20
297.0
  9
$UNITMODE
 70
     0
  9
$VISRETAIN
 70
     0
  9
$PLINEGEN
 70
     0
  9
$PSLTSCALE
 70
     1
  0
ENDSEC
  0
SECTION
  2
TABLES
  0
TABLE
  2
VPORT
 70
     3
  0
VPORT
  2
*ACTIVE
 70
     0
 10
0.0
 20
0.0
 11
1.0
 21
1.0
 12
4.4763110233007426
 22
12.50348882400956
 13
0.0
 23
0.0
 14
7.0
 24
7.0
 15
7.0
 25
7.0
 16
0.0
 26
0.0
 36
1.0
 17
0.0
 27
0.0
 37
0.0
 40
111.9334364145204
 41
1.357734806629834
 42
50.0
 43
0.0
 44
0.0
 50
0.0
 51
0.0
 71
     0
 72
  2000
 73
     1
 74
     0
 75
     0
 76
     0
 77
     0
 78
     0
  0
ENDTAB
  0
TABLE
  2
LTYPE
 70
    16
  0
LTYPE
  2
CONTINUOUS
 70
     0
  3
Solid line
 72
    65
 73
     0
 40
0.0
  0
LTYPE
  2
CENTER2
 70
     0
  3
___ _ ___ _ ___ _ ___ _ ___ _ ___ _ ___ _ ___ _
 72
    65
 73
     4
 40
1.125
 49
0.75
 49
-0.125
 49
0.125
 49
-0.125
  0
LTYPE
  2
HIDDEN2
 70
     0
  3
_ _ _ _ _ _ _ _ _ _ _ _ _ _ _ _ _ _ _ _ _ _ _ _
 72
    65
 73
     2
 40
0.1875
 49
0.125
 49
-0.0625
  0
LTYPE
  2
PHANTOM2
 70
     0
  3
___ _ _ ___ _ _ ___ _ _ ___ _ _ ___ _ _ ___ _ _
 72
    65
 73
     6
 40
1.25
 49
0.625
 49
-0.125
 49
0.125
 49
-0.125
 49
0.125
 49
-0.125
  0
LTYPE
  2
HIDDEN
 70
     0
  3
Hidden __ __ __ __ __ __ __ __ __ __ __ __ __ _
 72
    65
 73
     2
 40
9.5249999999999986
 49
6.349999999999997
 49
-3.174999999999998
  0
LTYPE
  2
CENTER
 70
     0
  3
Center ____ _ ____ _ ____ _ ____ _ ____ _ ____
 72
    65
 73
     4
 40
50.799999999999997
 49
31.75
 49
-6.349999999999997
 49
6.349999999999997
 49
-6.349999999999997
  0
LTYPE
  2
AMCONSTR
 70
     0
  3
_______________________
 72
    65
 73
     2
 40
9999.0
 49
9999.0
 49
0.0
  0
LTYPE
  2
AMZIGZAG2
 70
     0
  3
/\/-/\/-/\/-/\/-/\/-/\/
 72
    65
 73
     2
 40
0.4401
 49
0.0001
 49
-0.4400000000000002
  0
LTYPE
  2
ACANSTGB
 70
     0
  3
__ . . __ . .
 72
    65
 73
     6
 40
0.35433070866
 49
0.15748031496
 49
-0.03937007874
 49
0.03937007874
 49
-0.03937007874
 49
0.03937007874
 49
-0.03937007874
  0
LTYPE
  2
ACANSTGL
 70
     0
  3
_ _ _ _ _
 72
    65
 73
     2
 40
0.11811023622
 49
0.07874015748
 49
-0.03937007874
  0
ENDTAB
  0
TABLE
  2
LAYER
 70
    10
  0
LAYER
  2
0
 70
     0
 62
     7
  6
CONTINUOUS
  0
LAYER
  2
240
 70
     0
 62
     4
  6
CONTINUOUS
  0
LAYER
  2
241
 70
     0
 62
   211
  6
CONTINUOUS
  0
LAYER
  2
242
 70
     0
 62
     3
  6
CONTINUOUS
  0
LAYER
  2
243
 70
     0
 62
   211
  6
HIDDEN2
  0
LAYER
  2
245
 70
     0
 62
     2
  6
CENTER2
  0
LAYER
  2
246
 70
     0
 62
     3
  6
PHANTOM2
  0
LAYER
  2
247
 70
     0
 62
    60
  6
CONTINUOUS
  0
LAYER
  2
250
 70
     0
 62
     3
  6
CONTINUOUS
  0
LAYER
  2
DEFPOINTS
 70
     0
 62
     7
  6
CONTINUOUS
  0
ENDTAB
  0
TABLE
  2
STYLE
 70
     5
  0
STYLE
  2
STANDARD
 70
     0
 40
0.0
 41
1.0
 50
0.0
 71
     0
 42
3.0
  3
romans.shx
  4
BIGFONT.SHX
  0
STYLE
  2
YOKO
 70
     0
 40
0.0
 41
1.0
 50
0.0
 71
     0
 42
3.0
  3
romans.shx
  4
extfont.shx
  0
STYLE
  2
ACANSTS
 70
     0
 40
1.0
 41
1.0
 50
0.0
 71
     0
 42
3.0
  3
romans.shx
  4
extfont.shx
  0
STYLE
  2
ACANSGDT
 70
     0
 40
0.0
 41
1.0
 50
0.0
 71
     0
 42
3.0
  3
amgdtans.shx
  4

  0
ENDTAB
  0
TABLE
  2
VIEW
 70
     0
  0
ENDTAB
  0
TABLE
  2
UCS
 70
     0
  0
ENDTAB
  0
TABLE
  2
APPID
 70
    19
  0
APPID
  2
ACAD
 70
     0
  0
APPID
  2
GLOBAL
 70
     0
  0
APPID
  2
DETAIL
 70
     0
  0
APPID
  2
GRPNAME
 70
     0
  0
APPID
  2
GPARA
 70
     0
  0
APPID
  2
ITEMNAME
 70
     0
  0
APPID
  2
HATCH_TYPE
 70
     0
  0
APPID
  2
HATCH_DISPLAY
 70
     0
  0
APPID
  2
HATCH_DISTANCE
 70
     0
  0
APPID
  2
MCAD_NO_VIS
 70
     0
  0
APPID
  2
ACAD_TEMP_GRAPHIC
 70
     0
  0
APPID
  2
AD_DRAW
 70
     0
  0
APPID
  2
ACATTRIBSERVICES
 70
     0
  0
APPID
  2
DESIGNERASSEMBLIES
 70
     0
  0
APPID
  2
ACADM_DIM_EDIT
 70
     0
  0
APPID
  2
AMDT_DM_ADJ
 70
     0
  0
APPID
  2
GENIUS_GENSCREG_15
 70
     0
  0
APPID
  2
GENIUS_GENOBJ-N-SDF_13
 70
     0
  0
APPID
  2
GENIUS_GENODEF_13
 70
     0
  0
ENDTAB
  0
TABLE
  2
DIMSTYLE
 70
     8
  0
DIMSTYLE
  2
STANDARD
 70
     0
  3

  4

  5

  6

  7

 40
1.0
 41
2.0
 42
2.0
 43
3.75
 44
2.0
 45
0.0
 46
0.0
 47
0.0
 48
0.0
140
4.0
141
0.09
142
0.0
143
25.399999999999999
144
1.0
145
0.0
146
1.0
147
1.0
 71
     0
 72
     0
 73
     1
 74
     1
 75
     0
 76
     0
 77
     0
 78
     8
170
     0
171
     2
172
     0
173
     1
174
     0
175
     0
176
   256
177
   256
178
   256
  0
DIMSTYLE
  2
BIGT
 70
     0
  3

  4

  5

  6

  7

 40
1.0
 41
2.2299999999999991
 42
0.5
 43
2.5
 44
1.0
 45
0.0
 46
0.0
 47
0.0
 48
0.0
140
3.5
141
0.0
142
0.0
143
25.399999999999999
144
1.0
145
0.0
146
1.0
147
1.0
 71
     0
 72
     0
 73
     0
 74
     0
 75
     0
 76
     0
 77
     3
 78
     9
170
     0
171
     2
172
     1
173
     0
174
     0
175
     0
176
   256
177
   256
178
    40
  0
DIMSTYLE
  2
AM_ANSI
 70
     0
  3

  4
mm
  5

  6

  7

 40
1.0
 41
0.1
 42
0.05
 43
0.5
 44
0.1
 45
0.0
 46
0.0
 47
0.1
 48
0.1
140
0.12
141
0.0
142
0.0
143
25.399999999999999
144
1.0
145
0.0
146
0.71
147
0.06
 71
     0
 72
     0
 73
     1
 74
     1
 75
     0
 76
     0
 77
     0
 78
     7
170
     0
171
     2
172
     0
173
     0
174
     0
175
     0
176
   256
177
   256
178
     2
  0
DIMSTYLE
  2
AM_ANSI$3
 70
     0
  3

  4
mm
  5

  6

  7

 40
1.0
 41
0.1
 42
0.05
 43
0.5
 44
0.1
 45
0.0
 46
0.0
 47
0.1
 48
0.1
140
0.12
141
0.0
142
0.0
143
25.399999999999999
144
1.0
145
0.0
146
0.71
147
0.06
 71
     0
 72
     0
 73
     1
 74
     1
 75
     0
 76
     0
 77
     0
 78
     7
170
     0
171
     2
172
     0
173
     0
174
     0
175
     0
176
   256
177
   256
178
     2
  0
DIMSTYLE
  2
AM_ANSI$4
 70
     0
  3

  4
mm
  5

  6

  7

 40
1.0
 41
0.1
 42
0.05
 43
0.5
 44
0.1
 45
0.0
 46
0.0
 47
0.1
 48
0.1
140
0.12
141
0.0
142
0.0
143
25.399999999999999
144
1.0
145
0.0
146
0.71
147
0.06
 71
     0
 72
     0
 73
     1
 74
     1
 75
     0
 76
     0
 77
     0
 78
     7
170
     0
171
     2
172
     0
173
     0
174
     0
175
     0
176
   256
177
   256
178
     2
  0
DIMSTYLE
  2
AM_ANSI$7
 70
     0
  3

  4
mm
  5

  6

  7

 40
1.0
 41
0.1
 42
0.05
 43
0.5
 44
0.1
 45
0.0
 46
0.0
 47
0.1
 48
0.1
140
0.24
141
0.0
142
0.0
143
25.399999999999999
144
1.0
145
0.0
146
0.71
147
0.06
 71
     0
 72
     0
 73
     1
 74
     1
 75
     0
 76
     0
 77
     0
 78
     7
170
     0
171
     2
172
     0
173
     0
174
     0
175
     0
176
   256
177
   256
178
     2
  0
DIMSTYLE
  2
AM_ANSI$SF
 70
     0
  3

  4
mm
  5

  6

  7

 40
1.0
 41
0.1
 42
0.05
 43
0.5
 44
0.1
 45
0.0
 46
0.0
 47
0.1
 48
0.1
140
0.12
141
0.0
142
0.0
143
25.399999999999999
144
1.0
145
0.0
146
0.71
147
0.06
 71
     0
 72
     0
 73
     1
 74
     1
 75
     1
 76
     1
 77
     0
 78
     7
170
     0
171
     2
172
     0
173
     0
174
     0
175
     0
176
   256
177
   256
178
     2
  0
DIMSTYLE
  2
AM_ANSI$SH
 70
     0
  3

  4
mm
  5

  6

  7

 40
1.0
 41
0.1
 42
0.05
 43
0.5
 44
0.1
 45
0.0
 46
0.0
 47
0.1
 48
0.1
140
0.12
141
0.0
142
0.0
143
25.399999999999999
144
1.0
145
0.0
146
0.71
147
0.06
 71
     0
 72
     0
 73
     1
 74
     1
 75
     1
 76
     1
 77
     0
 78
     7
170
     0
171
     2
172
     0
173
     1
174
     0
175
     0
176
   256
177
   256
178
     2
  0
ENDTAB
  0
ENDSEC
  0
SECTION
  2
BLOCKS
  0
BLOCK
  8
0
  2
$MODEL_SPACE
 70
     0
 10
0.0
 20
0.0
 30
0.0
  3
$MODEL_SPACE
  1

  0
ENDBLK
  5
19A3
  8
0
  0
BLOCK
 67
     1
  8
0
  2
$PAPER_SPACE
 70
     0
 10
0.0
 20
0.0
 30
0.0
  3
$PAPER_SPACE
  1

  0
ENDBLK
  5
199F
 67
     1
  8
0
  0
BLOCK
  8
0
  2
_OPEN
 70
     0
 10
0.0
 20
0.0
 30
0.0
  3
_OPEN
  1

  0
LINE
  5
595
  8
0
  6
BYBLOCK
 62
     0
 10
-1.0
 20
0.1666666666666666
 30
0.0
 11
0.0
 21
0.0
 31
0.0
  0
LINE
  5
596
  8
0
  6
BYBLOCK
 62
     0
 10
-1.0
 20
-0.1666666666666666
 30
0.0
 11
0.0
 21
0.0
 31
0.0
  0
LINE
  5
597
  8
0
  6
BYBLOCK
 62
     0
 10
0.0
 20
0.0
 30
0.0
 11
-1.0
 21
0.0
 31
0.0
  0
ENDBLK
  5
599
  8
0
  0
BLOCK
  8
0
  2
A$C6CD35A98
 70
     0
 10
0.0
 20
0.0
 30
0.0
  3
A$C6CD35A98
  1

  0
LINE
  5
1683
  8
240
 10
44.794974746830469
 20
16.455025253169421
 30
0.0
 11
43.984314575050682
 21
17.26568542494925
 31
0.0
  0
ARC
  5
1684
  8
240
 10
44.299999999999933
 20
15.960050506338799
 30
0.0
 40
0.7000000000000171
 50
0.0
 51
45.0
  0
ARC
  5
1685
  8
240
 10
43.418629150101417
 20
16.699999999999989
 30
0.0
 40
0.7999999999999984
 50
45.0
 51
90.0
  0
LINE
  5
1686
  8
246
 10
41.799999999999947
 20
10.25
 30
0.0
 11
41.999999999999851
 21
10.25
 31
0.0
  0
LINE
  5
1687
  8
246
 10
41.799999999999947
 20
8.75
 30
0.0
 11
41.799999999999947
 21
10.25
 31
0.0
  0
LINE
  5
1688
  8
246
 10
39.399999999999871
 20
10.25
 30
0.0
 11
39.399999999999871
 21
8.75
 31
0.0
  0
LINE
  5
1689
  8
246
 10
39.399999999999871
 20
8.75
 30
0.0
 11
41.799999999999947
 21
8.75
 31
0.0
  0
LINE
  5
168A
  8
241
 10
38.499999999999879
 20
16.05614492491355
 30
0.0
 11
38.499999999999879
 21
14.05614492491361
 31
0.0
  0
LINE
  5
168B
  8
246
 10
41.999999999999851
 20
10.25
 30
0.0
 11
44.999999999999879
 21
8.5179491924311606
 31
0.0
  0
ARC
  5
168C
  8
240
 10
30.299999999999841
 20
16.699999999999989
 30
0.0
 40
0.799999999999983
 50
90.0
 51
180.0
  0
ARC
  5
168D
  8
240
  6
CONTINUOUS
 10
21.199999999999989
 20
22.200000000000038
 30
0.0
 40
0.8000000000000112
 50
0.0
 51
90.0
1001
GRPNAME
1000
PASTMD03
  0
LINE
  5
168E
  8
240
 10
28.999999999999879
 20
14.5
 30
0.0
 11
29.499999999999879
 21
15.0
 31
0.0
  0
LINE
  5
168F
  8
240
 10
28.999999999999879
 20
14.5
 30
0.0
 11
28.999999999999879
 21
13.0
 31
0.0
  0
LINE
  5
1690
  8
242
 10
26.499999999999879
 20
12.5
 30
0.0
 11
25.999999999999879
 21
13.0
 31
0.0
  0
LINE
  5
1691
  8
242
 10
28.999999999999879
 20
12.5
 30
0.0
 11
26.499999999999879
 21
12.5
 31
0.0
  0
ARC
  5
1692
  8
240
  6
CONTINUOUS
 10
23.0
 20
14.0
 30
0.0
 40
1.0
 50
180.0
 51
270.0
  0
LINE
  5
1693
  8
240
 10
23.0
 20
13.0
 30
0.0
 11
28.999999999999879
 21
13.0
 31
0.0
  0
LINE
  5
1694
  8
240
 10
29.499999999999879
 20
16.699999999999989
 30
0.0
 11
29.499999999999879
 21
14.99999999999994
 31
0.0
  0
LINE
  5
1695
  8
240
  6
CONTINUOUS
 10
22.0
 20
22.200000000000038
 30
0.0
 11
22.0
 21
14.0
 31
0.0
1001
GRPNAME
1000
PASTMD03
  0
LINE
  5
1696
  8
240
  6
CONTINUOUS
 10
17.518362671936579
 20
22.85860000000002
 30
0.0
 11
17.763274656126828
 21
23.0
 31
0.0
1001
GRPNAME
1000
PASTMD03
  0
LINE
  5
1697
  8
243
  6
HIDDEN2
 10
19.0
 20
16.300000000000001
 30
0.0
 11
19.0
 21
23.0
 31
0.0
1001
GRPNAME
1000
PASTMD03
  0
LINE
  5
1698
  8
240
  6
CONTINUOUS
 10
15.30000000000001
 20
19.016283142591568
 30
0.0
 11
17.5
 21
22.82679491924312
 31
0.0
1001
GRPNAME
1000
PASTMD03
  0
LINE
  5
1699
  8
240
  6
CONTINUOUS
 10
9.4367253438731495
 20
23.0
 30
0.0
 11
9.6816373280634007
 21
22.85860000000002
 31
0.0
1001
GRPNAME
1000
PASTMD03
  0
LINE
  5
169A
  8
240
  6
CONTINUOUS
 10
11.89999999999997
 20
19.016283142591568
 30
0.0
 11
9.6816373280634007
 21
22.85860000000002
 31
0.0
1001
GRPNAME
1000
PASTMD03
  0
LINE
  5
169B
  8
240
  6
CONTINUOUS
 10
11.89999999999997
 20
19.0
 30
0.0
 11
15.30000000000001
 21
19.0
 31
0.0
1001
GRPNAME
1000
PASTMD03
  0
LINE
  5
169C
  8
240
  6
CONTINUOUS
 10
17.763274656126828
 20
23.0
 30
0.0
 11
21.199999999999989
 21
23.0
 31
0.0
1001
GRPNAME
1000
PASTMD03
  0
LINE
  5
169D
  8
246
 10
39.399999999999871
 20
10.25
 30
0.0
 11
13.999999999999879
 21
7.5803524242518252
 31
0.0
  0
LINE
  5
169E
  8
241
 10
38.499999999999879
 20
14.05614492491361
 30
0.0
 11
29.499999999999879
 21
14.05614492491361
 31
0.0
  0
LINE
  5
169F
  8
241
 10
38.499999999999879
 20
16.05614492491355
 30
0.0
 11
29.499999999999879
 21
16.05614492491355
 31
0.0
  0
LINE
  5
16A0
  8
240
 10
30.299999999999841
 20
17.5
 30
0.0
 11
43.418629150101417
 21
17.5
 31
0.0
  0
LINE
  5
16A1
  8
241
 10
38.499999999999879
 20
2.0
 30
0.0
 11
38.499999999999879
 21
0.0
 31
0.0
  0
LINE
  5
16A2
  8
246
 10
39.399999999999871
 20
-8.75
 30
0.0
 11
41.799999999999947
 21
-8.75
 31
0.0
  0
LINE
  5
16A3
  8
241
 10
38.499999999999879
 20
-1.9999999999999409
 30
0.0
 11
38.499999999999879
 21
0.0000000000000568
 31
0.0
  0
ARC
  5
16A4
  8
240
 10
44.299999999999841
 20
-15.96005050633886
 30
0.0
 40
0.7000000000000137
 50
315.0
 51
0.0
  0
ARC
  5
16A5
  8
240
 10
43.41862915010131
 20
-16.699999999999989
 30
0.0
 40
0.7999999999999972
 50
270.0
 51
315.0
  0
LINE
  5
16A6
  8
240
 10
43.984314575050568
 20
-17.26568542494925
 30
0.0
 11
44.794974746830469
 21
-16.455025253169421
 31
0.0
  0
LINE
  5
16A7
  8
246
 10
41.799999999999947
 20
-10.25
 30
0.0
 11
41.999999999999851
 21
-10.25
 31
0.0
  0
LINE
  5
16A8
  8
241
 10
38.499999999999879
 20
-16.05614492491355
 30
0.0
 11
38.499999999999879
 21
-14.05614492491355
 31
0.0
  0
LINE
  5
16A9
  8
246
 10
41.999999999999851
 20
-10.25
 30
0.0
 11
44.999999999999879
 21
-8.5179491924311002
 31
0.0
  0
LINE
  5
16AA
  8
246
 10
39.399999999999871
 20
-10.25
 30
0.0
 11
39.399999999999871
 21
-8.75
 31
0.0
  0
LINE
  5
16AB
  8
246
 10
41.799999999999947
 20
-8.75
 30
0.0
 11
41.799999999999947
 21
-10.25
 31
0.0
  0
LINE
  5
16AC
  8
242
 10
26.499999999999879
 20
-12.5
 30
0.0
 11
25.999999999999879
 21
-13.0
 31
0.0
  0
LINE
  5
16AD
  8
242
 10
28.999999999999879
 20
-12.5
 30
0.0
 11
26.499999999999879
 21
-12.5
 31
0.0
  0
LINE
  5
16AE
  8
240
 10
29.499999999999879
 20
-16.699999999999989
 30
0.0
 11
29.499999999999879
 21
-14.99999999999994
 31
0.0
  0
LINE
  5
16AF
  8
240
 10
28.999999999999879
 20
-14.49999999999994
 30
0.0
 11
29.499999999999879
 21
-14.99999999999994
 31
0.0
  0
LINE
  5
16B0
  8
240
 10
28.999999999999879
 20
-14.49999999999994
 30
0.0
 11
28.999999999999879
 21
-13.0
 31
0.0
  0
ARC
  5
16B1
  8
240
 10
23.0
 20
-14.0
 30
0.0
 40
1.0
 50
90.0
 51
180.0
1001
GRPNAME
1000
PASTMD03
  0
LINE
  5
16B2
  8
240
 10
23.0
 20
-13.0
 30
0.0
 11
28.999999999999879
 21
-13.0
 31
0.0
  0
ARC
  5
16B3
  8
240
  6
CONTINUOUS
 10
21.199999999999989
 20
-22.199999999999982
 30
0.0
 40
0.8000000000000112
 50
269.99999998970981
 51
0.0
1001
GRPNAME
1000
PASTMD03
  0
ARC
  5
16B4
  8
240
  6
CONTINUOUS
 10
23.0
 20
-22.199999999999982
 30
0.0
 40
1.0
 50
180.0
 51
180.0
1001
GRPNAME
1000
PASTMD03
  0
ARC
  5
16B5
  8
240
 10
30.299999999999841
 20
-16.699999999999989
 30
0.0
 40
0.8000000000000112
 50
180.0
 51
270.0
  0
LINE
  5
16B6
  8
240
  6
CONTINUOUS
 10
22.0
 20
-22.199999999999982
 30
0.0
 11
22.0
 21
-14.0
 31
0.0
1001
GRPNAME
1000
PASTMD03
  0
LINE
  5
16B7
  8
240
  6
CONTINUOUS
 10
17.518362671936579
 20
-22.85860000000002
 30
0.0
 11
17.763274656126828
 21
-23.0
 31
0.0
1001
GRPNAME
1000
PASTMD03
  0
LINE
  5
16B8
  8
240
  6
CONTINUOUS
 10
15.30000000000001
 20
-19.016283142591519
 30
0.0
 11
17.518362671936579
 21
-22.85860000000002
 31
0.0
1001
GRPNAME
1000
PASTMD03
  0
LINE
  5
16B9
  8
240
  6
CONTINUOUS
 10
9.4367253438732082
 20
-23.0
 30
0.0
 11
9.6816373280634593
 21
-22.85859999999996
 31
0.0
1001
GRPNAME
1000
PASTMD03
  0
LINE
  5
16BA
  8
240
  6
CONTINUOUS
 10
11.89999999999997
 20
-19.016283142591519
 30
0.0
 11
9.6816373280634593
 21
-22.85859999999991
 31
0.0
1001
GRPNAME
1000
PASTMD03
  0
LINE
  5
16BB
  8
240
  6
CONTINUOUS
 10
11.89999999999997
 20
-19.0
 30
0.0
 11
15.30000000000001
 21
-19.0
 31
0.0
1001
GRPNAME
1000
PASTMD03
  0
LINE
  5
16BC
  8
243
  6
HIDDEN2
 10
19.0
 20
-16.300000000000001
 30
0.0
 11
19.0
 21
-23.0
 31
0.0
1001
GRPNAME
1000
PASTMD03
  0
LINE
  5
16BD
  8
240
  6
CONTINUOUS
 10
21.199999999999989
 20
-23.0
 30
0.0
 11
17.763274656126828
 21
-23.0
 31
0.0
1001
GRPNAME
1000
PASTMD03
  0
LINE
  5
16BE
  8
241
  6
CONTINUOUS
 10
17.600000000000019
 20
0.0
 30
0.0
 11
17.600000000000019
 21
-22.90573333333333
 31
0.0
1001
GRPNAME
1000
PASTMD03
  0
LINE
  5
16BF
  8
241
  6
CONTINUOUS
 10
15.30000000000001
 20
-19.0
 30
0.0
 11
15.30000000000001
 21
0.0
 31
0.0
1001
GRPNAME
1000
PASTMD03
  0
LINE
  5
16C0
  8
241
  6
CONTINUOUS
 10
11.89999999999997
 20
-19.0
 30
0.0
 11
11.89999999999997
 21
0.0
 31
0.0
1001
GRPNAME
1000
PASTMD03
  0
LINE
  5
16C1
  8
241
  6
CONTINUOUS
 10
9.6000000000000245
 20
0.0
 30
0.0
 11
9.6000000000000245
 21
-22.90573333333333
 31
0.0
1001
GRPNAME
1000
PASTMD03
  0
LINE
  5
16C2
  8
241
 10
28.999999999999879
 20
-13.0
 30
0.0
 11
28.999999999999879
 21
0.0000000000000568
 31
0.0
  0
LINE
  5
16C3
  8
241
 10
29.499999999999879
 20
-14.99999999999994
 30
0.0
 11
29.499999999999879
 21
0.0000000000000568
 31
0.0
  0
LINE
  5
16C4
  8
241
 10
26.499999999999879
 20
-12.5
 30
0.0
 11
26.499999999999879
 21
0.0
 31
0.0
  0
LINE
  5
16C5
  8
240
 10
30.299999999999841
 20
-17.5
 30
0.0
 11
43.41862915010131
 21
-17.50000000000005
 31
0.0
  0
LINE
  5
16C6
  8
241
 10
38.499999999999879
 20
-16.05614492491355
 30
0.0
 11
29.499999999999879
 21
-16.05614492491355
 31
0.0
  0
LINE
  5
16C7
  8
246
 10
39.399999999999871
 20
-10.25
 30
0.0
 11
13.999999999999879
 21
-7.5803524242518252
 31
0.0
  0
LINE
  5
16C8
  8
246
 10
13.999999999999879
 20
6.500000000000056
 30
0.0
 11
44.999999999999879
 21
6.500000000000056
 31
0.0
  0
LINE
  5
16C9
  8
246
 10
13.999999999999879
 20
-6.5
 30
0.0
 11
44.999999999999879
 21
-6.5
 31
0.0
  0
LINE
  5
16CA
  8
241
 10
38.499999999999879
 20
-14.05614492491355
 30
0.0
 11
29.499999999999879
 21
-14.05614492491355
 31
0.0
  0
LINE
  5
16CB
  8
241
 10
38.499999999999879
 20
-1.9999999999999409
 30
0.0
 11
29.499999999999879
 21
-1.9999999999999409
 31
0.0
  0
LINE
  5
16CC
  8
241
 10
38.499999999999879
 20
2.0
 30
0.0
 11
29.499999999999879
 21
2.0
 31
0.0
  0
LINE
  5
16CD
  8
240
 10
44.999999999999879
 20
15.960050506338799
 30
0.0
 11
44.999999999999879
 21
-15.96005050633886
 31
0.0
  0
LINE
  5
16CE
  8
241
 10
43.41862915010131
 20
17.00094607379372
 30
0.0
 11
43.41862915010131
 21
-17.152317880794659
 31
0.0
  0
LINE
  5
16CF
  8
241
  6
CONTINUOUS
 10
17.600000000000019
 20
0.0
 30
0.0
 11
17.600000000000019
 21
22.90573333333333
 31
0.0
1001
GRPNAME
1000
PASTMD03
  0
LINE
  5
16D0
  8
241
  6
CONTINUOUS
 10
15.30000000000001
 20
19.0
 30
0.0
 11
15.30000000000001
 21
0.0
 31
0.0
1001
GRPNAME
1000
PASTMD03
  0
LINE
  5
16D1
  8
241
  6
CONTINUOUS
 10
11.89999999999997
 20
19.0
 30
0.0
 11
11.89999999999997
 21
0.0
 31
0.0
1001
GRPNAME
1000
PASTMD03
  0
LINE
  5
16D2
  8
241
  6
CONTINUOUS
 10
9.6000000000000245
 20
0.0
 30
0.0
 11
9.6000000000000245
 21
22.90573333333333
 31
0.0
1001
GRPNAME
1000
PASTMD03
  0
LINE
  5
16D3
  8
246
 10
13.9999999999996
 20
7.5803524242517133
 30
0.0
 11
13.999999999999879
 21
-7.580352424251938
 31
0.0
  0
LINE
  5
16D4
  8
241
 10
29.499999999999879
 20
14.99999999999994
 30
0.0
 11
29.499999999999879
 21
0.0
 31
0.0
  0
LINE
  5
16D5
  8
241
 10
28.999999999999879
 20
13.0
 30
0.0
 11
28.999999999999879
 21
0.0
 31
0.0
  0
LINE
  5
16D6
  8
241
 10
26.499999999999879
 20
12.5
 30
0.0
 11
26.499999999999879
 21
0.0000000000000568
 31
0.0
  0
LINE
  5
16D7
  8
241
 10
22.00000000000005
 20
-14.0
 30
0.0
 11
22.0
 21
14.0
 31
0.0
  0
ARC
  5
16D8
  8
240
  6
CONTINUOUS
 10
1.5
 20
22.5
 30
0.0
 40
0.5
 50
89.999999997427025
 51
179.99999999742701
1001
GRPNAME
1000
PASTMD03
  0
LINE
  5
16D9
  8
240
 10
0.0
 20
15.87500000000011
 30
0.0
 11
1.0
 21
15.87500000000113
 31
0.0
  0
LINE
  5
16DA
  8
240
  6
CONTINUOUS
 10
1.0
 20
22.5
 30
0.0
 11
1.0
 21
15.87500000000022
 31
0.0
1001
GRPNAME
1000
PASTMD03
  0
ARC
  5
16DB
  8
240
 10
-47.899999999999977
 20
8.3841292718131513
 30
0.0
 40
0.5000000000000023
 50
98.297338155456529
 51
179.99999999485399
1001
GRPNAME
1000
PASTMD03
  0
LINE
  5
16DC
  8
240
  6
CONTINUOUS
 10
-47.97215511479645
 20
8.8788955190539127
 30
0.0
 11
0.0000000000001137
 21
15.875
 31
0.0
1001
GRPNAME
1000
PASTMD03
  0
LINE
  5
16DD
  8
246
 10
-5.000000000000111
 20
6.3000000000000123
 30
0.0
 11
-5.7000000000001023
 21
7.000000000000056
 31
0.0
  0
LINE
  5
16DE
  8
246
 10
-5.000000000000056
 20
6.000000000000056
 30
0.0
 11
-8.6905989232415095
 21
2.309401076758546
 31
0.0
  0
LINE
  5
16DF
  8
246
 10
-12.60128252576458
 20
2.309401076758546
 30
0.0
 11
-13.00000000000011
 21
3.0000000000000551
 31
0.0
  0
LINE
  5
16E0
  8
246
 10
-13.00000000000011
 20
3.0000000000000551
 30
0.0
 11
-13.00000000000005
 21
1.7725150303659221
 31
0.0
  0
LINE
  5
16E1
  8
246
 10
-12.60128252576458
 20
-1.154700538379245
 30
0.0
 11
-8.6905989232415095
 21
-1.154700538379245
 31
0.0
  0
LINE
  5
16E2
  8
246
 10
-12.60128252576458
 20
2.309401076758546
 30
0.0
 11
-8.6905989232415095
 21
2.309401076758546
 31
0.0
  0
LINE
  5
16E3
  8
246
 10
-12.60128252576458
 20
1.1547005383793021
 30
0.0
 11
-8.6905989232415095
 21
1.1547005383793021
 31
0.0
  0
LINE
  5
16E4
  8
246
 10
-5.7000000000001023
 20
-7.0
 30
0.0
 11
-5.000000000000111
 21
-6.3000000000000123
 31
0.0
  0
LINE
  5
16E5
  8
246
 10
-5.000000000000056
 20
-6.0
 30
0.0
 11
-8.6905989232415095
 21
-2.309401076758546
 31
0.0
  0
LINE
  5
16E6
  8
246
 10
-13.00000000000011
 20
-3.0
 30
0.0
 11
-13.00000000000005
 21
-1.7725150303659221
 31
0.0
  0
LINE
  5
16E7
  8
246
 10
-12.60128252576458
 20
-2.309401076758546
 30
0.0
 11
-13.00000000000011
 21
-3.0
 31
0.0
  0
LINE
  5
16E8
  8
246
 10
-12.60128252576458
 20
-2.309401076758546
 30
0.0
 11
-8.6905989232415095
 21
-2.309401076758546
 31
0.0
  0
LINE
  5
16E9
  8
246
 10
-12.60128252576458
 20
-2.309401076758546
 30
0.0
 11
-12.60128252576458
 21
2.309401076758546
 31
0.0
  0
LINE
  5
16EA
  8
246
 10
-8.6905989232415095
 20
-2.309401076758546
 30
0.0
 11
-8.6905989232415095
 21
2.309401076758546
 31
0.0
  0
LINE
  5
16EB
  8
246
 10
-5.000000000000111
 20
6.3000000000000123
 30
0.0
 11
-5.000000000000111
 21
-6.3000000000000123
 31
0.0
  0
ARC
  5
16EC
  8
247
 10
6.0520018284931858
 20
-16.198698305699281
 30
0.0
 40
0.3182872831821442
 50
254.00027305718399
 51
74.00027305718406
1001
ACAD
1000
ASC_BOUNDS
1002
{
1070
    19
1005
1712
1002
}
  0
LINE
  5
16ED
  8
247
 10
6.525924915613242
 20
-15.601591372105521
 30
0.0
 11
6.7037317698612924
 21
-15.42377307376568
 31
0.0
1001
ACAD
1000
ASC_BOUNDS
1002
{
1070
    19
1005
1712
1002
}
  0
LINE
  5
16EE
  8
247
 10
5.4609030430927961
 20
-15.95036151370709
 30
0.0
 11
5.1577719395771711
 21
-15.863443636509819
 31
0.0
1001
ACAD
1000
ASC_BOUNDS
1002
{
1070
    19
1005
1712
1002
}
  0
LINE
  5
16EF
  8
247
 10
5.4609030430927961
 20
-15.95036151370709
 30
0.0
 11
5.4609030430927961
 21
-15.698087954136779
 31
0.0
1001
ACAD
1000
ASC_BOUNDS
1002
{
1070
    19
1005
1712
1002
}
  0
ARC
  5
16F0
  8
247
 10
4.9607390111103751
 20
-15.948850893589899
 30
0.0
 40
0.9851660728454588
 50
143.44401219705779
 51
254.00018438768541
1001
ACAD
1000
ASC_BOUNDS
1002
{
1070
    19
1005
1712
1002
}
  0
ARC
  5
16F1
  8
247
 10
4.6273039525166251
 20
-15.79016711673443
 30
0.0
 40
0.3182875066995621
 50
91.710121382062766
 51
253.9983983544486
1001
ACAD
1000
ASC_BOUNDS
1002
{
1070
    19
1005
1712
1002
}
  0
ARC
  5
16F2
  8
247
 10
5.770362729372092
 20
-14.555441164586
 30
0.0
 40
2.5780792236328121
 50
245.2051773698407
 51
262.79482596205207
1001
ACAD
1000
ASC_BOUNDS
1002
{
1070
    19
1005
1712
1002
}
  0
ARC
  5
16F3
  8
247
 10
5.5670012181416251
 20
-14.600965761753971
 30
0.0
 40
1.288299322128293
 50
200.87218340207721
 51
222.5419489373881
1001
ACAD
1000
ASC_BOUNDS
1002
{
1070
    19
1005
1712
1002
}
  0
LINE
  5
16F4
  8
247
 10
4.3632429783955331
 20
-15.059965395543029
 30
0.0
 11
4.0737417882099836
 21
-15.1512549158067
 31
0.0
1001
ACAD
1000
ASC_BOUNDS
1002
{
1070
    19
1005
1712
1002
}
  0
ARC
  5
16F5
  8
247
 10
5.5670012181416251
 20
-14.600965761753971
 30
0.0
 40
1.591427564620969
 50
200.22964506332011
 51
208.57168892371641
1001
ACAD
1000
ASC_BOUNDS
1002
{
1070
    19
1005
1712
1002
}
  0
POLYLINE
  5
16F6
  8
247
 66
     1
 10
0.0
 20
0.0
 30
0.0
 70
     1
1001
HATCH_DISTANCE
1040
1.0
1001
HATCH_DISPLAY
1070
     0
1001
HATCH_TYPE
1070
     7
  0
VERTEX
  5
16F7
  8
247
 10
4.3176611607685791
 20
-14.9154150720567
 30
0.0
  0
VERTEX
  5
16F8
  8
247
 10
4.0281599705830331
 20
-15.006704592320361
 30
0.0
  0
VERTEX
  5
16F9
  8
247
 10
4.0281599705830331
 20
-15.006704592320361
 30
0.0
  0
VERTEX
  5
16FA
  8
247
 10
4.3176611607685791
 20
-14.9154150720567
 30
0.0
  0
SEQEND
  5
16FB
  8
247
  0
POLYLINE
  5
16FC
  8
247
 66
     1
 10
0.0
 20
0.0
 30
0.0
 70
     1
  0
VERTEX
  5
16FD
  8
247
 10
4.3176611607685791
 20
-14.9154150720567
 30
0.0
  0
VERTEX
  5
16FE
  8
247
 10
4.0281599705830331
 20
-15.006704592320361
 30
0.0
  0
VERTEX
  5
16FF
  8
247
 10
4.0281599705830331
 20
-15.006704592320361
 30
0.0
  0
VERTEX
  5
1700
  8
247
 10
4.3176611607685791
 20
-14.9154150720567
 30
0.0
  0
SEQEND
  5
1701
  8
247
  0
POLYLINE
  5
1702
  8
247
 66
     1
 10
0.0
 20
0.0
 30
0.0
 70
     1
1001
HATCH_DISTANCE
1040
1.0
1001
HATCH_DISPLAY
1070
     0
1001
HATCH_TYPE
1070
     7
  0
VERTEX
  5
1703
  8
247
 10
4.3176611607685791
 20
-14.9154150720567
 30
0.0
  0
VERTEX
  5
1704
  8
247
 10
4.0281599705830331
 20
-15.006704592320361
 30
0.0
  0
VERTEX
  5
1705
  8
247
 10
4.0281599705830331
 20
-15.006704592320361
 30
0.0
  0
VERTEX
  5
1706
  8
247
 10
4.3176611607685791
 20
-14.9154150720567
 30
0.0
  0
SEQEND
  5
1707
  8
247
  0
POLYLINE
  5
1708
  8
247
 66
     1
 10
0.0
 20
0.0
 30
0.0
 70
     1
  0
VERTEX
  5
1709
  8
247
 10
4.3176611607685791
 20
-14.9154150720567
 30
0.0
  0
VERTEX
  5
170A
  8
247
 10
4.0281599705830331
 20
-15.006704592320361
 30
0.0
  0
VERTEX
  5
170B
  8
247
 10
4.0281599705830331
 20
-15.006704592320361
 30
0.0
  0
VERTEX
  5
170C
  8
247
 10
4.3176611607685791
 20
-14.9154150720567
 30
0.0
  0
SEQEND
  5
170D
  8
247
  0
LINE
  5
170E
  8
247
 10
4.3176611607685791
 20
-14.9154150720567
 30
0.0
 11
4.0281599705830331
 21
-15.006704592320361
 31
0.0
1001
ACAD
1000
ASC_BOUNDS
1002
{
1070
    19
1005
173E
1002
}
  0
LINE
  5
170F
  8
247
 10
5.1577719395771711
 20
-15.863443636509819
 30
0.0
 11
5.1577719395771711
 21
-14.98047473392193
 31
0.0
1001
ACAD
1000
ASC_BOUNDS
1002
{
1070
    19
1005
1712
1002
}
  0
ARC
  5
1710
  8
247
 10
5.7185667698994358
 20
-16.166151308628962
 30
0.0
 40
0.9851760864257813
 50
253.99975070172931
 51
34.963873291630819
1001
ACAD
1000
ASC_BOUNDS
1002
{
1070
    19
1005
1712
1002
}
  0
LINE
  5
1711
  8
247
 10
6.1397322362080322
 20
-15.892740511509819
 30
0.0
 11
5.4609030430927961
 21
-15.698087954136779
 31
0.0
1001
ACAD
1000
ASC_BOUNDS
1002
{
1070
    19
1005
1712
1002
}
  0
INSERT
  5
1712
  8
247
  6
CONTINUOUS
  2
*X5
 10
0.0
 20
0.0
 30
0.0
1001
ACAD
1000
HATCH
1002
{
1070
    19
1000
ANSI31
1040
0.075
1040
1.5707963267948939
1000
ASC_BOUNDS
1070
     1
1070
     2
1070
    15
1005
16F5
1005
16F0
1005
16F2
1005
1710
1005
16ED
1005
1714
1005
170F
1005
16EE
1005
16EF
1005
1711
1005
16EC
1005
1713
1005
16F1
1005
16F3
1005
16F4
1000
ASC_SEEDPOINT
1011
18.970920914949481
1021
0.0
1031
-2684993.5098876953
1021
-112.1959050889939
1031
0.0
1000
R14_HATCH_DATA
1000
1712
1011
1.0
1021
0.0
1031
-2684993.5098876953
1021
0.0
1031
0.0
1011
0.0
1021
0.0
1031
-2684993.5098876953
1021
1.0
1031
0.0
1011
0.0
1021
0.0
1031
-2684993.5098876953
1021
0.0
1031
1.0
1040
0.0
1010
0.0
1020
0.0
1030
1.0
1000
ANSI31
1070
     0
1070
     1
1071
        1
1071
       33
1071
       15
1070
     1
1040
4.3632429783955331
1040
-15.059965395543029
1040
4.0737417882099836
1040
-15.1512549158067
1070
     2
1040
5.5670012181416251
1040
-14.600965761753971
1040
1.288299322128293
1040
3.50588097603615
1040
3.8840897327625181
1070
     1
1070
     2
1040
4.6273039525166251
1040
-15.79016711673443
1040
0.3182875066995621
1040
1.6006435755206461
1040
4.4331083460772751
1070
     1
1070
     1
1040
5.964271420778342
1040
-16.504656099888731
1040
4.5395621007099836
1040
-16.096124910923891
1070
     2
1040
6.0520018284931858
1040
-16.198698305699281
1040
0.3182872831821442
1040
4.433141065812503
1040
7.574733719402297
1070
     1
1070
     1
1040
6.1397322362080322
1040
-15.892740511509819
1040
5.4609030430927961
1040
-15.698087954136779
1070
     1
1040
5.4609030430927961
1040
-15.95036151370709
1040
5.4609030430927961
1040
-15.698087954136779
1070
     1
1040
5.4609030430927961
1040
-15.95036151370709
1040
5.1577719395771711
1040
-15.863443636509819
1070
     1
1040
5.1577719395771711
1040
-15.863443636509819
1040
5.1577719395771711
1040
-14.98047473392193
1070
     1
1040
6.7037317698612924
1040
-15.42377307376568
1040
5.1577719395771711
1040
-14.98047473392193
1070
     1
1040
6.525924915613242
1040
-15.601591372105521
1040
6.7037317698612924
1040
-15.42377307376568
1070
     2
1040
5.7185667698994358
1040
-16.166151308628962
1040
0.9851760864257813
1040
4.433131948989951
1040
6.8934200153686511
1070
     1
1070
     2
1040
5.770362729372092
1040
-14.555441164586
1040
2.5780792236328121
1040
4.279637688040407
1040
4.586634970243284
1070
     1
1070
     2
1040
4.9607390111103751
1040
-15.948850893589899
1040
0.9851660728454588
1040
2.5035703051095641
1040
4.4331395182378071
1070
     1
1070
     2
1040
5.5670012181416251
1040
-14.600965761753971
1040
1.591427564620969
1040
3.4946665664545442
1040
3.640262698164241
1070
     1
1071
       15
1005
16F4
1005
16F3
1005
16F1
1005
1713
1005
16EC
1005
1711
1005
16EF
1005
16EE
1005
170F
1005
1714
1005
16ED
1005
1710
1005
16F2
1005
16F0
1005
16F5
1070
     0
1070
     1
1040
1.5707963267948939
1040
0.075
1070
     0
1070
     1
1040
2.3561944901923431
1040
18.970920914949481
1040
-112.1959050889939
1040
-0.1683798022700466
1040
-0.1683798022700466
1070
     0
1071
        1
1040
18.970920914949481
1040
-112.1959050889939
1040
0.0
1002
}
  0
LINE
  5
1713
  8
247
 10
5.964271420778342
 20
-16.504656099888731
 30
0.0
 11
4.5395621007099836
 21
-16.096124910923891
 31
0.0
1001
ACAD
1000
ASC_BOUNDS
1002
{
1070
    19
1005
1712
1002
}
  0
LINE
  5
1714
  8
247
 10
6.7037317698612924
 20
-15.42377307376568
 30
0.0
 11
5.1577719395771711
 21
-14.98047473392193
 31
0.0
1001
ACAD
1000
ASC_BOUNDS
1002
{
1070
    19
1005
1712
1002
}
  0
ARC
  5
1715
  8
247
 10
5.5670012181416251
 20
-14.600965761753971
 30
0.0
 40
1.2882957458496069
 50
0.0
 51
194.1274364964118
1001
ACAD
1000
ASC_BOUNDS
1002
{
1070
    19
1005
173E
1002
}
  0
ARC
  5
1716
  8
247
 10
5.5670012181416251
 20
-14.600965761753971
 30
0.0
 40
1.591426849365233
 50
0.0
 51
194.77079396609381
1001
ACAD
1000
ASC_BOUNDS
1002
{
1070
    19
1005
173E
1002
}
  0
LINE
  5
1717
  8
240
 10
0.0
 20
-15.875
 30
0.0
 11
1.0
 21
-15.875
 31
0.0
  0
LINE
  5
1718
  8
247
 10
6.7037317698612924
 20
-20.45344927244377
 30
0.0
 11
5.841699363177665
 21
-19.591416865760081
 31
0.0
  0
LINE
  5
1719
  8
247
 10
6.7037317698612924
 20
-20.595426821324221
 30
0.0
 11
6.7037317698612924
 21
-19.337492251011781
 31
0.0
  0
LINE
  5
171A
  8
247
 10
6.7037317698612924
 20
-20.1166896679037
 30
0.0
 11
6.313837613489679
 21
-19.726795511532028
 31
0.0
  0
LINE
  5
171B
  8
247
 10
6.7037317698613492
 20
-19.443170458823481
 30
0.0
 11
5.8467530525023204
 21
-18.586191741464461
 31
0.0
  0
LINE
  5
171C
  8
247
 10
6.6469142123491443
 20
-19.049593296771199
 30
0.0
 11
6.233814051776787
 21
-18.636493136198851
 31
0.0
  0
LINE
  5
171D
  8
247
 10
6.7037317698612924
 20
-18.419550203892641
 30
0.0
 11
6.7037317698612924
 21
-17.741556429478571
 31
0.0
  0
LINE
  5
171E
  8
247
 10
3.975574368776392
 20
-19.97081973514247
 30
0.0
 11
3.9755743687765039
 21
-18.992932857957889
 31
0.0
  0
LINE
  5
171F
  8
247
 10
4.2787054722920734
 20
-20.04898060211508
 30
0.0
 11
3.975574368776448
 21
-19.745849498599451
 31
0.0
  0
LINE
  5
1720
  8
247
 10
4.542061644989813
 20
-19.975577170272729
 30
0.0
 11
3.9755743687765039
 21
-19.40908989405937
 31
0.0
  0
LINE
  5
1721
  8
247
 10
4.2787054722920148
 20
-20.05773761234024
 30
0.0
 11
4.2787054722929261
 21
-19.9000609155629
 31
0.0
  0
LINE
  5
1722
  8
247
 10
5.4863520974239472
 20
-20.246348413626659
 30
0.0
 11
4.4252673618711906
 21
-19.185263678073891
 31
0.0
  0
LINE
  5
1723
  8
247
 10
5.0142068712069081
 20
-20.110962791949699
 30
0.0
 11
3.9755743687765039
 21
-19.07233028951935
 31
0.0
  0
LINE
  5
1724
  8
247
 10
3.975574368776392
 20
-19.97081973514247
 30
0.0
 11
4.2787054722920148
 21
-20.05773761234024
 31
0.0
  0
LINE
  5
1725
  8
247
 10
3.975574368776392
 20
-20.75448825320904
 30
0.0
 11
3.975574368776392
 21
-20.128484987828191
 31
0.0
1001
ACAD
1000
ASC_BOUNDS
1002
{
1070
    19
1005
173E
1002
}
  0
LINE
  5
1726
  8
247
 10
4.2787054722920148
 20
-20.75448825320904
 30
0.0
 11
4.2787054722920148
 21
-20.21540286502545
 31
0.0
1001
ACAD
1000
ASC_BOUNDS
1002
{
1070
    19
1005
173E
1002
}
  0
LINE
  5
1727
  8
247
 10
3.975574368776392
 20
-20.128484987828191
 30
0.0
 11
4.2787054722920148
 21
-20.21540286502545
 31
0.0
1001
ACAD
1000
ASC_BOUNDS
1002
{
1070
    19
1005
173E
1002
}
  0
LINE
  5
1728
  8
247
 10
4.4986333940931891
 20
-18.921870105755811
 30
0.0
 11
4.120651310550155
 21
-18.543888022212791
 31
0.0
  0
LINE
  5
1729
  8
247
 10
4.7965401976577482
 20
-18.88301730478031
 30
0.0
 11
4.2892795600917539
 21
-18.375756667214318
 31
0.0
  0
ARC
  5
172A
  8
247
 10
4.7030867283955331
 20
-19.327993654820361
 30
0.0
 40
0.4546839594841006
 50
351.66260168792923
 51
156.3381550951899
  0
LINE
  5
172B
  8
247
 10
4.2866285529504999
 20
-19.145510529252299
 30
0.0
 11
5.1529653969759011
 21
-19.393923060767289
 31
0.0
  0
ARC
  5
172C
  8
247
 10
4.7333906834736572
 20
-18.989809298130918
 30
0.0
 40
0.7578227519989014
 50
17.669577547398148
 51
180.2361598426715
  0
LINE
  5
172D
  8
247
 10
4.3090094273701398
 20
-17.843248629185609
 30
0.0
 11
3.975574368776392
 21
-17.747633242222719
 31
0.0
  0
LINE
  5
172E
  8
247
 10
4.3090094273701398
 20
-17.843248629185609
 30
0.0
 11
4.3090094273701398
 21
-17.73287036380475
 31
0.0
  0
LINE
  5
172F
  8
247
 10
4.3212070757014081
 20
-19.081203391904118
 30
0.0
 11
4.0085795960670758
 21
-18.768575912269789
 31
0.0
  0
LINE
  5
1730
  8
247
 10
5.5993018175829521
 20
-19.349019320165361
 30
0.0
 11
4.5145536099832384
 21
-18.264271112565648
 31
0.0
  0
LINE
  5
1731
  8
247
 10
6.4306425498581321
 20
-20.51711965698064
 30
0.0
 11
5.1480630784356531
 21
-19.234540185558139
 31
0.0
  0
LINE
  5
1732
  8
247
 10
5.9584973236410379
 20
-20.38173403530368
 30
0.0
 11
4.8974081193812227
 21
-19.320644831043801
 31
0.0
  0
LINE
  5
1733
  8
247
 10
6.7037317698612924
 20
-20.595426821324221
 30
0.0
 11
4.2787054722929261
 21
-19.9000609155629
 31
0.0
  0
LINE
  5
1734
  8
247
 10
6.7037317698612924
 20
-18.419550203892641
 30
0.0
 11
4.3090094273701398
 21
-17.73287036380475
 31
0.0
  0
ARC
  5
1735
  8
247
 10
5.9459150975361572
 20
-19.337492251011781
 30
0.0
 40
0.7578163146972659
 50
0.0
 51
130.32984065416761
  0
LINE
  5
1736
  8
247
 10
6.7037317698612924
 20
-19.779930063363562
 30
0.0
 11
5.5914748300036168
 21
-18.667673123505882
 31
0.0
  0
ARC
  5
1737
  8
247
 10
5.9155996983662371
 20
-19.675676607701231
 30
0.0
 40
0.4546969681978227
 50
351.66285421114878
 51
156.33819215911009
  0
LINE
  5
1738
  8
247
 10
5.4991289054677841
 20
-19.49318986420797
 30
0.0
 11
6.365491445909468
 21
-19.74160648242303
 31
0.0
  0
LINE
  5
1739
  8
247
 10
5.8185085723045491
 20
-19.231466470346891
 30
0.0
 11
4.8245288963731241
 21
-18.237486794415471
 31
0.0
  0
ARC
  5
173A
  8
247
 10
5.5670012181416251
 20
-20.75448825320904
 30
0.0
 40
1.2882957458496069
 50
180.0
 51
0.0
1001
ACAD
1000
ASC_BOUNDS
1002
{
1070
    19
1005
173E
1002
}
  0
ARC
  5
173B
  8
247
 10
5.5670012181416251
 20
-20.75448825320904
 30
0.0
 40
1.591426849365233
 50
180.0
 51
0.0
1001
ACAD
1000
ASC_BOUNDS
1002
{
1070
    19
1005
173E
1002
}
  0
ARC
  5
173C
  8
240
  6
CONTINUOUS
 10
1.5
 20
-22.5
 30
0.0
 40
0.5
 50
179.99999999485399
 51
269.99999999485408
1001
GRPNAME
1000
PASTMD03
  0
LINE
  5
173D
  8
240
  6
CONTINUOUS
 10
1.0
 20
-22.5
 30
0.0
 11
1.0000000000000271
 21
-15.874999999998909
 31
0.0
1001
GRPNAME
1000
PASTMD03
  0
INSERT
  5
173E
  8
247
  6
CONTINUOUS
  2
*X6
 10
0.0
 20
0.0
 30
0.0
1001
ACAD
1000
HATCH
1002
{
1070
    19
1000
ANSI31
1040
0.075
1040
1.5707963267948939
1000
ASC_BOUNDS
1070
     1
1070
     2
1070
    10
1005
170E
1005
1715
1005
1716
1005
1740
1005
173F
1005
173B
1005
173A
1005
1726
1005
1725
1005
1727
1000
ASC_SEEDPOINT
1011
18.970920914949481
1021
0.0
1031
-2684993.5098876953
1021
-112.1959050889939
1031
0.0
1000
R14_HATCH_DATA
1000
173E
1011
1.0
1021
0.0
1031
-2684993.5098876953
1021
0.0
1031
0.0
1011
0.0
1021
0.0
1031
-2684993.5098876953
1021
1.0
1031
0.0
1011
0.0
1021
0.0
1031
-2684993.5098876953
1021
0.0
1031
1.0
1040
0.0
1010
0.0
1020
0.0
1030
1.0
1000
ANSI31
1070
     0
1070
     1
1071
        1
1071
       33
1071
       10
1070
     1
1040
3.975574368776392
1040
-20.128484987828191
1040
4.2787054722920148
1040
-20.21540286502545
1070
     1
1040
3.975574368776392
1040
-20.75448825320904
1040
3.975574368776392
1040
-20.128484987828191
1070
     1
1040
4.2787054722920148
1040
-20.75448825320904
1040
4.2787054722920148
1040
-20.21540286502545
1070
     2
1040
5.5670012181416251
1040
-20.75448825320904
1040
1.2882957458496069
1040
3.1415926535897909
1040
6.2831853071795836
1070
     1
1070
     2
1040
5.5670012181416251
1040
-20.75448825320904
1040
1.591426849365233
1040
3.1415926535897909
1040
6.2831853071795836
1070
     1
1070
     1
1040
7.158428417333309
1040
-20.75448825320904
1040
7.158428417333309
1040
-14.600965761753971
1070
     1
1040
6.8552973216191031
1040
-20.75448825320904
1040
6.8552973216191031
1040
-14.600965761753971
1070
     2
1040
5.5670012181416251
1040
-14.600965761753971
1040
1.591426849365233
1040
0.0
1040
3.399391641431841
1070
     1
1070
     2
1040
5.5670012181416251
1040
-14.600965761753971
1040
1.2882957458496069
1040
0.0
1040
3.38816293531859
1070
     1
1070
     1
1040
4.3176611607685791
1040
-14.9154150720567
1040
4.0281599705830331
1040
-15.006704592320361
1071
       10
1005
1727
1005
1725
1005
1726
1005
173A
1005
173B
1005
173F
1005
1740
1005
1716
1005
1715
1005
170E
1070
     0
1070
     1
1040
1.5707963267948939
1040
0.075
1070
     0
1070
     1
1040
2.3561944901923431
1040
18.970920914949481
1040
-112.1959050889939
1040
-0.1683798022700466
1040
-0.1683798022700466
1070
     0
1071
        1
1040
18.970920914949481
1040
-112.1959050889939
1040
0.0
1002
}
  0
LINE
  5
173F
  8
247
 10
7.158428417333309
 20
-20.75448825320904
 30
0.0
 11
7.158428417333309
 21
-14.600965761753971
 31
0.0
1001
ACAD
1000
ASC_BOUNDS
1002
{
1070
    19
1005
173E
1002
}
  0
LINE
  5
1740
  8
247
 10
6.8552973216191031
 20
-20.75448825320904
 30
0.0
 11
6.8552973216191031
 21
-14.600965761753971
 31
0.0
1001
ACAD
1000
ASC_BOUNDS
1002
{
1070
    19
1005
173E
1002
}
  0
LINE
  5
1741
  8
247
 10
6.7037317698612924
 20
-17.741556429478571
 30
0.0
 11
3.975574368776392
 21
-16.95927264651959
 31
0.0
  0
POLYLINE
  5
1742
  8
247
 66
     1
 10
0.0
 20
0.0
 30
0.0
 70
     1
1001
HATCH_DISTANCE
1040
1.0
1001
HATCH_DISPLAY
1070
     0
1001
HATCH_TYPE
1070
     7
  0
VERTEX
  5
1743
  8
247
 10
3.975574368776392
 20
-17.747633242222719
 30
0.0
  0
VERTEX
  5
1744
  8
247
 10
4.3090094273701398
 20
-17.843248629185609
 30
0.0
  0
VERTEX
  5
1745
  8
247
 10
4.3090094273701398
 20
-17.73287036380475
 30
0.0
  0
VERTEX
  5
1746
  8
247
 10
6.7037317698612924
 20
-18.419550203892641
 30
0.0
  0
VERTEX
  5
1747
  8
247
 10
6.7037317698612924
 20
-17.741556429478571
 30
0.0
  0
VERTEX
  5
1748
  8
247
 10
3.975574368776392
 20
-16.95927264651959
 30
0.0
  0
SEQEND
  5
1749
  8
247
  0
POLYLINE
  5
174A
  8
247
 66
     1
 10
0.0
 20
0.0
 30
0.0
 70
     1
  0
VERTEX
  5
174B
  8
247
 10
3.975574368776392
 20
-17.747633242222719
 30
0.0
  0
VERTEX
  5
174C
  8
247
 10
4.3090094273701398
 20
-17.843248629185609
 30
0.0
  0
VERTEX
  5
174D
  8
247
 10
4.3090094273701398
 20
-17.73287036380475
 30
0.0
  0
VERTEX
  5
174E
  8
247
 10
6.7037317698612924
 20
-18.419550203892641
 30
0.0
  0
VERTEX
  5
174F
  8
247
 10
6.7037317698612924
 20
-17.741556429478571
 30
0.0
  0
VERTEX
  5
1750
  8
247
 10
3.975574368776392
 20
-16.95927264651959
 30
0.0
  0
SEQEND
  5
1751
  8
247
  0
INSERT
  5
1752
  8
247
  6
CONTINUOUS
  2
*X7
 10
0.0
 20
0.0
 30
0.0
1001
ACAD
1000
HATCH
1002
{
1070
    19
1000
ANSI31
1040
0.075
1040
1.5707963267948939
1000
R14_HATCH_DATA
1000
1752
1011
1.0
1021
0.0
1031
-2684993.5098876953
1021
0.0
1031
0.0
1011
0.0
1021
0.0
1031
-2684993.5098876953
1021
1.0
1031
0.0
1011
0.0
1021
0.0
1031
-2684993.5098876953
1021
0.0
1031
1.0
1040
0.0
1010
0.0
1020
0.0
1030
1.0
1000
ANSI31
1070
     0
1070
     0
1071
        1
1071
        7
1070
     0
1070
     1
1071
        6
1040
3.975574368776392
1040
-16.95927264651959
1040
3.975574368776392
1040
-17.747633242222719
1040
4.3090094273701398
1040
-17.843248629185609
1040
4.3090094273701398
1040
-17.7328703638048
1040
6.7037317698612924
1040
-18.419550203892641
1040
6.7037317698612924
1040
-17.741556429478571
1071
        0
1070
     0
1070
     1
1040
1.5707963267948939
1040
0.075
1070
     0
1070
     1
1040
2.3561944901923431
1040
18.970920914949481
1040
-112.1959050889939
1040
-0.1683798022700466
1040
-0.1683798022700466
1070
     0
1040
0.0134348504236232
1071
        1
1040
5.268217658775141
1040
-17.668009345223702
1040
0.0
1002
}
  0
LINE
  5
1753
  8
247
 10
3.975574368776392
 20
-17.747633242222719
 30
0.0
 11
3.975574368776392
 21
-16.95927264651959
 31
0.0
  0
LINE
  5
1754
  8
241
  6
CONTINUOUS
 10
0.0
 20
-15.875
 30
0.0
 11
0.0
 21
0.0
 31
0.0
1001
GRPNAME
1000
PASTMD03
  0
LINE
  5
1755
  8
241
  6
CONTINUOUS
 10
1.0
 20
0.0
 30
0.0
 11
1.0
 21
-15.875
 31
0.0
1001
GRPNAME
1000
PASTMD03
  0
LINE
  5
1756
  8
246
 10
-20.000000000000071
 20
6.250000000000056
 30
0.0
 11
-19.250000000000071
 21
7.000000000000056
 31
0.0
  0
ARC
  5
1757
  8
246
 10
-24.000000000000121
 20
5.250000000000056
 30
0.0
 40
1.0
 50
90.0
 51
180.0
  0
LINE
  5
1758
  8
246
 10
-24.000000000000121
 20
6.250000000000056
 30
0.0
 11
-20.000000000000071
 21
6.250000000000056
 31
0.0
  0
LINE
  5
1759
  8
246
 10
-20.000000000000071
 20
-6.25
 30
0.0
 11
-19.250000000000071
 21
-7.0
 31
0.0
  0
ARC
  5
175A
  8
246
 10
-24.000000000000121
 20
-5.25
 30
0.0
 40
1.0
 50
180.0
 51
270.0
  0
LINE
  5
175B
  8
246
 10
-24.000000000000121
 20
-6.25
 30
0.0
 11
-20.000000000000071
 21
-6.25
 31
0.0
  0
LINE
  5
175C
  8
246
 10
-25.000000000000121
 20
-5.25
 30
0.0
 11
-25.000000000000121
 21
5.250000000000056
 31
0.0
  0
LINE
  5
175D
  8
246
 10
-13.00000000000011
 20
-3.0
 30
0.0
 11
-25.000000000000121
 21
-3.0
 31
0.0
  0
LINE
  5
175E
  8
246
 10
-13.00000000000011
 20
3.0000000000000551
 30
0.0
 11
-25.000000000000121
 21
3.0000000000000551
 31
0.0
  0
LINE
  5
175F
  8
246
 10
-19.60000000000009
 20
-6.6500000000000332
 30
0.0
 11
-5.3500000000001364
 21
-6.6500000000000332
 31
0.0
  0
LINE
  5
1760
  8
246
 10
-19.250000000000071
 20
-7.0
 30
0.0
 11
-5.7000000000001023
 21
-7.0
 31
0.0
  0
LINE
  5
1761
  8
246
 10
-19.60000000000009
 20
6.6500000000000332
 30
0.0
 11
-5.3500000000001364
 21
6.6500000000000332
 31
0.0
  0
LINE
  5
1762
  8
246
 10
-19.250000000000071
 20
7.000000000000056
 30
0.0
 11
-5.7000000000001023
 21
7.000000000000056
 31
0.0
  0
ARC
  5
1763
  8
240
 10
-47.899999999999977
 20
-8.3841292718131513
 30
0.0
 40
0.5
 50
179.99999999485399
 51
261.70266183425468
1001
GRPNAME
1000
PASTMD03
  0
LINE
  5
1764
  8
240
 10
-48.399999999999977
 20
-8.3841292718131513
 30
0.0
 11
-48.399999999999977
 21
0.0
 31
0.0
1001
GRPNAME
1000
PASTMD03
  0
LINE
  5
1765
  8
240
  6
CONTINUOUS
 10
-47.97215511479645
 20
-8.8788955190539127
 30
0.0
 11
0.0
 21
-15.875
 31
0.0
1001
GRPNAME
1000
PASTMD03
  0
LINE
  5
1766
  8
240
 10
-48.399999999999977
 20
8.3841292718131513
 30
0.0
 11
-48.399999999999977
 21
0.0
 31
0.0
1001
GRPNAME
1000
PASTMD03
  0
LINE
  5
1767
  8
241
  6
CONTINUOUS
 10
0.0
 20
15.875
 30
0.0
 11
0.0
 21
0.0
 31
0.0
1001
GRPNAME
1000
PASTMD03
  0
LINE
  5
1768
  8
241
  6
CONTINUOUS
 10
1.0
 20
15.8749183884297
 30
0.0
 11
1.0
 21
0.0
 31
0.0
1001
GRPNAME
1000
PASTMD03
  0
TEXT
  5
1769
  8
247
 10
6.726232873754836
 20
-12.002239636846181
 30
0.0
 40
2.299999999999998
  1
BBT30-NBS13-45
 50
90.0
  7
YOKO
 11
6.726232873754836
 21
-12.002239636846181
 31
0.0
 73
     1
  0
LINE
  5
176A
  8
243
  6
HIDDEN2
 10
19.0
 20
-16.300000000000001
 30
0.0
 11
0.9999999999999715
 21
-16.300000000000001
 31
0.0
1001
GRPNAME
1000
PASTMD03
  0
LINE
  5
176B
  8
243
  6
HIDDEN2
 10
19.0
 20
16.300000000000001
 30
0.0
 11
1.0
 21
16.300000000000001
 31
0.0
1001
GRPNAME
1000
PASTMD03
  0
LINE
  5
176C
  8
240
  6
CONTINUOUS
 10
9.4367253438732082
 20
-23.0
 30
0.0
 11
1.5
 21
-23.0
 31
0.0
1001
GRPNAME
1000
PASTMD03
  0
LINE
  5
176D
  8
245
  6
CENTER2
 10
50.043886790234531
 20
0.0
 30
0.0
 11
-51.32246854826888
 21
0.0
 31
0.0
1001
GRPNAME
1000
PASTMD03
  0
LINE
  5
176E
  8
240
  6
CONTINUOUS
 10
1.5
 20
23.0
 30
0.0
 11
9.4367253438731495
 21
23.0
 31
0.0
1001
GRPNAME
1000
PASTMD03
  0
ENDBLK
  5
1771
  8
0
  0
BLOCK
  8
0
  2
*X5
 70
     1
 10
0.0
 20
0.0
 30
0.0
  3
*X5
  1

  0
LINE
  5
17FD
  8
0
 62
     0
 10
6.5462159713573831
 20
-15.58129901037851
 30
0.0
 11
6.262035137144939
 21
-15.29711817616607
 31
0.0
  0
LINE
  5
17FE
  8
0
 62
     0
 10
6.6991349101305859
 20
-16.070977553691801
 30
0.0
 11
5.7898894917271209
 21
-15.161732135288331
 31
0.0
  0
LINE
  5
17FF
  8
0
 62
     0
 10
6.219359883042455
 20
-15.92796213114377
 30
0.0
 11
5.3177438463092912
 21
-15.0263460944106
 31
0.0
  0
LINE
  5
1800
  8
0
 62
     0
 10
6.6786188808784521
 20
-16.38722112897976
 30
0.0
 11
6.3227380030486913
 21
-16.031340251149999
 31
0.0
  0
LINE
  5
1801
  8
0
 62
     0
 10
5.7298443391896381
 20
-15.77520619183103
 30
0.0
 11
5.1577719395771711
 21
-15.203133792218591
 31
0.0
  0
LINE
  5
1802
  8
0
 62
     0
 10
6.5866415214837319
 20
-16.632003374125151
 30
0.0
 11
6.3219548466111251
 21
-16.367316699252541
 31
0.0
  0
LINE
  5
1803
  8
0
 62
     0
 10
5.4609030430928112
 20
-15.8430245002743
 30
0.0
 11
5.157771939577187
 21
-15.53989339675868
 31
0.0
  0
LINE
  5
1804
  8
0
 62
     0
 10
6.4471536166610974
 20
-16.829275073842592
 30
0.0
 11
6.1261152153277481
 21
-16.508236672509241
 31
0.0
  0
LINE
  5
1805
  8
0
 62
     0
 10
4.3779572504249611
 20
-15.09683831214654
 30
0.0
 11
4.346396574843479
 21
-15.06527763656506
 31
0.0
  0
LINE
  5
1806
  8
0
 62
     0
 10
6.2662087174549512
 20
-16.98508977917653
 30
0.0
 11
5.7140146477571454
 21
-16.432895709478721
 31
0.0
  0
LINE
  5
1807
  8
0
 62
     0
 10
4.4623304297389028
 20
-15.517971096000579
 30
0.0
 11
4.0903706171572738
 21
-15.146011283418961
 31
0.0
  0
LINE
  5
1808
  8
0
 62
     0
 10
6.0413184896899468
 20
-17.09695915595162
 30
0.0
 11
5.2418685421429672
 21
-16.297509208404641
 31
0.0
  0
LINE
  5
1809
  8
0
 62
     0
 10
4.3189336233139359
 20
-15.71133389411572
 30
0.0
 11
4.091951118779197
 21
-15.484351389580979
 31
0.0
  0
LINE
  5
180A
  8
0
 62
     0
 10
5.7581323101451121
 20
-17.150532580946891
 30
0.0
 11
4.7697224365288147
 21
-16.162122707330582
 31
0.0
  0
LINE
  5
180B
  8
0
 62
     0
 10
5.3736556134222271
 20
-17.102815488764101
 30
0.0
 11
4.0003098836525597
 21
-15.729469758994419
 31
0.0
  0
LINE
  5
180C
  8
0
 62
     0
 10
4.9250942375133109
 20
-16.991013717395269
 30
0.0
 11
3.9804070854300511
 21
-16.046326565312011
 31
0.0
  0
ENDBLK
  5
180E
  8
0
  0
BLOCK
  8
0
  2
*X6
 70
     1
 10
0.0
 20
0.0
 30
0.0
  3
*X6
  1

  0
LINE
  5
1810
  8
0
 62
     0
 10
7.0734964946623151
 20
-14.08802190644287
 30
0.0
 11
6.0799450734527181
 21
-13.09447048523328
 31
0.0
  0
LINE
  5
1811
  8
0
 62
     0
 10
6.0590554732196864
 20
-13.41034048954034
 30
0.0
 11
5.661034411129461
 21
-13.012319427450119
 31
0.0
  0
LINE
  5
1812
  8
0
 62
     0
 10
7.155647552445477
 20
-14.506932568766141
 30
0.0
 11
6.7576264903552561
 21
-14.108911506675909
 31
0.0
  0
LINE
  5
1813
  8
0
 62
     0
 10
5.6259759559393787
 20
-13.314020576800131
 30
0.0
 11
5.3380495436986068
 21
-13.02609416455936
 31
0.0
  0
LINE
  5
1814
  8
0
 62
     0
 10
7.158428417333317
 20
-14.84647303819407
 30
0.0
 11
6.8539464030954704
 21
-14.54199102395623
 31
0.0
  0
LINE
  5
1815
  8
0
 62
     0
 10
5.3131278009331071
 20
-13.33793202633395
 30
0.0
 11
5.0657391572759281
 21
-13.090543382676771
 31
0.0
  0
LINE
  5
1816
  8
0
 62
     0
 10
7.158428417333317
 20
-15.18323264273416
 30
0.0
 11
6.855297321619096
 21
-14.88010154701994
 31
0.0
  0
LINE
  5
1817
  8
0
 62
     0
 10
5.056547995022318
 20
-13.418111824963249
 30
0.0
 11
4.8292886229631451
 21
-13.190852452904069
 31
0.0
  0
LINE
  5
1818
  8
0
 62
     0
 10
7.158428417333317
 20
-15.51999224727424
 30
0.0
 11
6.8552973216191111
 21
-15.21686115156003
 31
0.0
  0
LINE
  5
1819
  8
0
 62
     0
 10
4.839450773706095
 20
-13.537774208187139
 30
0.0
 11
4.622097202157339
 21
-13.32042063663839
 31
0.0
  0
LINE
  5
181A
  8
0
 62
     0
 10
7.158428417333309
 20
-15.856751851814341
 30
0.0
 11
6.855297321619096
 21
-15.553620756100139
 31
0.0
  0
LINE
  5
181B
  8
0
 62
     0
 10
4.6554794840366682
 20
-13.690562523057791
 30
0.0
 11
4.4411333924541694
 21
-13.476216431475301
 31
0.0
  0
LINE
  5
181C
  8
0
 62
     0
 10
7.1584284173333019
 20
-16.193511456354429
 30
0.0
 11
6.855297321619096
 21
-15.89038036064022
 31
0.0
  0
LINE
  5
181D
  8
0
 62
     0
 10
4.5029015335429721
 20
-13.87474417710418
 30
0.0
 11
4.2855068635490241
 21
-13.65734950711024
 31
0.0
  0
LINE
  5
181E
  8
0
 62
     0
 10
7.1584284173333019
 20
-16.53027106089452
 30
0.0
 11
6.855297321619096
 21
-16.22713996518031
 31
0.0
  0
LINE
  5
181F
  8
0
 62
     0
 10
4.3834737885903641
 20
-14.092076036691671
 30
0.0
 11
4.156120211031042
 21
-13.864722459132359
 31
0.0
  0
LINE
  5
1820
  8
0
 62
     0
 10
7.158428417333309
 20
-16.867030665434619
 30
0.0
 11
6.855297321619096
 21
-16.563899569720409
 31
0.0
  0
LINE
  5
1821
  8
0
 62
     0
 10
4.3035942851918563
 20
-14.34895613783327
 30
0.0
 11
4.0560222150364851
 21
-14.101384067677881
 31
0.0
  0
LINE
  5
1822
  8
0
 62
     0
 10
7.158428417333325
 20
-17.203790269974728
 30
0.0
 11
6.8552973216191031
 21
-16.900659174260522
 31
0.0
  0
LINE
  5
1823
  8
0
 62
     0
 10
4.280165714489355
 20
-14.662287171670849
 30
0.0
 11
3.991846769811827
 21
-14.37396822699332
 31
0.0
  0
LINE
  5
1824
  8
0
 62
     0
 10
7.158428417333317
 20
-17.540549874514799
 30
0.0
 11
6.8552973216191031
 21
-17.237418778800599
 31
0.0
  0
LINE
  5
1825
  8
0
 62
     0
 10
4.2255726374616307
 20
-14.9444536991832
 30
0.0
 11
3.978497524685769
 21
-14.69737858640735
 31
0.0
  0
LINE
  5
1826
  8
0
 62
     0
 10
7.158428417333317
 20
-17.877309479054901
 30
0.0
 11
6.855297321619096
 21
-17.57417838334068
 31
0.0
  0
LINE
  5
1827
  8
0
 62
     0
 10
7.158428417333317
 20
-18.214069083595
 30
0.0
 11
6.8552973216191111
 21
-17.910937987880779
 31
0.0
  0
LINE
  5
1828
  8
0
 62
     0
 10
7.158428417333317
 20
-18.550828688135081
 30
0.0
 11
6.8552973216191031
 21
-18.24769759242087
 31
0.0
  0
LINE
  5
1829
  8
0
 62
     0
 10
7.158428417333309
 20
-18.887588292675169
 30
0.0
 11
6.855297321619096
 21
-18.584457196960969
 31
0.0
  0
LINE
  5
182A
  8
0
 62
     0
 10
7.1584284173333019
 20
-19.224347897215271
 30
0.0
 11
6.855297321619096
 21
-18.921216801501071
 31
0.0
  0
LINE
  5
182B
  8
0
 62
     0
 10
7.158428417333309
 20
-19.56110750175538
 30
0.0
 11
6.855297321619096
 21
-19.257976406041159
 31
0.0
  0
LINE
  5
182C
  8
0
 62
     0
 10
7.158428417333309
 20
-19.897867106295461
 30
0.0
 11
6.855297321619096
 21
-19.59473601058124
 31
0.0
  0
LINE
  5
182D
  8
0
 62
     0
 10
7.158428417333317
 20
-20.23462671083556
 30
0.0
 11
6.8552973216191031
 21
-19.931495615121332
 31
0.0
  0
LINE
  5
182E
  8
0
 62
     0
 10
7.158428417333317
 20
-20.571386315375651
 30
0.0
 11
6.8552973216191031
 21
-20.26825521966143
 31
0.0
  0
LINE
  5
182F
  8
0
 62
     0
 10
7.151636757588931
 20
-20.90135426017137
 30
0.0
 11
6.8552973216191111
 21
-20.60501482420155
 31
0.0
  0
LINE
  5
1830
  8
0
 62
     0
 10
7.0989663153247662
 20
-21.185443422447278
 30
0.0
 11
6.8433141794720358
 21
-20.929791286594561
 31
0.0
  0
LINE
  5
1831
  8
0
 62
     0
 10
7.0075686641629078
 20
-21.430805375825521
 30
0.0
 11
6.7760685333112463
 21
-21.199305244973861
 31
0.0
  0
LINE
  5
1832
  8
0
 62
     0
 10
6.8855690202141391
 20
-21.645565336416858
 30
0.0
 11
6.6662779918717421
 21
-21.426274308074468
 31
0.0
  0
LINE
  5
1833
  8
0
 62
     0
 10
6.736760689670068
 20
-21.833516610412879
 30
0.0
 11
6.5221991393196461
 21
-21.618955060062461
 31
0.0
  0
LINE
  5
1834
  8
0
 62
     0
 10
6.5625517695212494
 20
-21.996067294804138
 30
0.0
 11
6.3466056410702052
 21
-21.780121166353091
 31
0.0
  0
LINE
  5
1835
  8
0
 62
     0
 10
6.3625336713116161
 20
-22.132808801134608
 30
0.0
 11
6.1387076710185129
 21
-21.908982800841521
 31
0.0
  0
LINE
  5
1836
  8
0
 62
     0
 10
4.2787054722920148
 20
-20.385740206655122
 30
0.0
 11
4.0398923931046786
 21
-20.146927127467769
 31
0.0
  0
LINE
  5
1837
  8
0
 62
     0
 10
6.134324109614254
 20
-22.241358843977348
 30
0.0
 11
5.8936502646298949
 21
-22.000684998992991
 31
0.0
  0
LINE
  5
1838
  8
0
 62
     0
 10
4.2787054722920148
 20
-20.722499811195188
 30
0.0
 11
3.975574368776392
 21
-20.41936870767957
 31
0.0
  0
LINE
  5
1839
  8
0
 62
     0
 10
5.8725191883813892
 20
-22.31631352728456
 30
0.0
 11
5.5986020311342273
 21
-22.042396370037402
 31
0.0
  0
LINE
  5
183A
  8
0
 62
     0
 10
4.3284412706904947
 20
-21.10899521413376
 30
0.0
 11
3.975575214737304
 21
-20.75612915818056
 31
0.0
  0
LINE
  5
183B
  8
0
 62
     0
 10
5.5653603131700731
 20
-22.34591425661333
 30
0.0
 11
5.2124942572168811
 21
-21.993048200660141
 31
0.0
  0
LINE
  5
183C
  8
0
 62
     0
 10
5.1811061962427507
 20
-22.298419744226109
 30
0.0
 11
4.0230697271245361
 21
-21.14038327510789
 31
0.0
  0
ENDBLK
  5
183E
  8
0
  0
BLOCK
  8
0
  2
*X7
 70
     1
 10
0.0
 20
0.0
 30
0.0
  3
*X7
  1

  0
LINE
  5
1840
  8
0
 62
     0
 10
6.7037317698612968
 20
-17.75937243612298
 30
0.0
 11
6.678753338614789
 21
-17.734394004876471
 31
0.0
  0
LINE
  5
1841
  8
0
 62
     0
 10
6.7037317698612968
 20
-18.096132040663051
 30
0.0
 11
6.206609002541561
 21
-17.599009273343331
 31
0.0
  0
LINE
  5
1842
  8
0
 62
     0
 10
6.6850267039496361
 20
-18.41418657929151
 30
0.0
 11
5.7344646664683321
 21
-17.463624541810201
 31
0.0
  0
LINE
  5
1843
  8
0
 62
     0
 10
6.2128805202885564
 20
-18.278800000170531
 30
0.0
 11
5.2623203303950961
 21
-17.328239810277061
 31
0.0
  0
LINE
  5
1844
  8
0
 62
     0
 10
5.740734336627475
 20
-18.143413421049541
 30
0.0
 11
4.790175994321868
 21
-17.192855078743939
 31
0.0
  0
LINE
  5
1845
  8
0
 62
     0
 10
5.2685881529663918
 20
-18.008026841928551
 30
0.0
 11
4.3180316582486258
 21
-17.057470347210771
 31
0.0
  0
LINE
  5
1846
  8
0
 62
     0
 10
4.7964419693053131
 20
-17.87264026280755
 30
0.0
 11
3.9755743687763991
 21
-17.05177266227863
 31
0.0
  0
LINE
  5
1847
  8
0
 62
     0
 10
4.324295785644229
 20
-17.737253683686571
 30
0.0
 11
3.975574368776392
 21
-17.388532266818721
 31
0.0
  0
LINE
  5
1848
  8
0
 62
     0
 10
4.0068980866672703
 20
-17.756615589249691
 30
0.0
 11
3.975574368776392
 21
-17.725291871358831
 31
0.0
  0
ENDBLK
  5
184A
  8
0
  0
ENDSEC
  0
SECTION
  2
ENTITIES
  0
TEXT
  5
824
  8
241
 10
-62.999999999999979
 20
63.0
 30
0.0
 40
5.0
  1
BBT30-NBS13-45
  7
YOKO
 11
-62.999999999999979
 21
63.0
 31
0.0
 73
     1
  0
LINE
  5
1507
  8
250
 10
2.229999999999944
 20
42.0
 30
0.0
 11
19.77
 21
42.0
 31
0.0
  0
LINE
  5
150B
  8
250
 10
22.0
 20
22.700000000000038
 30
0.0
 11
22.0
 21
43.0
 31
0.0
  0
LINE
  5
150D
  8
250
 10
24.23
 20
42.0
 30
0.0
 11
42.770000000000003
 21
42.0
 31
0.0
  0
LINE
  5
1511
  8
250
 10
-0.0000000000000568
 20
16.375
 30
0.0
 11
-0.0000000000000548
 21
50.0
 31
0.0
  0
LINE
  5
1512
  8
250
 10
45.0
 20
9.5928932188133995
 30
0.0
 11
45.0
 21
50.0
 31
0.0
  0
LINE
  5
1513
  8
250
 10
2.229999999999944
 20
49.0
 30
0.0
 11
42.770000000000003
 21
49.0
 31
0.0
  0
LINE
  5
1517
  8
250
 10
45.499999999999893
 20
-6.5
 30
0.0
 11
64.0
 21
-6.5000000000000044
 31
0.0
  0
LINE
  5
1518
  8
250
 10
45.499999999999893
 20
6.500000000000056
 30
0.0
 11
64.0
 21
6.5000000000000488
 31
0.0
  0
LINE
  5
1519
  8
250
 10
63.0
 20
-4.270000000000004
 30
0.0
 11
63.0
 21
4.2700000000000511
 31
0.0
  0
LINE
  5
151D
  8
250
 10
43.91862915010131
 20
-17.50000000000005
 30
0.0
 11
71.0
 21
-17.50000000000006
 31
0.0
  0
LINE
  5
151E
  8
250
 10
43.918629150101417
 20
17.5
 30
0.0
 11
71.0
 21
17.499999999999989
 31
0.0
  0
LINE
  5
151F
  8
250
 10
70.0
 20
-15.27000000000006
 30
0.0
 11
70.0
 21
15.269999999999991
 31
0.0
  0
LINE
  5
1523
  8
250
 10
-5.000000000000111
 20
-6.8000000000000123
 30
0.0
 11
-5.0000000000001172
 21
-43.0
 31
0.0
  0
LINE
  5
1524
  8
250
 10
44.999999999999879
 20
-16.46005050633886
 30
0.0
 11
44.999999999999879
 21
-43.0
 31
0.0
  0
LINE
  5
1525
  8
250
 10
-2.770000000000115
 20
-42.0
 30
0.0
 11
42.769999999999889
 21
-42.0
 31
0.0
  0
TEXT
  5
1530
  8
250
 10
12.48571428571416
 20
-41.0
 30
0.0
 40
3.0
  1
41ü`53
1001
ACAD
1000
MTEXTBEGIN
1070
    73
1070
     1
1070
    44
1040
1.0
1070
    74
1070
     0
1000
MTEXTEND
  0
LINE
  5
1531
  8
250
 10
42.769999999999889
 20
-41.62833333333333
 30
0.0
 11
44.999999999999879
 21
-42.0
 31
0.0
  0
LINE
  5
1532
  8
250
 10
42.769999999999889
 20
-42.371666666666663
 30
0.0
 11
44.999999999999879
 21
-42.0
 31
0.0
  0
LINE
  5
1533
  8
250
 10
44.999999999999879
 20
-42.0
 30
0.0
 11
42.769999999999889
 21
-42.0
 31
0.0
  0
LINE
  5
1534
  8
250
 10
-2.770000000000115
 20
-42.371666666666663
 30
0.0
 11
-5.0000000000001128
 21
-42.0
 31
0.0
  0
LINE
  5
1535
  8
250
 10
-2.770000000000115
 20
-41.628333333333337
 30
0.0
 11
-5.0000000000001128
 21
-42.0
 31
0.0
  0
LINE
  5
1536
  8
250
 10
-5.0000000000001128
 20
-42.0
 30
0.0
 11
-2.770000000000115
 21
-42.0
 31
0.0
  0
TEXT
  5
1537
  8
250
 10
69.0
 20
-4.0714285714285934
 30
0.0
 40
3.0
  1
\U+2205
 50
90.0
1001
ACAD
1000
MTEXTBEGIN
1070
    73
1070
     1
1070
    44
1040
1.0
1070
    74
1070
     0
1000
MTEXTEND
  0
TEXT
  5
1538
  8
250
 10
69.0
 20
-1.3571428571428781
 30
0.0
 40
3.0
  1
35
 50
90.0
1001
ACAD
1000
MTEXTBEGIN
1070
    73
1070
     1
1070
    44
1040
1.0
1070
    74
1070
     0
1000
MTEXTEND
  0
LINE
  5
1539
  8
250
 10
69.62833333333333
 20
15.269999999999991
 30
0.0
 11
70.0
 21
17.499999999999989
 31
0.0
  0
LINE
  5
153A
  8
250
 10
70.37166666666667
 20
15.269999999999991
 30
0.0
 11
70.0
 21
17.499999999999989
 31
0.0
  0
LINE
  5
153B
  8
250
 10
70.0
 20
17.499999999999989
 30
0.0
 11
70.0
 21
15.269999999999991
 31
0.0
  0
LINE
  5
153C
  8
250
 10
70.37166666666667
 20
-15.27000000000006
 30
0.0
 11
70.0
 21
-17.50000000000006
 31
0.0
  0
LINE
  5
153D
  8
250
 10
69.62833333333333
 20
-15.27000000000006
 30
0.0
 11
70.0
 21
-17.50000000000006
 31
0.0
  0
LINE
  5
153E
  8
250
 10
70.0
 20
-17.50000000000006
 30
0.0
 11
70.0
 21
-15.27000000000006
 31
0.0
  0
LINE
  5
153F
  8
250
 10
62.62833333333333
 20
4.2700000000000511
 30
0.0
 11
63.0
 21
6.5000000000000488
 31
0.0
  0
LINE
  5
1540
  8
250
 10
63.37166666666667
 20
4.2700000000000511
 30
0.0
 11
63.0
 21
6.5000000000000488
 31
0.0
  0
LINE
  5
1541
  8
250
 10
63.0
 20
6.5000000000000488
 30
0.0
 11
63.0
 21
4.2700000000000511
 31
0.0
  0
LINE
  5
1542
  8
250
 10
63.37166666666667
 20
-4.270000000000004
 30
0.0
 11
63.0
 21
-6.5000000000000044
 31
0.0
  0
LINE
  5
1543
  8
250
 10
62.62833333333333
 20
-4.270000000000004
 30
0.0
 11
63.0
 21
-6.5000000000000044
 31
0.0
  0
LINE
  5
1544
  8
250
 10
63.0
 20
-6.5000000000000044
 30
0.0
 11
63.0
 21
-4.270000000000004
 31
0.0
  0
TEXT
  5
1545
  8
250
 10
62.229803585404611
 20
-6.2908250106982964
 30
0.0
 40
3.0
  1
MAX.
 50
90.0
  0
TEXT
  5
1546
  8
250
 10
62.229803585404611
 20
3.994889275015987
 30
0.0
 40
3.0
  1
\U+2205
 50
90.0
  0
TEXT
  5
1547
  8
250
 10
62.229803585404611
 20
6.7091749893017001
 30
0.0
 40
3.0
  1
13
 50
90.0
  0
TEXT
  5
1548
  8
250
 10
19.64285714285711
 20
50.0
 30
0.0
 40
3.0
  1
45
1001
ACAD
1000
MTEXTBEGIN
1070
    73
1070
     1
1070
    44
1040
1.0
1070
    74
1070
     0
1000
MTEXTEND
  0
LINE
  5
1549
  8
250
 10
42.770000000000003
 20
49.37166666666667
 30
0.0
 11
45.0
 21
49.0
 31
0.0
  0
LINE
  5
154A
  8
250
 10
42.770000000000003
 20
48.62833333333333
 30
0.0
 11
45.0
 21
49.0
 31
0.0
  0
LINE
  5
154B
  8
250
 10
45.0
 20
49.0
 30
0.0
 11
42.770000000000003
 21
49.0
 31
0.0
  0
LINE
  5
154C
  8
250
 10
2.229999999999944
 20
48.62833333333333
 30
0.0
 11
-0.0000000000000548
 21
49.0
 31
0.0
  0
LINE
  5
154D
  8
250
 10
2.229999999999944
 20
49.371666666666663
 30
0.0
 11
-0.0000000000000548
 21
49.0
 31
0.0
  0
LINE
  5
154E
  8
250
 10
-0.0000000000000548
 20
49.0
 30
0.0
 11
2.229999999999944
 21
49.0
 31
0.0
  0
TEXT
  5
154F
  8
250
 10
30.642857142857139
 20
43.0
 30
0.0
 40
3.0
  1
23
1001
ACAD
1000
MTEXTBEGIN
1070
    73
1070
     1
1070
    44
1040
1.0
1070
    74
1070
     0
1000
MTEXTEND
  0
LINE
  5
1550
  8
250
 10
42.770000000000003
 20
42.371666666666663
 30
0.0
 11
45.0
 21
42.0
 31
0.0
  0
LINE
  5
1551
  8
250
 10
42.770000000000003
 20
41.62833333333333
 30
0.0
 11
45.0
 21
42.0
 31
0.0
  0
LINE
  5
1552
  8
250
 10
45.0
 20
42.0
 30
0.0
 11
42.770000000000003
 21
42.0
 31
0.0
  0
LINE
  5
1553
  8
250
 10
24.23
 20
41.62833333333333
 30
0.0
 11
22.0
 21
42.0
 31
0.0
  0
LINE
  5
1554
  8
250
 10
24.23
 20
42.371666666666663
 30
0.0
 11
22.0
 21
42.0
 31
0.0
  0
LINE
  5
1555
  8
250
 10
22.0
 20
42.0
 30
0.0
 11
24.23
 21
42.0
 31
0.0
  0
TEXT
  5
1556
  8
250
 10
8.1428571428571157
 20
43.0
 30
0.0
 40
3.0
  1
22
1001
ACAD
1000
MTEXTBEGIN
1070
    73
1070
     1
1070
    44
1040
1.0
1070
    74
1070
     0
1000
MTEXTEND
  0
LINE
  5
1557
  8
250
 10
19.77
 20
42.371666666666663
 30
0.0
 11
22.0
 21
42.0
 31
0.0
  0
LINE
  5
1558
  8
250
 10
19.77
 20
41.62833333333333
 30
0.0
 11
22.0
 21
42.0
 31
0.0
  0
LINE
  5
1559
  8
250
 10
22.0
 20
42.0
 30
0.0
 11
19.77
 21
42.0
 31
0.0
  0
LINE
  5
155A
  8
250
 10
2.229999999999944
 20
41.62833333333333
 30
0.0
 11
-0.0000000000000552
 21
42.0
 31
0.0
  0
LINE
  5
155B
  8
250
 10
2.229999999999944
 20
42.371666666666663
 30
0.0
 11
-0.0000000000000552
 21
42.0
 31
0.0
  0
LINE
  5
155C
  8
250
 10
-0.0000000000000552
 20
42.0
 30
0.0
 11
2.229999999999944
 21
42.0
 31
0.0
  0
INSERT
  5
1773
  8
240
  2
A$C6CD35A98
 10
0.0
 20
0.0
 30
0.0
  0
VIEWPORT
  5
22
 67
     1
  8
0
 10
261.51769911504419
 20
148.5
 30
0.0
 40
523.0353982300885
 41
297.0
 68
     1
 69
     1
1001
ACAD
1000
MVIEW
1002
{
1070
    16
1010
0.0
1020
0.0
1030
0.0
1010
0.0
1020
0.0
1030
1.0
1040
0.0
1040
297.0
1040
261.51769911504419
1040
148.5
1040
50.0
1040
0.0
1040
0.0
1070
     0
1070
   100
1070
     1
1070
     1
1070
     0
1070
     0
1070
     0
1070
     0
1040
0.0
1040
0.0
1040
0.0
1040
1.0
1040
1.0
1040
10.0
1040
10.0
1070
     0
1002
{
1002
}
1002
}
1001
GENIUS_GENOBJ-N-SDF_13
1002
{
1000
OWNER
1000
GEN
1002
}
1001
GENIUS_GENODEF_13
1002
{
1000
HIER
1070
     0
1002
}
1002
{
1000
MANEDIT
1070
     0
1002
}
1002
{
1000
NOSEL
1070
     0
1002
}
1002
{
1000
BEHIND
1070
     0
1002
}
1002
{
1000
OTHER
1070
     0
1002
}
1002
{
1000
REACTOR
1002
}
1001
GENIUS_GENSCREG_15
1000
PF
1040
1.0
1000
DF
1040
1.0
1000
MIN
1011
0.0
1021
0.0
1031
-2684993.5098876953
1021
0.0
1031
0.0
1000
MAX
1011
523.0353982300885
1021
0.0
1031
-2684993.5098876953
1021
297.0
1031
0.0
1000
FLAGS
1070
     2
  0
ENDSEC
  0
EOF
