  0
SECTION
  2
HEADER
  9
$ACADVER
  1
AC1009
  9
$INSBASE
 10
0.0
 20
0.0
 30
0.0
  9
$EXTMIN
 10
-62.047619047619051
 20
-42.999999999999979
 30
0.0
  9
$EXTMAX
 10
131.9999999999975
 20
67.999999999999957
 30
0.0
  9
$LIMMIN
 10
0.0
 20
0.0
  9
$LIMMAX
 10
297.0
 20
210.0
  9
$ORTHOMODE
 70
     0
  9
$REGENMODE
 70
     1
  9
$FILLMODE
 70
     1
  9
$QTEXTMODE
 70
     0
  9
$MIRRTEXT
 70
     1
  9
$DRAGMODE
 70
     2
  9
$LTSCALE
 40
10.0
  9
$OSMODE
 70
    63
  9
$ATTMODE
 70
     1
  9
$TEXTSIZE
 40
3.0
  9
$TRACEWID
 40
1.0
  9
$TEXTSTYLE
  7
YOKO
  9
$CLAYER
  8
241
  9
$CELTYPE
  6
BYLAYER
  9
$CECOLOR
 62
   256
  9
$DIMSCALE
 40
1.0
  9
$DIMASZ
 40
2.2299999999999991
  9
$DIMEXO
 40
0.5
  9
$DIMDLI
 40
7.0
  9
$DIMRND
 40
0.0
  9
$DIMDLE
 40
0.0
  9
$DIMEXE
 40
1.0
  9
$DIMTP
 40
0.0
  9
$DIMTM
 40
0.01
  9
$DIMTXT
 40
2.7999999999999989
  9
$DIMCEN
 40
0.0
  9
$DIMTSZ
 40
0.0
  9
$DIMTOL
 70
     0
  9
$DIMLIM
 70
     0
  9
$DIMTIH
 70
     0
  9
$DIMTOH
 70
     0
  9
$DIMSE1
 70
     0
  9
$DIMSE2
 70
     0
  9
$DIMTAD
 70
     3
  9
$DIMZIN
 70
     9
  9
$DIMBLK
  1
OPEN
  9
$DIMASO
 70
     1
  9
$DIMSHO
 70
     1
  9
$DIMPOST
  1

  9
$DIMAPOST
  1

  9
$DIMALT
 70
     0
  9
$DIMALTD
 70
     2
  9
$DIMALTF
 40
25.399999999999999
  9
$DIMLFAC
 40
1.0
  9
$DIMTOFL
 70
     1
  9
$DIMTVP
 40
0.0
  9
$DIMTIX
 70
     1
  9
$DIMSOXD
 70
     0
  9
$DIMSAH
 70
     0
  9
$DIMBLK1
  1

  9
$DIMBLK2
  1

  9
$DIMSTYLE
  2
BIGT
  9
$DIMCLRD
 70
   256
  9
$DIMCLRE
 70
   256
  9
$DIMCLRT
 70
    40
  9
$DIMTFAC
 40
1.0
  9
$DIMGAP
 40
1.0
  9
$LUNITS
 70
     2
  9
$LUPREC
 70
     6
  9
$SKETCHINC
 40
1.0
  9
$FILLETRAD
 40
0.0
  9
$AUNITS
 70
     0
  9
$AUPREC
 70
     6
  9
$MENU
  1
.
  9
$ELEVATION
 40
0.0
  9
$PELEVATION
 40
0.0
  9
$THICKNESS
 40
0.0
  9
$LIMCHECK
 70
     0
  9
$BLIPMODE
 70
     0
  9
$CHAMFERA
 40
0.2
  9
$CHAMFERB
 40
0.2
  9
$SKPOLY
 70
     0
  9
$TDCREATE
 40
2457241.7012393521
  9
$TDUPDATE
 40
2457242.378758519
  9
$TDINDWG
 40
0.0152861806
  9
$TDUSRTIMER
 40
0.0152861458
  9
$USRTIMER
 70
     1
  9
$ANGBASE
 50
0.0
  9
$ANGDIR
 70
     0
  9
$PDMODE
 70
     1
  9
$PDSIZE
 40
0.0
  9
$PLINEWID
 40
0.0
  9
$COORDS
 70
     1
  9
$SPLFRAME
 70
     0
  9
$SPLINETYPE
 70
     6
  9
$SPLINESEGS
 70
     4
  9
$ATTDIA
 70
     1
  9
$ATTREQ
 70
     1
  9
$HANDLING
 70
     1
  9
$HANDSEED
  5
494A
  9
$SURFTAB1
 70
     6
  9
$SURFTAB2
 70
     6
  9
$SURFTYPE
 70
     6
  9
$SURFU
 70
     6
  9
$SURFV
 70
     6
  9
$UCSNAME
  2

  9
$UCSORG
 10
0.0
 20
0.0
 30
0.0
  9
$UCSXDIR
 10
1.0
 20
0.0
 30
0.0
  9
$UCSYDIR
 10
0.0
 20
1.0
 30
0.0
  9
$PUCSNAME
  2

  9
$PUCSORG
 10
0.0
 20
0.0
 30
0.0
  9
$PUCSXDIR
 10
1.0
 20
0.0
 30
0.0
  9
$PUCSYDIR
 10
0.0
 20
1.0
 30
0.0
  9
$USERI1
 70
     1
  9
$USERI2
 70
     0
  9
$USERI3
 70
     0
  9
$USERI4
 70
     0
  9
$USERI5
 70
     0
  9
$USERR1
 40
0.0
  9
$USERR2
 40
0.0
  9
$USERR3
 40
0.0
  9
$USERR4
 40
0.0
  9
$USERR5
 40
0.0
  9
$WORLDVIEW
 70
     1
  9
$SHADEDGE
 70
     3
  9
$SHADEDIF
 70
    70
  9
$TILEMODE
 70
     1
  9
$MAXACTVP
 70
    16
  9
$PLIMCHECK
 70
     0
  9
$PEXTMIN
 10
1.0000000000000000E+020
 20
1.0000000000000000E+020
 30
1.0000000000000000E+020
  9
$PEXTMAX
 10
-1.0000000000000000E+020
 20
-1.0000000000000000E+020
 30
-1.0000000000000000E+020
  9
$PLIMMIN
 10
0.0
 20
0.0
  9
$PLIMMAX
 10
420.0
 20
297.0
  9
$UNITMODE
 70
     0
  9
$VISRETAIN
 70
     1
  9
$PLINEGEN
 70
     0
  9
$PSLTSCALE
 70
     1
  0
ENDSEC
  0
SECTION
  2
TABLES
  0
TABLE
  2
VPORT
 70
     1
  0
VPORT
  2
*ACTIVE
 70
     0
 10
0.0
 20
0.0
 11
1.0
 21
1.0
 12
34.976898752708109
 22
22.767047889798722
 13
0.0
 23
0.0
 14
7.0
 24
7.0
 15
7.0
 25
7.0
 16
0.0
 26
0.0
 36
1.0
 17
0.0
 27
0.0
 37
0.0
 40
135.8011738804899
 41
1.4355016538037479
 42
50.0
 43
0.0
 44
0.0
 50
0.0
 51
0.0
 71
     0
 72
  2000
 73
     1
 74
     0
 75
     0
 76
     1
 77
     0
 78
     0
  0
ENDTAB
  0
TABLE
  2
LTYPE
 70
    13
  0
LTYPE
  2
CONTINUOUS
 70
     0
  3
Solid line
 72
    65
 73
     0
 40
0.0
  0
LTYPE
  2
CENTER2
 70
     0
  3
___ _ ___ _ ___ _ ___ _ ___ _ ___ _ ___ _ ___ _
 72
    65
 73
     4
 40
1.125
 49
0.75
 49
-0.125
 49
0.125
 49
-0.125
  0
LTYPE
  2
HIDDEN2
 70
     0
  3
_ _ _ _ _ _ _ _ _ _ _ _ _ _ _ _ _ _ _ _ _ _ _ _
 72
    65
 73
     2
 40
0.1875
 49
0.125
 49
-0.0625
  0
LTYPE
  2
PHANTOM2
 70
     0
  3
___ _ _ ___ _ _ ___ _ _ ___ _ _ ___ _ _ ___ _ _
 72
    65
 73
     6
 40
1.25
 49
0.625
 49
-0.125
 49
0.125
 49
-0.125
 49
0.125
 49
-0.125
  0
LTYPE
  2
AM_ISO02W050
 70
     0
  3
__ __ __ __ __ __ __ __ __ __ __ __ __ __ __
 72
    65
 73
     2
 40
7.5
 49
6.0
 49
-1.5
  0
LTYPE
  2
AMCONSTR
 70
     0
  3
_______________________
 72
    65
 73
     2
 40
9999.0
 49
9999.0
 49
0.0
  0
LTYPE
  2
ACISOWELD
 70
     0
  3
_ _ _ _ _
 72
    65
 73
     2
 40
2.0
 49
2.0
 49
-1.0
  0
LTYPE
  2
ACISOTGB
 70
     0
  3
__ . . __ . .
 72
    65
 73
     6
 40
9.0
 49
4.0
 49
-1.0
 49
1.0
 49
-1.0
 49
1.0
 49
-1.0
  0
LTYPE
  2
ACISOTGL
 70
     0
  3
_ _ _ _ _
 72
    65
 73
     2
 40
3.0
 49
2.0
 49
-1.0
  0
LTYPE
  2
ACJISTGB
 70
     0
  3
__ . . __ . .
 72
    65
 73
     6
 40
9.0
 49
4.0
 49
-1.0
 49
1.0
 49
-1.0
 49
1.0
 49
-1.0
  0
LTYPE
  2
ACJISTGL
 70
     0
  3
_ _ _ _ _
 72
    65
 73
     2
 40
3.0
 49
2.0
 49
-1.0
  0
ENDTAB
  0
TABLE
  2
LAYER
 70
    10
  0
LAYER
  2
0
 70
     0
 62
     7
  6
CONTINUOUS
  0
LAYER
  2
DEFPOINTS
 70
     0
 62
     7
  6
CONTINUOUS
  0
LAYER
  2
245
 70
     0
 62
     2
  6
CENTER2
  0
LAYER
  2
240
 70
     0
 62
     4
  6
CONTINUOUS
  0
LAYER
  2
241
 70
     0
 62
   211
  6
CONTINUOUS
  0
LAYER
  2
242
 70
     0
 62
     3
  6
CONTINUOUS
  0
LAYER
  2
243
 70
     0
 62
   211
  6
HIDDEN2
  0
LAYER
  2
244
 70
     0
 62
     3
  6
HIDDEN2
  0
LAYER
  2
246
 70
     0
 62
     3
  6
PHANTOM2
  0
LAYER
  2
250
 70
     0
 62
     3
  6
CONTINUOUS
  0
ENDTAB
  0
TABLE
  2
STYLE
 70
     6
  0
STYLE
  2
STANDARD
 70
     0
 40
0.0
 41
1.0
 50
0.0
 71
     0
 42
3.0
  3
romans.shx
  4
extfont.shx
  0
STYLE
  2
ACISOTS
 70
     0
 40
1.0
 41
1.0
 50
0.0
 71
     0
 42
3.0
  3
amgdt.shx
  4
extfont.shx
  0
STYLE
  2
ACISOGDT
 70
     0
 40
0.0
 41
1.0
 50
0.0
 71
     0
 42
3.0
  3
amgdt.shx
  4
extfont.shx
  0
STYLE
  2
ACJISTS
 70
     0
 40
1.0
 41
1.0
 50
0.0
 71
     0
 42
3.0
  3
amgdt.shx
  4
extfont.shx
  0
STYLE
  2
ACJISGDT
 70
     0
 40
0.0
 41
1.0
 50
0.0
 71
     0
 42
3.0
  3
amgdt.shx
  4
extfont.shx
  0
STYLE
  2
YOKO
 70
     0
 40
0.0
 41
1.0
 50
0.0
 71
     0
 42
3.0
  3
romans.shx
  4
extfont.shx
  0
ENDTAB
  0
TABLE
  2
VIEW
 70
     0
  0
ENDTAB
  0
TABLE
  2
UCS
 70
     0
  0
ENDTAB
  0
TABLE
  2
APPID
 70
    35
  0
APPID
  2
ACAD
 70
     0
  0
APPID
  2
GLOBAL
 70
     0
  0
APPID
  2
DETAIL
 70
     0
  0
APPID
  2
GRPNAME
 70
     0
  0
APPID
  2
GPARA
 70
     0
  0
APPID
  2
MCAD_NO_VIS
 70
     0
  0
APPID
  2
ACAD_TEMP_GRAPHIC
 70
     0
  0
APPID
  2
ACATTRIBSERVICES
 70
     0
  0
APPID
  2
GENIUS_GENSCREG_15
 70
     0
  0
APPID
  2
GENIUS_GENODEF_13
 70
     0
  0
APPID
  2
GENIUS_GENOBJ-N-SDF_13
 70
     0
  0
APPID
  2
GENIUS_GENREC_14
 70
     0
  0
APPID
  2
GENIUS_GENOBJ-N-REC_13
 70
     0
  0
APPID
  2
GENIUS_GENDIMSH_14
 70
     0
  0
APPID
  2
GENIUS_GENOBJ-N-DIM_13
 70
     0
  0
APPID
  2
GENIUS_GENDIM_13
 70
     0
  0
APPID
  2
GENIUS_GENDTOL_13
 70
     0
  0
APPID
  2
GENIUS_GENOLIS_13
 70
     0
  0
APPID
  2
GENIUS_GENOENT_13
 70
     0
  0
APPID
  2
GENIUS_GENOBJ-F-FEM_13
 70
     0
  0
APPID
  2
GENIUS_GENOREF_13
 70
     0
  0
APPID
  2
GENIUS_GEFFEM_13
 70
     0
  0
APPID
  2
GENIUS_GEFFEMP_13
 70
     0
  0
APPID
  2
AD_DRAW
 70
     0
  0
APPID
  2
DESIGNERASSEMBLIES
 70
     0
  0
APPID
  2
ACADM_DIM_EDIT
 70
     0
  0
APPID
  2
AMDT_DM_ADJ
 70
     0
  0
APPID
  2
ITEMNAME
 70
     0
  0
APPID
  2
GENIUS_GENOBJ-N-FIL_13
 70
     0
  0
APPID
  2
GENIUS_GENFIL_13
 70
     0
  0
APPID
  2
GENIUS_GENOBJ-N-CHA_13
 70
     0
  0
APPID
  2
ACAD_NAV_VCDISPLAY
 70
     0
  0
APPID
  2
ACAD_DSTYLE_DIMINSPECT
 70
     0
  0
APPID
  2
ACAD_EXEMPT_FROM_CAD_STANDARDS
 70
     0
  0
APPID
  2
ACAD_MLEADERVER
 70
     0
  0
ENDTAB
  0
TABLE
  2
DIMSTYLE
 70
    23
  0
DIMSTYLE
  2
BIGT
 70
     0
  3

  4

  5
OPEN
  6

  7

 40
1.0
 41
2.2299999999999991
 42
0.5
 43
7.0
 44
1.0
 45
0.0
 46
0.0
 47
0.0
 48
0.01
140
2.7999999999999989
141
0.0
142
0.0
143
25.399999999999999
144
1.0
145
0.0
146
1.0
147
1.0
 71
     0
 72
     0
 73
     0
 74
     0
 75
     0
 76
     0
 77
     3
 78
     9
170
     0
171
     2
172
     1
173
     0
174
     1
175
     0
176
   256
177
   256
178
    40
  0
DIMSTYLE
  2
AM_ISO
 70
     0
  3

  4
"
  5

  6

  7

 40
1.0
 41
2.5
 42
1.0
 43
10.0
 44
1.0
 45
0.0
 46
0.0
 47
0.1
 48
0.1
140
3.5
141
0.0
142
0.0
143
0.0393701
144
1.0
145
0.0
146
0.71
147
1.5
 71
     0
 72
     0
 73
     0
 74
     0
 75
     0
 76
     0
 77
     1
 78
     8
170
     0
171
     2
172
     1
173
     0
174
     0
175
     0
176
   256
177
   256
178
     2
  0
DIMSTYLE
  2
AM_ISO$3
 70
     0
  3

  4
"
  5

  6

  7

 40
1.0
 41
2.5
 42
1.0
 43
10.0
 44
1.0
 45
0.0
 46
0.0
 47
0.1
 48
0.1
140
3.5
141
0.0
142
0.0
143
0.0393701
144
1.0
145
0.0
146
0.71
147
1.5
 71
     0
 72
     0
 73
     0
 74
     1
 75
     0
 76
     0
 77
     1
 78
     8
170
     0
171
     2
172
     0
173
     0
174
     0
175
     0
176
   256
177
   256
178
     2
  0
DIMSTYLE
  2
AM_ISO$4
 70
     0
  3

  4
"
  5

  6

  7

 40
1.0
 41
2.5
 42
1.0
 43
10.0
 44
1.0
 45
0.0
 46
0.0
 47
0.1
 48
0.1
140
3.5
141
0.0
142
0.0
143
0.0393701
144
1.0
145
0.0
146
0.71
147
1.5
 71
     0
 72
     0
 73
     0
 74
     1
 75
     0
 76
     0
 77
     1
 78
     8
170
     0
171
     2
172
     0
173
     0
174
     0
175
     0
176
   256
177
   256
178
     2
  0
DIMSTYLE
  2
AM_ISO$6
 70
     0
  3

  4
"
  5

  6

  7

 40
1.0
 41
2.5
 42
1.0
 43
10.0
 44
1.0
 45
0.0
 46
0.0
 47
0.1
 48
0.1
140
3.5
141
0.0
142
0.0
143
0.0393701
144
1.0
145
0.0
146
0.71
147
1.5
 71
     0
 72
     0
 73
     0
 74
     0
 75
     0
 76
     0
 77
     0
 78
     8
170
     0
171
     2
172
     1
173
     0
174
     0
175
     0
176
   256
177
   256
178
     2
  0
DIMSTYLE
  2
AM_ISO$7
 70
     0
  3

  4
"
  5

  6

  7

 40
1.0
 41
2.5
 42
1.0
 43
10.0
 44
1.0
 45
0.0
 46
0.0
 47
0.1
 48
0.1
140
5.0
141
0.0
142
0.0
143
0.0393701
144
1.0
145
0.0
146
0.71
147
1.5
 71
     0
 72
     0
 73
     0
 74
     0
 75
     0
 76
     0
 77
     1
 78
     8
170
     0
171
     2
172
     1
173
     0
174
     0
175
     0
176
   256
177
   256
178
     2
  0
DIMSTYLE
  2
AM_ISO$SF
 70
     0
  3

  4
"
  5

  6

  7

 40
1.0
 41
2.5
 42
1.0
 43
10.0
 44
1.0
 45
0.0
 46
0.0
 47
0.1
 48
0.1
140
3.5
141
0.0
142
0.0
143
0.0393701
144
1.0
145
0.0
146
0.71
147
1.5
 71
     0
 72
     0
 73
     0
 74
     0
 75
     1
 76
     1
 77
     1
 78
     8
170
     0
171
     2
172
     1
173
     0
174
     0
175
     0
176
   256
177
   256
178
     2
  0
DIMSTYLE
  2
AM_ISO$SH
 70
     0
  3

  4
"
  5

  6
GENAXEH
  7

 40
1.0
 41
2.5
 42
1.0
 43
10.0
 44
1.0
 45
0.0
 46
0.0
 47
0.1
 48
0.1
140
3.5
141
0.0
142
0.0
143
0.0393701
144
2.0
145
0.0
146
0.71
147
1.5
 71
     0
 72
     0
 73
     0
 74
     0
 75
     1
 76
     1
 77
     1
 78
     8
170
     0
171
     2
172
     1
173
     1
174
     0
175
     0
176
   256
177
   256
178
     2
  0
DIMSTYLE
  2
BIGT$2
 70
     0
  3

  4

  5
OPEN
  6

  7

 40
1.0
 41
2.2299999999999991
 42
0.5
 43
7.0
 44
1.0
 45
0.0
 46
0.0
 47
0.0
 48
0.01
140
2.7999999999999989
141
0.0
142
0.0
143
25.399999999999999
144
1.0
145
0.0
146
1.0
147
1.0
 71
     0
 72
     0
 73
     0
 74
     0
 75
     0
 76
     0
 77
     3
 78
     9
170
     0
171
     2
172
     1
173
     0
174
     0
175
     0
176
   256
177
   256
178
    40
  0
DIMSTYLE
  2
BIGT$3
 70
     0
  3

  4

  5
OPEN
  6

  7

 40
1.0
 41
2.2299999999999991
 42
0.5
 43
2.5
 44
1.0
 45
0.0
 46
0.0
 47
0.0
 48
0.01
140
2.7999999999999989
141
0.0
142
0.0
143
25.399999999999999
144
1.0
145
0.0
146
1.0
147
1.0
 71
     0
 72
     0
 73
     0
 74
     0
 75
     0
 76
     0
 77
     3
 78
     9
170
     0
171
     2
172
     1
173
     0
174
     0
175
     0
176
   256
177
   256
178
    40
  0
DIMSTYLE
  2
BIGT$7
 70
     0
  3

  4

  5
OPEN
  6

  7

 40
0.0
 41
2.2299999999999991
 42
0.5
 43
7.0
 44
1.0
 45
0.0
 46
0.0
 47
0.0
 48
0.01
140
2.7999999999999989
141
0.0
142
0.0
143
25.399999999999999
144
1.0
145
0.0
146
1.0
147
1.0
 71
     0
 72
     0
 73
     0
 74
     0
 75
     0
 76
     0
 77
     3
 78
     9
170
     0
171
     2
172
     0
173
     0
174
     0
175
     0
176
   256
177
   256
178
    40
  0
DIMSTYLE
  2
BIGT$6
 70
     0
  3

  4

  5
OPEN
  6

  7

 40
1.0
 41
2.2299999999999991
 42
0.5
 43
2.5
 44
1.0
 45
0.0
 46
0.0
 47
0.0
 48
0.01
140
2.7999999999999989
141
0.0
142
0.0
143
25.399999999999999
144
1.0
145
0.0
146
1.0
147
1.0
 71
     0
 72
     0
 73
     0
 74
     0
 75
     0
 76
     0
 77
     3
 78
     9
170
     0
171
     2
172
     1
173
     0
174
     0
175
     0
176
   256
177
   256
178
    40
  0
DIMSTYLE
  2
BIGT$0
 70
     0
  3

  4

  5
OPEN
  6

  7

 40
1.0
 41
2.2299999999999991
 42
0.5
 43
7.0
 44
1.0
 45
0.0
 46
0.0
 47
0.0
 48
0.01
140
2.7999999999999989
141
0.0
142
0.0
143
25.399999999999999
144
1.0
145
0.0
146
1.0
147
1.0
 71
     0
 72
     0
 73
     0
 74
     0
 75
     0
 76
     0
 77
     3
 78
     9
170
     0
171
     2
172
     1
173
     0
174
     1
175
     0
176
   256
177
   256
178
    40
  0
DIMSTYLE
  2
BIGT$4
 70
     0
  3

  4

  5
OPEN
  6

  7

 40
1.0
 41
2.2299999999999991
 42
0.5
 43
2.5
 44
1.0
 45
0.0
 46
0.0
 47
0.0
 48
0.01
140
2.7999999999999989
141
0.0
142
0.0
143
25.399999999999999
144
1.0
145
0.0
146
1.0
147
1.0
 71
     0
 72
     0
 73
     0
 74
     0
 75
     0
 76
     0
 77
     3
 78
     9
170
     0
171
     2
172
     1
173
     0
174
     0
175
     0
176
   256
177
   256
178
    40
  0
DIMSTYLE
  2
BIGT$SH
 70
     0
  3

  4

  5
OPEN
  6

  7

 40
1.0
 41
2.2299999999999991
 42
0.5
 43
7.0
 44
1.0
 45
0.0
 46
0.0
 47
0.0
 48
0.0
140
2.7999999999999989
141
0.0
142
0.0
143
25.399999999999999
144
1.0
145
0.0
146
1.0
147
1.0
 71
     0
 72
     0
 73
     0
 74
     0
 75
     0
 76
     0
 77
     3
 78
     9
170
     0
171
     2
172
     1
173
     0
174
     0
175
     0
176
   256
177
   256
178
    40
  0
DIMSTYLE
  2
BIGT$SF
 70
     0
  3

  4

  5
OPEN
  6

  7

 40
1.0
 41
2.2299999999999991
 42
0.5
 43
7.0
 44
1.0
 45
0.0
 46
0.0
 47
0.0
 48
0.0
140
2.7999999999999989
141
0.0
142
0.0
143
25.399999999999999
144
1.0
145
0.0
146
1.0
147
1.0
 71
     0
 72
     0
 73
     0
 74
     0
 75
     0
 76
     0
 77
     3
 78
     9
170
     0
171
     2
172
     1
173
     0
174
     0
175
     0
176
   256
177
   256
178
    40
  0
DIMSTYLE
  2
TECHNICAL_OSAKA
 70
     0
  3

  4
"
  5
OPEN30
  6

  7

 40
1.0
 41
2.5
 42
1.0
 43
10.0
 44
1.0
 45
0.0
 46
0.0
 47
0.1
 48
0.1
140
2.7999999999999989
141
0.0
142
0.0
143
0.0393701
144
1.0
145
0.0
146
0.71
147
1.5
 71
     0
 72
     0
 73
     0
 74
     0
 75
     0
 76
     0
 77
     3
 78
     8
170
     0
171
     2
172
     1
173
     0
174
     0
175
     0
176
   256
177
   256
178
    40
  0
DIMSTYLE
  2
TECHNICAL_OSAKA$3
 70
     0
  3

  4
"
  5
OPEN30
  6

  7

 40
1.0
 41
2.5
 42
1.0
 43
10.0
 44
1.0
 45
0.0
 46
0.0
 47
0.1
 48
0.1
140
2.7999999999999989
141
0.0
142
0.0
143
0.0393701
144
1.0
145
0.0
146
0.71
147
1.5
 71
     0
 72
     0
 73
     0
 74
     1
 75
     0
 76
     0
 77
     3
 78
     8
170
     0
171
     2
172
     0
173
     0
174
     0
175
     0
176
   256
177
   256
178
    40
  0
DIMSTYLE
  2
TECHNICAL_OSAKA$4
 70
     0
  3

  4
"
  5
OPEN30
  6

  7

 40
1.0
 41
2.5
 42
1.0
 43
10.0
 44
1.0
 45
0.0
 46
0.0
 47
0.1
 48
0.1
140
2.7999999999999989
141
0.0
142
0.0
143
0.0393701
144
1.0
145
0.0
146
0.71
147
1.5
 71
     0
 72
     0
 73
     0
 74
     1
 75
     0
 76
     0
 77
     3
 78
     8
170
     0
171
     2
172
     0
173
     0
174
     0
175
     0
176
   256
177
   256
178
    40
  0
DIMSTYLE
  2
TECHNICAL_OSAKA$6
 70
     0
  3

  4
"
  5
OPEN30
  6

  7

 40
1.0
 41
2.5
 42
1.0
 43
10.0
 44
1.0
 45
0.0
 46
0.0
 47
0.1
 48
0.1
140
2.7999999999999989
141
0.0
142
0.0
143
0.0393701
144
1.0
145
0.0
146
0.71
147
1.5
 71
     0
 72
     0
 73
     0
 74
     0
 75
     0
 76
     0
 77
     0
 78
     8
170
     0
171
     2
172
     1
173
     0
174
     0
175
     0
176
   256
177
   256
178
    40
  0
DIMSTYLE
  2
TECHNICAL_OSAKA$7
 70
     0
  3

  4
"
  5
OPEN30
  6

  7

 40
1.0
 41
2.5
 42
1.0
 43
10.0
 44
1.0
 45
0.0
 46
0.0
 47
0.1
 48
0.1
140
2.7999999999999989
141
0.0
142
0.0
143
0.0393701
144
1.0
145
0.0
146
0.71
147
1.5
 71
     0
 72
     0
 73
     0
 74
     0
 75
     0
 76
     0
 77
     3
 78
     8
170
     0
171
     2
172
     1
173
     0
174
     0
175
     0
176
   256
177
   256
178
    40
  0
DIMSTYLE
  2
TECHNICAL_OSAKA$SF
 70
     0
  3

  4
"
  5
OPEN30
  6
OPEN30
  7
OPEN30
 40
1.0
 41
2.5
 42
1.0
 43
10.0
 44
1.0
 45
0.0
 46
0.0
 47
0.1
 48
0.1
140
3.5
141
0.0
142
0.0
143
0.0393701
144
1.0
145
0.0
146
0.71
147
1.5
 71
     0
 72
     0
 73
     0
 74
     0
 75
     1
 76
     1
 77
     3
 78
     8
170
     0
171
     2
172
     1
173
     0
174
     0
175
     0
176
   256
177
   256
178
    40
  0
DIMSTYLE
  2
TECHNICAL_OSAKA$SH
 70
     0
  3

  4
"
  5
OPEN30
  6
GENAXEH
  7
OPEN30
 40
1.0
 41
2.5
 42
1.0
 43
10.0
 44
1.0
 45
0.0
 46
0.0
 47
0.1
 48
0.1
140
3.5
141
0.0
142
0.0
143
0.0393701
144
2.0
145
0.0
146
0.71
147
1.5
 71
     0
 72
     0
 73
     0
 74
     0
 75
     1
 76
     1
 77
     3
 78
     8
170
     0
171
     2
172
     1
173
     1
174
     0
175
     0
176
   256
177
   256
178
    40
  0
ENDTAB
  0
ENDSEC
  0
SECTION
  2
BLOCKS
  0
BLOCK
  8
0
  2
$MODEL_SPACE
 70
     0
 10
0.0
 20
0.0
 30
0.0
  3
$MODEL_SPACE
  1

  0
ENDBLK
  5
1C
  8
0
  0
BLOCK
 67
     1
  8
0
  2
$PAPER_SPACE
 70
     0
 10
0.0
 20
0.0
 30
0.0
  3
$PAPER_SPACE
  1

  0
ENDBLK
  5
19
 67
     1
  8
0
  0
BLOCK
  8
0
  2
_OPEN
 70
     0
 10
0.0
 20
0.0
 30
0.0
  3
_OPEN
  1

  0
LINE
  5
4851
  8
0
  6
BYBLOCK
 62
     0
 10
-1.0
 20
0.1666666666666666
 30
0.0
 11
0.0
 21
0.0
 31
0.0
  0
LINE
  5
4852
  8
0
  6
BYBLOCK
 62
     0
 10
-1.0
 20
-0.1666666666666666
 30
0.0
 11
0.0
 21
0.0
 31
0.0
  0
LINE
  5
4853
  8
0
  6
BYBLOCK
 62
     0
 10
0.0
 20
0.0
 30
0.0
 11
-1.0
 21
0.0
 31
0.0
  0
ENDBLK
  5
4854
  8
0
  0
BLOCK
  8
0
  2
GENAXEH
 70
     0
 10
0.0
 20
0.0
 30
0.0
  3
GENAXEH
  1

  0
LINE
  5
488C
  8
0
 10
-1.0
 20
0.0
 30
0.0
 11
1.0
 21
0.0
 31
0.0
  0
ENDBLK
  5
488D
  8
0
  0
BLOCK
  8
0
  2
_OPEN30
 70
     0
 10
0.0
 20
0.0
 30
0.0
  3
_OPEN30
  1

  0
LINE
  5
48C8
  8
0
  6
BYBLOCK
 62
     0
 10
-1.0
 20
0.26794919
 30
0.0
 11
0.0
 21
0.0
 31
0.0
  0
LINE
  5
48C9
  8
0
  6
BYBLOCK
 62
     0
 10
0.0
 20
0.0
 30
0.0
 11
-1.0
 21
-0.26794919
 31
0.0
  0
LINE
  5
48CA
  8
0
  6
BYBLOCK
 62
     0
 10
0.0
 20
0.0
 30
0.0
 11
-1.0
 21
0.0
 31
0.0
  0
ENDBLK
  5
48CB
  8
0
  0
ENDSEC
  0
SECTION
  2
ENTITIES
  0
LINE
  5
436A
  8
240
 10
22.0
 20
22.74999999999995
 30
0.0
 11
34.345162945898892
 21
22.74999999999995
 31
0.0
  0
LINE
  5
436B
  8
240
 10
22.00000000000006
 20
-22.749999999999972
 30
0.0
 11
34.345162945899013
 21
-22.750000000000139
 31
0.0
  0
LINE
  5
436E
  8
241
 10
34.999999999999773
 20
-22.994229907593329
 30
0.0
 11
35.0
 21
22.994229907593311
 31
0.0
  0
LINE
  5
436F
  8
240
 10
35.311088772187993
 20
23.491180954897398
 30
0.0
 11
36.256000113736611
 21
27.017638090205029
 31
0.0
  0
ARC
  5
4370
  8
240
 10
34.345162945899013
 20
23.74999999999994
 30
0.0
 40
1.0
 50
269.99999999999682
 51
344.99999999999892
1001
GENIUS_GENOBJ-N-FIL_13
1002
{
1000
OWNER
1000
GEN
1002
}
1001
GENIUS_GENODEF_13
1002
{
1000
HIER
1070
     0
1002
}
1002
{
1000
MANEDIT
1070
     0
1002
}
1002
{
1000
NOSEL
1070
     0
1002
}
1002
{
1000
BEHIND
1070
     0
1002
}
1002
{
1000
OTHER
1070
     0
1002
}
1002
{
1000
REACTOR
1002
}
  0
LINE
  5
4371
  8
240
 10
35.311088772187993
 20
-23.491180954897601
 30
0.0
 11
36.256000113736611
 21
-27.017638090205079
 31
0.0
  0
ARC
  5
4372
  8
240
 10
34.345162945899013
 20
-23.750000000000082
 30
0.0
 40
1.0
 50
15.00000000000116
 51
90.0
  0
LINE
  5
4373
  8
241
 10
36.787172386572372
 20
-27.92761944339674
 30
0.0
 11
36.787172386572557
 21
27.92761944339691
 31
0.0
  0
LINE
  5
4374
  8
240
 10
38.187851766314743
 20
-28.500000000000028
 30
0.0
 11
47.499999999997648
 21
-28.500000000000028
 31
0.0
  0
LINE
  5
4375
  8
240
 10
38.187851766314793
 20
28.49999999999994
 30
0.0
 11
47.499999999997449
 21
28.49999999999994
 31
0.0
  0
ARC
  5
4376
  8
240
 10
38.187851766314793
 20
-26.499999999999972
 30
0.0
 40
2.0
 50
195.00000000000111
 51
269.99999999999841
1001
GENIUS_GENODEF_13
1002
{
1000
HIER
1070
     0
1002
}
1002
{
1000
MANEDIT
1070
     0
1002
}
1002
{
1000
NOSEL
1070
     0
1002
}
1002
{
1000
BEHIND
1070
     0
1002
}
1002
{
1000
OTHER
1070
     0
1002
}
1002
{
1000
REACTOR
1002
}
1001
GENIUS_GENOBJ-N-FIL_13
1002
{
1000
OWNER
1000
GEN
1002
}
  0
ARC
  5
4377
  8
240
 10
38.187851766314793
 20
26.5
 30
0.0
 40
2.0
 50
90.0
 51
164.99999999999881
1001
GENIUS_GENODEF_13
1002
{
1000
HIER
1070
     0
1002
}
1002
{
1000
MANEDIT
1070
     0
1002
}
1002
{
1000
NOSEL
1070
     0
1002
}
1002
{
1000
BEHIND
1070
     0
1002
}
1002
{
1000
OTHER
1070
     0
1002
}
1002
{
1000
REACTOR
1002
}
1001
GENIUS_GENOBJ-N-FIL_13
1002
{
1000
OWNER
1000
GEN
1002
}
  0
LINE
  5
4378
  8
241
 10
9.5672083697112953
 20
0.0000000000002274
 30
0.0
 11
9.5672083697082826
 21
-22.88452994616603
 31
0.0
  0
LINE
  5
4379
  8
241
 10
11.8766094464691
 20
-0.0000000000000853
 30
0.0
 11
11.87660944646654
 21
-19.036700683815521
 31
0.0
  0
LINE
  5
437A
  8
241
 10
17.632791630291251
 20
-0.0000000000008384
 30
0.0
 11
17.632791630288239
 21
-22.884529946171909
 31
0.0
  0
LINE
  5
437B
  8
241
 10
15.323390553531899
 20
-0.00000000000054
 30
0.0
 11
15.323390553529411
 21
-19.036700683814779
 31
0.0
  0
LINE
  5
437C
  8
240
 10
9.3672083697115909
 20
-22.999999999999769
 30
0.0
 11
1.500000000000056
 21
-22.999999999999769
 31
0.0
  0
LINE
  5
437D
  8
240
 10
17.832791630287431
 20
-22.999999999999769
 30
0.0
 11
21.750000000000291
 21
-22.999999999999758
 31
0.0
  0
LINE
  5
437E
  8
240
 10
11.992079500305969
 20
-19.000000000000789
 30
0.0
 11
15.20792049969293
 21
-18.999999999999709
 31
0.0
  0
LINE
  5
437F
  8
240
 10
9.367208369710454
 20
-23.000000000000458
 30
0.0
 11
9.6672083697104085
 21
-22.826794919243579
 31
0.0
  0
ARC
  5
4380
  8
240
 10
11.99207950030603
 20
-19.200000000000841
 30
0.0
 40
0.2
 50
90.000000000019526
 51
150.00000000000389
  0
LINE
  5
4381
  8
240
 10
11.818874419549161
 20
-19.100000000000819
 30
0.0
 11
9.6672083697104085
 21
-22.826794919243579
 31
0.0
  0
LINE
  5
4382
  8
240
 10
17.532791630290319
 20
-22.826794919244609
 30
0.0
 11
15.38112558044986
 21
-19.099999999999682
 31
0.0
  0
ARC
  5
4383
  8
240
 10
15.207920499692991
 20
-19.199999999999701
 30
0.0
 40
0.2
 50
30.000000000003769
 51
90.000000000019526
  0
LINE
  5
4384
  8
240
 10
17.83279163029033
 20
-23.000000000001421
 30
0.0
 11
17.532791630290319
 21
-22.826794919244609
 31
0.0
  0
LINE
  5
4385
  8
240
 10
17.83279163029033
 20
23.000000000001329
 30
0.0
 11
17.532791630290319
 21
22.82679491924452
 31
0.0
  0
ARC
  5
4386
  8
240
 10
15.207920499692991
 20
19.199999999999619
 30
0.0
 40
0.2
 50
269.99999999998039
 51
329.99999999999619
  0
LINE
  5
4387
  8
240
 10
17.532791630290319
 20
22.82679491924452
 30
0.0
 11
15.38112558044986
 21
19.099999999999589
 31
0.0
  0
LINE
  5
4388
  8
240
 10
11.818874419549161
 20
19.10000000000073
 30
0.0
 11
9.6672083697104085
 21
22.8267949192435
 31
0.0
  0
ARC
  5
4389
  8
240
 10
11.99207950030603
 20
19.200000000000749
 30
0.0
 40
0.2
 50
209.99999999999611
 51
269.99999999998039
  0
LINE
  5
438A
  8
240
 10
9.367208369710454
 20
23.000000000000369
 30
0.0
 11
9.6672083697104085
 21
22.8267949192435
 31
0.0
  0
LINE
  5
438B
  8
240
 10
11.992079500305969
 20
19.000000000000711
 30
0.0
 11
15.20792049969293
 21
18.999999999999631
 31
0.0
  0
LINE
  5
438C
  8
240
 10
17.832791630287431
 20
22.999999999999691
 30
0.0
 11
21.750000000000259
 21
22.999999999999691
 31
0.0
  0
LINE
  5
438D
  8
240
 10
9.3672083697115909
 20
22.999999999999691
 30
0.0
 11
1.500000000000056
 21
22.999999999999691
 31
0.0
  0
LINE
  5
438E
  8
241
 10
15.323390553531899
 20
0.0000000000004547
 30
0.0
 11
15.323390553529411
 21
19.036700683814701
 31
0.0
  0
LINE
  5
438F
  8
241
 10
17.632791630291251
 20
0.0000000000007532
 30
0.0
 11
17.632791630288239
 21
22.884529946171821
 31
0.0
  0
LINE
  5
4390
  8
241
 10
11.8766094464691
 20
0.0
 30
0.0
 11
11.87660944646654
 21
19.03670068381544
 31
0.0
  0
LINE
  5
4391
  8
241
 10
9.5672083697112953
 20
-0.0000000000003126
 30
0.0
 11
9.5672083697082826
 21
22.884529946165941
 31
0.0
  0
LINE
  5
4393
  8
245
 10
-51.751175699569842
 20
-0.0000000000000142
 30
0.0
 11
119.4173298851041
 21
-0.0000000000000284
 31
0.0
1001
GRPNAME
1000
PASTMD03
  0
LINE
  5
4394
  8
250
 10
109.9999999999975
 20
-6.5000000000000142
 30
0.0
 11
126.0
 21
-6.5000000000000142
 31
0.0
1001
GRPNAME
1000
PASTMD03
  0
LINE
  5
4395
  8
250
 10
109.9999999999975
 20
6.4999999999999849
 30
0.0
 11
126.0
 21
6.4999999999999849
 31
0.0
1001
GRPNAME
1000
PASTMD03
  0
LINE
  5
4396
  8
243
 10
19.0
 20
16.299999999999951
 30
0.0
 11
0.9999999999998294
 21
16.300000000000239
 31
0.0
1001
GRPNAME
1000
PASTMD03
  0
LINE
  5
4397
  8
243
 10
19.0
 20
-16.30000000000005
 30
0.0
 11
1.000000000000113
 21
-16.300000000000011
 31
0.0
1001
GRPNAME
1000
PASTMD03
  0
LINE
  5
4399
  8
241
 10
1.0
 20
15.87499999999992
 30
0.0
 11
1.0
 21
-0.0000000000000426
 31
0.0
1001
GRPNAME
1000
PASTMD03
  0
LINE
  5
439E
  8
240
 10
-48.399999999999977
 20
7.9517585436262257
 30
0.0
 11
-48.399999999999977
 21
-0.0000000000000711
 31
0.0
  0
LINE
  5
43A2
  8
240
 10
-47.544310229592952
 20
-8.9412910381079058
 30
0.0
 11
0.0
 21
-15.875000000000069
 31
0.0
  0
ARC
  5
43A5
  8
240
 10
-47.39999999999997
 20
-7.951758543626382
 30
0.0
 40
1.0
 50
180.0
 51
261.70266183940231
  0
LINE
  5
43A7
  8
240
 10
-48.399999999999977
 20
-7.951758543626382
 30
0.0
 11
-48.399999999999977
 21
-0.0000000000000711
 31
0.0
  0
LINE
  5
43AF
  8
241
 10
0.0
 20
-15.875000000000041
 30
0.0
 11
0.0000000000001137
 21
15.87499999999994
 31
0.0
1001
GRPNAME
1000
PASTMD03
  0
LINE
  5
43B0
  8
241
 10
1.0
 20
-15.87500000000008
 30
0.0
 11
1.0
 21
-0.0000000000000426
 31
0.0
1001
GRPNAME
1000
PASTMD03
  0
LINE
  5
43B1
  8
240
 10
1.0
 20
-22.500000000000039
 30
0.0
 11
1.0
 21
-15.87500000000008
 31
0.0
1001
GRPNAME
1000
PASTMD03
  0
ARC
  5
43B2
  8
240
 10
1.5
 20
-22.500000000000039
 30
0.0
 40
0.5
 50
179.99999999485411
 51
269.99999999485408
1001
GRPNAME
1000
PASTMD03
  0
LINE
  5
43BA
  8
240
 10
-47.544310229592952
 20
8.9412910381077495
 30
0.0
 11
0.0000000000001137
 21
15.87499999999994
 31
0.0
  0
ARC
  5
43BD
  8
240
 10
-47.39999999999997
 20
7.9517585436262257
 30
0.0
 40
1.0
 50
98.297338160597704
 51
180.0
  0
LINE
  5
43C0
  8
240
 10
1.0
 20
15.87499999999992
 30
0.0
 11
1.0
 21
22.49999999999994
 31
0.0
1001
GRPNAME
1000
PASTMD03
  0
ARC
  5
43C5
  8
240
 10
1.5
 20
22.49999999999994
 30
0.0
 40
0.5
 50
89.999999997427054
 51
179.99999999742701
1001
GRPNAME
1000
PASTMD03
  0
LINE
  5
43C6
  8
241
 10
22.000000000000028
 20
-22.749999999999972
 30
0.0
 11
22.0
 21
22.74999999999995
 31
0.0
1001
GRPNAME
1000
PASTMD03
  0
LINE
  5
43C7
  8
243
 10
19.0
 20
-16.30000000000005
 30
0.0
 11
19.0
 21
-23.000000000000039
 31
0.0
1001
GRPNAME
1000
PASTMD03
  0
LINE
  5
43C8
  8
243
 10
19.0
 20
16.299999999999951
 30
0.0
 11
19.0
 21
22.99999999999994
 31
0.0
1001
GRPNAME
1000
PASTMD03
  0
LINE
  5
43D0
  8
240
 10
21.750000000000259
 20
22.999999999999691
 30
0.0
 11
22.0
 21
22.74999999999995
 31
0.0
  0
LINE
  5
43D1
  8
240
 10
21.750000000000291
 20
-22.999999999999758
 30
0.0
 11
22.00000000000006
 21
-22.749999999999972
 31
0.0
  0
LINE
  5
43D7
  8
240
 10
93.999999999997556
 20
-14.5
 30
0.0
 11
94.499999999997556
 21
-15.0
 31
0.0
  0
LINE
  5
43D8
  8
240
 10
93.999999999997556
 20
14.49999999999994
 30
0.0
 11
94.499999999997556
 21
14.99999999999994
 31
0.0
  0
ARC
  5
43D9
  8
240
 10
90.499999999997556
 20
-14.00000000000003
 30
0.0
 40
1.0
 50
90.0
 51
180.0
  0
LINE
  5
43DA
  8
240
 10
90.499999999997556
 20
-13.00000000000003
 30
0.0
 11
93.999999999997556
 21
-13.00000000000003
 31
0.0
  0
ARC
  5
43DB
  8
240
 10
90.499999999997556
 20
13.99999999999997
 30
0.0
 40
1.0
 50
180.0
 51
270.0
  0
LINE
  5
43DC
  8
240
 10
90.499999999997556
 20
12.99999999999997
 30
0.0
 11
93.999999999997556
 21
12.99999999999997
 31
0.0
  0
LINE
  5
43DD
  8
240
 10
94.499999999997456
 20
16.69999999999996
 30
0.0
 11
94.499999999997456
 21
14.999999999999909
 31
0.0
  0
ARC
  5
43DE
  8
240
 10
95.299999999997496
 20
16.69999999999996
 30
0.0
 40
0.799999999999983
 50
90.0
 51
180.0
  0
LINE
  5
43DF
  8
240
 10
94.499999999997456
 20
-16.70000000000001
 30
0.0
 11
94.499999999997456
 21
-14.99999999999997
 31
0.0
  0
ARC
  5
43E0
  8
240
 10
95.299999999997496
 20
-16.70000000000001
 30
0.0
 40
0.8000000000000113
 50
180.0
 51
270.0
  0
LINE
  5
43E1
  8
240
 10
95.299999999997496
 20
17.49999999999994
 30
0.0
 11
108.41862915009899
 21
17.49999999999994
 31
0.0
  0
ARC
  5
43E2
  8
240
 10
108.41862915009899
 20
16.69999999999996
 30
0.0
 40
0.7999999999999984
 50
44.999999999999417
 51
90.0
  0
LINE
  5
43E3
  8
240
 10
95.299999999997496
 20
-17.500000000000028
 30
0.0
 11
108.41862915009899
 21
-17.50000000000006
 31
0.0
  0
ARC
  5
43E4
  8
240
 10
108.41862915009899
 20
-16.700000000000038
 30
0.0
 40
0.7999999999999972
 50
270.0
 51
314.99999999999829
  0
LINE
  5
43E5
  8
240
 10
109.7949747468281
 20
16.455025253169371
 30
0.0
 11
108.9843145750482
 21
17.26568542494919
 31
0.0
  0
ARC
  5
43E6
  8
240
 10
109.2999999999975
 20
15.960050506338771
 30
0.0
 40
0.7000000000000171
 50
0.0
 51
45.000000000001727
  0
LINE
  5
43E7
  8
240
 10
109.9999999999975
 20
15.960050506338771
 30
0.0
 11
109.9999999999975
 21
-15.96005050633886
 31
0.0
  0
LINE
  5
43E8
  8
240
 10
108.9843145750482
 20
-17.265685424949311
 30
0.0
 11
109.7949747468281
 21
-16.455025253169449
 31
0.0
  0
ARC
  5
43E9
  8
240
 10
109.2999999999975
 20
-15.96005050633886
 30
0.0
 40
0.7000000000000137
 50
315.00000000000063
 51
0.0
  0
LINE
  5
43EA
  8
240
 10
93.999999999997556
 20
-14.5
 30
0.0
 11
93.999999999997556
 21
-13.00000000000003
 31
0.0
  0
LINE
  5
43EB
  8
240
 10
93.999999999997556
 20
14.49999999999994
 30
0.0
 11
93.999999999997556
 21
12.99999999999997
 31
0.0
  0
LINE
  5
43EC
  8
241
 10
94.499999999997456
 20
14.999999999999909
 30
0.0
 11
94.499999999997556
 21
-0.0000000000000284
 31
0.0
  0
LINE
  5
43ED
  8
241
 10
94.499999999997456
 20
-14.99999999999997
 30
0.0
 11
94.499999999997556
 21
0.0
 31
0.0
  0
LINE
  5
43EE
  8
241
 10
91.499999999997556
 20
12.49999999999997
 30
0.0
 11
91.499999999997556
 21
0.0
 31
0.0
  0
LINE
  5
43EF
  8
241
 10
91.499999999997556
 20
-12.50000000000003
 30
0.0
 11
91.499999999997556
 21
-0.0000000000000284
 31
0.0
  0
LINE
  5
43F0
  8
241
 10
95.299999999997496
 20
17.49999999999994
 30
0.0
 11
95.299999999997496
 21
16.056144924913522
 31
0.0
  0
LINE
  5
43F1
  8
241
 10
95.299999999997496
 20
14.05614492491355
 30
0.0
 11
95.299999999997496
 21
1.9999999999999429
 31
0.0
  0
LINE
  5
43F2
  8
241
 10
95.299999999997496
 20
-2.0
 30
0.0
 11
95.299999999997496
 21
-14.05614492491361
 31
0.0
  0
LINE
  5
43F3
  8
241
 10
95.299999999997496
 20
-16.056144924913578
 30
0.0
 11
95.299999999997496
 21
-17.500000000000028
 31
0.0
  0
LINE
  5
43F4
  8
241
 10
108.41862915009899
 20
17.000946073793699
 30
0.0
 11
108.41862915009899
 21
-17.152317880794719
 31
0.0
  0
LINE
  5
43F5
  8
241
 10
89.499999999997556
 20
13.99999999999997
 30
0.0
 11
89.499999999997556
 21
0.0
 31
0.0
  0
LINE
  5
43F6
  8
241
 10
89.499999999997556
 20
-14.00000000000003
 30
0.0
 11
89.499999999997556
 21
-0.0000000000000284
 31
0.0
  0
LINE
  5
43F7
  8
241
 10
93.999999999997556
 20
-13.00000000000003
 30
0.0
 11
93.999999999997556
 21
0.0
 31
0.0
  0
LINE
  5
43F8
  8
241
 10
93.999999999997556
 20
12.99999999999997
 30
0.0
 11
93.999999999997556
 21
-0.0000000000000284
 31
0.0
  0
LINE
  5
43F9
  8
241
 10
103.4999999999975
 20
1.9999999999999429
 30
0.0
 11
94.499999999997456
 21
1.9999999999999429
 31
0.0
  0
LINE
  5
43FA
  8
241
 10
103.4999999999975
 20
-2.0
 30
0.0
 11
94.499999999997456
 21
-2.0
 31
0.0
  0
LINE
  5
43FB
  8
241
 10
103.4999999999975
 20
1.9999999999999429
 30
0.0
 11
103.4999999999975
 21
-0.0000000000000284
 31
0.0
  0
LINE
  5
43FC
  8
241
 10
103.4999999999975
 20
-2.0
 30
0.0
 11
103.4999999999975
 21
0.0
 31
0.0
  0
LINE
  5
43FD
  8
241
 10
103.4999999999975
 20
-14.05614492491361
 30
0.0
 11
94.499999999997456
 21
-14.05614492491361
 31
0.0
  0
LINE
  5
43FE
  8
241
 10
103.4999999999975
 20
-16.056144924913578
 30
0.0
 11
94.499999999997456
 21
-16.056144924913578
 31
0.0
  0
LINE
  5
43FF
  8
241
 10
103.4999999999975
 20
-16.056144924913578
 30
0.0
 11
103.4999999999975
 21
-14.05614492491361
 31
0.0
  0
LINE
  5
4400
  8
241
 10
103.4999999999975
 20
16.056144924913522
 30
0.0
 11
94.499999999997456
 21
16.056144924913522
 31
0.0
  0
LINE
  5
4401
  8
241
 10
103.4999999999975
 20
14.05614492491355
 30
0.0
 11
94.499999999997456
 21
14.05614492491355
 31
0.0
  0
LINE
  5
4402
  8
241
 10
103.4999999999975
 20
16.056144924913522
 30
0.0
 11
103.4999999999975
 21
14.05614492491355
 31
0.0
  0
LINE
  5
4403
  8
242
 10
91.499999999997556
 20
12.49999999999997
 30
0.0
 11
90.999999999997556
 21
12.99999999999997
 31
0.0
  0
LINE
  5
4404
  8
242
 10
91.499999999997556
 20
-12.50000000000003
 30
0.0
 11
90.999999999997556
 21
-13.00000000000003
 31
0.0
  0
LINE
  5
4405
  8
242
 10
93.999999999997556
 20
12.49999999999997
 30
0.0
 11
91.499999999997556
 21
12.49999999999997
 31
0.0
  0
LINE
  5
4406
  8
242
 10
93.999999999997556
 20
-12.50000000000003
 30
0.0
 11
91.499999999997556
 21
-12.50000000000003
 31
0.0
  0
LINE
  5
4407
  8
246
 10
106.7999999999975
 20
10.24999999999997
 30
0.0
 11
106.9999999999975
 21
10.24999999999997
 31
0.0
  0
LINE
  5
4408
  8
246
 10
106.9999999999975
 20
10.24999999999997
 30
0.0
 11
109.9999999999975
 21
8.5179491924311037
 31
0.0
  0
LINE
  5
4409
  8
246
 10
104.3999999999975
 20
8.7499999999999716
 30
0.0
 11
106.7999999999975
 21
8.7499999999999716
 31
0.0
  0
LINE
  5
440A
  8
246
 10
106.7999999999975
 20
8.7499999999999716
 30
0.0
 11
106.7999999999975
 21
10.24999999999997
 31
0.0
  0
LINE
  5
440B
  8
246
 10
104.3999999999975
 20
10.24999999999997
 30
0.0
 11
104.3999999999975
 21
8.7499999999999716
 31
0.0
  0
LINE
  5
440C
  8
246
 10
104.3999999999975
 20
10.24999999999997
 30
0.0
 11
78.999999999997485
 21
7.5803524242517986
 31
0.0
  0
LINE
  5
440D
  8
246
 10
78.999999999997485
 20
6.5
 30
0.0
 11
109.9999999999975
 21
6.5
 31
0.0
  0
LINE
  5
440E
  8
246
 10
106.7999999999975
 20
-10.25000000000003
 30
0.0
 11
106.9999999999975
 21
-10.25000000000003
 31
0.0
  0
LINE
  5
440F
  8
246
 10
104.3999999999975
 20
-10.25000000000003
 30
0.0
 11
78.999999999997485
 21
-7.5803524242518563
 31
0.0
  0
LINE
  5
4410
  8
246
 10
104.3999999999975
 20
-10.25000000000003
 30
0.0
 11
104.3999999999975
 21
-8.7500000000000284
 31
0.0
  0
LINE
  5
4411
  8
246
 10
104.3999999999975
 20
-8.7500000000000284
 30
0.0
 11
106.7999999999975
 21
-8.7500000000000284
 31
0.0
  0
LINE
  5
4412
  8
246
 10
106.7999999999975
 20
-8.7500000000000284
 30
0.0
 11
106.7999999999975
 21
-10.25000000000003
 31
0.0
  0
LINE
  5
4413
  8
246
 10
106.9999999999975
 20
-10.25000000000003
 30
0.0
 11
109.9999999999975
 21
-8.5179491924311606
 31
0.0
  0
LINE
  5
4414
  8
246
 10
78.999999999997485
 20
-6.5000000000000284
 30
0.0
 11
109.9999999999975
 21
-6.5000000000000284
 31
0.0
  0
LINE
  5
4415
  8
243
 10
93.999999999997556
 20
-13.00000000000003
 30
0.0
 11
101.4999999999975
 21
-13.00000000000003
 31
0.0
  0
LINE
  5
4416
  8
243
 10
101.9999999999975
 20
-12.50000000000003
 30
0.0
 11
101.4999999999975
 21
-13.00000000000003
 31
0.0
  0
LINE
  5
4417
  8
243
 10
93.999999999997556
 20
12.99999999999997
 30
0.0
 11
101.4999999999975
 21
12.99999999999997
 31
0.0
  0
LINE
  5
4418
  8
243
 10
101.9999999999975
 20
12.49999999999997
 30
0.0
 11
101.4999999999975
 21
12.99999999999997
 31
0.0
  0
LINE
  5
441D
  8
246
 10
57.172919502844543
 20
6.0
 30
0.0
 11
53.482320579603019
 21
2.309401076758518
 31
0.0
  0
LINE
  5
441E
  8
246
 10
57.172919502844543
 20
-6.0000000000000284
 30
0.0
 11
53.482320579603019
 21
-2.3094010767585469
 31
0.0
  0
LINE
  5
441F
  8
246
 10
49.571636977080011
 20
-2.3094010767585469
 30
0.0
 11
53.482320579603019
 21
-2.3094010767585469
 31
0.0
  0
LINE
  5
4420
  8
246
 10
49.571636977080011
 20
-1.1547005383793021
 30
0.0
 11
53.482320579603019
 21
-1.1547005383793021
 31
0.0
  0
LINE
  5
4421
  8
246
 10
49.571636977080011
 20
1.154700538379273
 30
0.0
 11
53.482320579603019
 21
1.154700538379273
 31
0.0
  0
LINE
  5
4422
  8
246
 10
49.172919502844543
 20
3.0
 30
0.0
 11
49.172919502844543
 21
1.7725150303658661
 31
0.0
  0
LINE
  5
4423
  8
246
 10
49.571636977080011
 20
2.309401076758518
 30
0.0
 11
49.172919502844479
 21
3.0
 31
0.0
  0
LINE
  5
4424
  8
246
 10
49.571636977080011
 20
-2.3094010767585469
 30
0.0
 11
49.172919502844479
 21
-3.000000000000028
 31
0.0
  0
LINE
  5
4425
  8
246
 10
49.172919502844543
 20
-3.000000000000028
 30
0.0
 11
49.172919502844543
 21
-1.772515030365923
 31
0.0
  0
LINE
  5
4426
  8
246
 10
38.172919502844543
 20
-6.2500000000000284
 30
0.0
 11
42.172919502844543
 21
-6.2500000000000284
 31
0.0
  0
LINE
  5
4427
  8
246
 10
42.172919502844543
 20
-6.2500000000000284
 30
0.0
 11
42.922919502844529
 21
-7.0000000000000284
 31
0.0
  0
ARC
  5
4428
  8
246
 10
38.172919502844543
 20
5.25
 30
0.0
 40
1.0
 50
90.0
 51
180.0
  0
LINE
  5
4429
  8
246
 10
38.172919502844543
 20
6.25
 30
0.0
 11
42.172919502844543
 21
6.25
 31
0.0
  0
LINE
  5
442A
  8
246
 10
42.172919502844543
 20
6.25
 30
0.0
 11
42.922919502844529
 21
7.0
 31
0.0
  0
LINE
  5
442D
  8
243
 10
34.999999999997563
 20
-7.0000000000000284
 30
0.0
 11
34.999999999997563
 21
7.0
 31
0.0
  0
LINE
  5
442E
  8
246
 10
49.571636977080011
 20
-2.3094010767585469
 30
0.0
 11
49.571636977080011
 21
2.309401076758518
 31
0.0
  0
LINE
  5
442F
  8
246
 10
49.571636977080011
 20
2.309401076758518
 30
0.0
 11
53.482320579603019
 21
2.309401076758518
 31
0.0
  0
LINE
  5
4430
  8
246
 10
53.482320579603019
 20
-2.3094010767585469
 30
0.0
 11
53.482320579603019
 21
2.309401076758518
 31
0.0
  0
LINE
  5
4432
  8
246
 10
78.999999999997485
 20
7.5803524242517986
 30
0.0
 11
78.999999999997485
 21
-7.5803524242518563
 31
0.0
  0
LINE
  5
4435
  8
246
 10
56.472919502844491
 20
-7.0000000000000284
 30
0.0
 11
57.172919502844472
 21
-6.3000000000000389
 31
0.0
  0
LINE
  5
4436
  8
246
 10
57.172919502844472
 20
6.2999999999999821
 30
0.0
 11
57.172919502844472
 21
-6.3000000000000389
 31
0.0
  0
LINE
  5
4437
  8
246
 10
57.172919502844472
 20
6.2999999999999821
 30
0.0
 11
56.472919502844491
 21
7.0
 31
0.0
  0
LINE
  5
4438
  8
246
 10
37.172919502844543
 20
-5.2500000000000284
 30
0.0
 11
37.172919502844543
 21
5.25
 31
0.0
  0
ARC
  5
4439
  8
246
 10
38.172919502844543
 20
-5.2500000000000284
 30
0.0
 40
1.0
 50
180.0
 51
270.0
  0
LINE
  5
443A
  8
246
 10
49.172919502844543
 20
3.0
 30
0.0
 11
37.172919502844543
 21
3.0
 31
0.0
  0
LINE
  5
443B
  8
246
 10
49.172919502844543
 20
-3.000000000000028
 30
0.0
 11
37.172919502844543
 21
-3.000000000000028
 31
0.0
  0
LINE
  5
443C
  8
246
 10
42.922919502844529
 20
7.0
 30
0.0
 11
56.472919502844491
 21
7.0
 31
0.0
  0
LINE
  5
443E
  8
246
 10
42.922919502844529
 20
-7.0000000000000284
 30
0.0
 11
56.472919502844491
 21
-7.0000000000000284
 31
0.0
  0
LINE
  5
4440
  8
243
 10
101.9999999999975
 20
-12.50000000000003
 30
0.0
 11
101.9999999999975
 21
-9.9977498353624128
 31
0.0
  0
LINE
  5
4441
  8
243
 10
101.9999999999975
 20
12.49999999999997
 30
0.0
 11
101.9999999999975
 21
9.9977498353623542
 31
0.0
  0
LINE
  5
4442
  8
244
 10
93.999999999997556
 20
12.49999999999997
 30
0.0
 11
101.9999999999975
 21
12.49999999999997
 31
0.0
  0
LINE
  5
4443
  8
244
 10
93.999999999997556
 20
-12.50000000000003
 30
0.0
 11
101.9999999999975
 21
-12.50000000000003
 31
0.0
  0
LINE
  5
4448
  8
246
 10
42.572919502844513
 20
6.6499999999999773
 30
0.0
 11
56.822919502844513
 21
6.6499999999999773
 31
0.0
  0
LINE
  5
444A
  8
246
 10
42.572919502844513
 20
-6.6500000000000341
 30
0.0
 11
56.822919502844513
 21
-6.6500000000000341
 31
0.0
  0
LINE
  5
444C
  8
240
 10
89.499999999997613
 20
14.250000000000229
 30
0.0
 11
89.499999999997613
 21
14.000000000000229
 31
0.0
  0
ARC
  5
444D
  8
240
 10
88.499999999997613
 20
14.250000000000229
 30
0.0
 40
1.0
 50
0.0
 51
90.0
1001
GENIUS_GENODEF_13
1002
{
1000
HIER
1070
     0
1002
}
1002
{
1000
MANEDIT
1070
     0
1002
}
1002
{
1000
NOSEL
1070
     0
1002
}
1002
{
1000
BEHIND
1070
     0
1002
}
1002
{
1000
OTHER
1070
     0
1002
}
1002
{
1000
REACTOR
1002
}
1001
GENIUS_GENOBJ-N-FIL_13
1002
{
1000
OWNER
1000
GEN
1002
}
  0
LINE
  5
444E
  8
240
 10
89.499999999997613
 20
-14.249999999999771
 30
0.0
 11
89.499999999997613
 21
-13.999999999999799
 31
0.0
  0
ARC
  5
444F
  8
240
 10
88.499999999997613
 20
-14.249999999999771
 30
0.0
 40
1.0
 50
270.0
 51
0.0
1001
GENIUS_GENODEF_13
1002
{
1000
HIER
1070
     0
1002
}
1002
{
1000
MANEDIT
1070
     0
1002
}
1002
{
1000
NOSEL
1070
     0
1002
}
1002
{
1000
BEHIND
1070
     0
1002
}
1002
{
1000
OTHER
1070
     0
1002
}
1002
{
1000
REACTOR
1002
}
1001
GENIUS_GENOBJ-N-FIL_13
1002
{
1000
OWNER
1000
GEN
1002
}
  0
LINE
  5
4450
  8
241
 10
88.499999999997613
 20
15.250000000000229
 30
0.0
 11
88.499999999997613
 21
11.79823369687602
 31
0.0
  0
LINE
  5
4451
  8
241
 10
88.499999999997613
 20
-12.023412486272941
 30
0.0
 11
88.499999999997613
 21
-15.249999999999771
 31
0.0
  0
LINE
  5
4579
  8
250
 10
-45.49824161194681
 20
-27.782263580736359
 30
0.0
 11
-28.934085922836339
 21
-27.782263580736359
 31
0.0
  0
LINE
  5
457A
  8
250
 10
-28.934085922836339
 20
-27.782263580736359
 30
0.0
 11
-16.52834420089048
 21
-15.37652185879049
 31
0.0
  0
LINE
  5
457B
  8
250
 10
-16.52834420089048
 20
-15.37652185879049
 30
0.0
 11
-14.95149607884448
 21
-13.79967373674449
 31
0.0
  0
LINE
  5
457C
  8
250
 10
-16.320748208233361
 20
-15.584117851447621
 30
0.0
 11
-14.95149607884448
 21
-13.79967373674449
 31
0.0
  0
LINE
  5
457D
  8
250
 10
-14.95149607884448
 20
-13.79967373674449
 30
0.0
 11
-16.735940193547599
 21
-15.168925866133369
 31
0.0
  0
TEXT
  5
457E
  8
250
 10
-46.35698007045827
 20
-26.38226358073635
 30
0.0
 40
2.799999999999998
  1
 BBT30
  7
ACJISTS
  0
TEXT
  5
457F
  8
241
 10
-63.0
 20
62.999999999999957
 30
0.0
 40
5.0
  1
BBT30-NBS13-110NRA
  7
YOKO
 11
-63.0
 21
62.999999999999957
 31
0.0
 73
     1
  0
LINE
  5
4580
  8
240
 10
0.0
 20
15.87499999999992
 30
0.0
 11
1.0
 21
15.87499999999992
 31
0.0
  0
LINE
  5
4581
  8
240
 10
0.0
 20
-15.87500000000008
 30
0.0
 11
1.0
 21
-15.87500000000008
 31
0.0
  0
LINE
  5
45A5
  8
250
 10
0.0000000000001137
 20
16.37499999999994
 30
0.0
 11
0.0000000000001153
 21
43.0
 31
0.0
  0
LINE
  5
45A6
  8
250
 10
75.499999999997158
 20
23.17157287525384
 30
0.0
 11
75.499999999997158
 21
43.0
 31
0.0
  0
LINE
  5
45A7
  8
250
 10
2.230000000000115
 20
42.0
 30
0.0
 11
73.269999999997154
 21
42.0
 31
0.0
  0
LINE
  5
45AC
  8
250
 10
75.499999999997158
 20
23.17157287525384
 30
0.0
 11
75.499999999997158
 21
43.005225367248229
 31
0.0
  0
LINE
  5
45AD
  8
250
 10
109.9999999999975
 20
16.46005050633882
 30
0.0
 11
109.9999999999975
 21
43.005225367248229
 31
0.0
  0
LINE
  5
45AE
  8
250
 10
77.729999999997162
 20
42.005225367248237
 30
0.0
 11
107.76999999999749
 21
42.005225367248237
 31
0.0
  0
LINE
  5
45B2
  8
250
 10
0.0000000000000042
 20
17.475916374166701
 30
0.0
 11
0.0000000000000062
 21
49.687822173509552
 31
0.0
  0
LINE
  5
45B3
  8
250
 10
109.9999999999975
 20
16.46005050633882
 30
0.0
 11
109.9999999999975
 21
49.687822173509552
 31
0.0
  0
LINE
  5
45B4
  8
250
 10
2.2300000000000062
 20
48.687822173509538
 30
0.0
 11
107.76999999999749
 21
48.687822173509538
 31
0.0
  0
LINE
  5
45B8
  8
250
 10
123.9999999999975
 20
-4.2700000000000324
 30
0.0
 11
123.9999999999975
 21
4.2699999999999951
 31
0.0
  0
LINE
  5
45BC
  8
250
 10
108.91862915009899
 20
-17.50000000000006
 30
0.0
 11
131.9999999999975
 21
-17.50000000000006
 31
0.0
  0
LINE
  5
45BD
  8
250
 10
108.91862915009899
 20
17.499999999999972
 30
0.0
 11
131.9999999999975
 21
17.499999999999972
 31
0.0
  0
LINE
  5
45BE
  8
250
 10
130.9999999999975
 20
-15.27000000000006
 30
0.0
 11
130.9999999999975
 21
15.269999999999969
 31
0.0
  0
LINE
  5
45C2
  8
250
 10
57.172919502844543
 20
-6.5000000000000249
 30
0.0
 11
57.172919502844543
 21
-42.999999999999979
 31
0.0
  0
LINE
  5
45C3
  8
250
 10
109.9999999999975
 20
-16.46005050633881
 30
0.0
 11
109.9999999999975
 21
-42.999999999999979
 31
0.0
  0
LINE
  5
45C4
  8
250
 10
59.40291950284454
 20
-41.999999999999979
 30
0.0
 11
107.76999999999749
 21
-41.999999999999979
 31
0.0
  0
TEXT
  5
45C8
  8
250
 10
122.9999999999975
 20
-9.4285714285714217
 30
0.0
 40
3.0
  1
MAX.\U+220513
 50
90.0
  0
LINE
  5
45C9
  8
250
 10
123.6283333333308
 20
4.269999999999996
 30
0.0
 11
123.9999999999975
 21
6.4999999999999947
 31
0.0
  0
LINE
  5
45CA
  8
250
 10
124.3716666666642
 20
4.269999999999996
 30
0.0
 11
123.9999999999975
 21
6.4999999999999947
 31
0.0
  0
LINE
  5
45CB
  8
250
 10
123.9999999999975
 20
6.4999999999999947
 30
0.0
 11
123.9999999999975
 21
4.269999999999996
 31
0.0
  0
LINE
  5
45CC
  8
250
 10
124.3716666666642
 20
-4.2700000000000333
 30
0.0
 11
123.9999999999975
 21
-6.500000000000032
 31
0.0
  0
LINE
  5
45CD
  8
250
 10
123.6283333333308
 20
-4.2700000000000333
 30
0.0
 11
123.9999999999975
 21
-6.500000000000032
 31
0.0
  0
LINE
  5
45CE
  8
250
 10
123.9999999999975
 20
-6.500000000000032
 30
0.0
 11
123.9999999999975
 21
-4.2700000000000333
 31
0.0
  0
TEXT
  5
45CF
  8
250
 10
129.9999999999975
 20
-4.2142857142857402
 30
0.0
 40
3.0
  1
\U+220535
 50
90.0
  0
LINE
  5
45D0
  8
250
 10
130.62833333333089
 20
15.269999999999969
 30
0.0
 11
130.9999999999975
 21
17.499999999999972
 31
0.0
  0
LINE
  5
45D1
  8
250
 10
131.3716666666642
 20
15.269999999999969
 30
0.0
 11
130.9999999999975
 21
17.499999999999972
 31
0.0
  0
LINE
  5
45D2
  8
250
 10
130.9999999999975
 20
17.499999999999972
 30
0.0
 11
130.9999999999975
 21
15.269999999999969
 31
0.0
  0
LINE
  5
45D3
  8
250
 10
131.3716666666642
 20
-15.27000000000006
 30
0.0
 11
130.9999999999975
 21
-17.50000000000006
 31
0.0
  0
LINE
  5
45D4
  8
250
 10
130.62833333333089
 20
-15.27000000000006
 30
0.0
 11
130.9999999999975
 21
-17.50000000000006
 31
0.0
  0
LINE
  5
45D5
  8
250
 10
130.9999999999975
 20
-17.50000000000006
 30
0.0
 11
130.9999999999975
 21
-15.27000000000006
 31
0.0
  0
TEXT
  5
45D6
  8
250
 10
33.083333333331971
 20
43.0
 30
0.0
 40
2.7999999999999989
  1
75.5
  0
LINE
  5
45D7
  8
250
 10
73.269999999997154
 20
42.371666666666663
 30
0.0
 11
75.499999999997158
 21
42.0
 31
0.0
  0
LINE
  5
45D8
  8
250
 10
73.269999999997154
 20
41.62833333333333
 30
0.0
 11
75.499999999997158
 21
42.0
 31
0.0
  0
LINE
  5
45D9
  8
250
 10
75.499999999997158
 20
42.0
 30
0.0
 11
73.269999999997154
 21
42.0
 31
0.0
  0
LINE
  5
45DA
  8
250
 10
2.230000000000115
 20
41.62833333333333
 30
0.0
 11
0.0000000000001153
 21
42.0
 31
0.0
  0
LINE
  5
45DB
  8
250
 10
2.230000000000115
 20
42.371666666666663
 30
0.0
 11
0.0000000000001153
 21
42.0
 31
0.0
  0
LINE
  5
45DC
  8
250
 10
0.0000000000001153
 20
42.0
 30
0.0
 11
2.230000000000115
 21
42.0
 31
0.0
  0
TEXT
  5
45DD
  8
250
 10
88.083333333330685
 20
43.005225367248229
 30
0.0
 40
2.7999999999999989
  1
34.5
  0
LINE
  5
45DE
  8
250
 10
107.76999999999749
 20
42.376892033914899
 30
0.0
 11
109.9999999999975
 21
42.005225367248237
 31
0.0
  0
LINE
  5
45DF
  8
250
 10
107.76999999999749
 20
41.633558700581567
 30
0.0
 11
109.9999999999975
 21
42.005225367248237
 31
0.0
  0
LINE
  5
45E0
  8
250
 10
109.9999999999975
 20
42.005225367248237
 30
0.0
 11
107.76999999999749
 21
42.005225367248237
 31
0.0
  0
LINE
  5
45E1
  8
250
 10
77.729999999997162
 20
41.633558700581567
 30
0.0
 11
75.499999999997158
 21
42.005225367248237
 31
0.0
  0
LINE
  5
45E2
  8
250
 10
77.729999999997162
 20
42.376892033914899
 30
0.0
 11
75.499999999997158
 21
42.005225367248237
 31
0.0
  0
LINE
  5
45E3
  8
250
 10
75.499999999997158
 20
42.005225367248237
 30
0.0
 11
77.729999999997162
 21
42.005225367248237
 31
0.0
  0
TEXT
  5
45E4
  8
250
 10
50.799999999998782
 20
49.687822173509552
 30
0.0
 40
2.7999999999999989
  1
110
  0
LINE
  5
45E5
  8
250
 10
107.76999999999749
 20
49.059488840176222
 30
0.0
 11
109.9999999999975
 21
48.687822173509538
 31
0.0
  0
LINE
  5
45E6
  8
250
 10
107.76999999999749
 20
48.316155506842868
 30
0.0
 11
109.9999999999975
 21
48.687822173509538
 31
0.0
  0
LINE
  5
45E7
  8
250
 10
109.9999999999975
 20
48.687822173509538
 30
0.0
 11
107.76999999999749
 21
48.687822173509538
 31
0.0
  0
LINE
  5
45E8
  8
250
 10
2.2300000000000062
 20
48.316155506842868
 30
0.0
 11
0.0000000000000061
 21
48.687822173509538
 31
0.0
  0
LINE
  5
45E9
  8
250
 10
2.2300000000000062
 20
49.059488840176222
 30
0.0
 11
0.0000000000000061
 21
48.687822173509538
 31
0.0
  0
LINE
  5
45EA
  8
250
 10
0.0000000000000061
 20
48.687822173509538
 30
0.0
 11
2.2300000000000062
 21
48.687822173509538
 31
0.0
  0
TEXT
  5
45EB
  8
250
 10
76.072174037135326
 20
-40.999999999999979
 30
0.0
 40
3.0
  1
41ü`60
  0
LINE
  5
45EC
  8
250
 10
107.76999999999749
 20
-41.628333333333309
 30
0.0
 11
109.9999999999975
 21
-41.999999999999979
 31
0.0
  0
LINE
  5
45ED
  8
250
 10
107.76999999999749
 20
-42.371666666666663
 30
0.0
 11
109.9999999999975
 21
-41.999999999999979
 31
0.0
  0
LINE
  5
45EE
  8
250
 10
109.9999999999975
 20
-41.999999999999979
 30
0.0
 11
107.76999999999749
 21
-41.999999999999979
 31
0.0
  0
LINE
  5
45EF
  8
250
 10
59.40291950284454
 20
-42.371666666666663
 30
0.0
 11
57.172919502844543
 21
-41.999999999999979
 31
0.0
  0
LINE
  5
45F0
  8
250
 10
59.40291950284454
 20
-41.628333333333309
 30
0.0
 11
57.172919502844543
 21
-41.999999999999979
 31
0.0
  0
LINE
  5
45F1
  8
250
 10
57.172919502844543
 20
-41.999999999999979
 30
0.0
 11
59.40291950284454
 21
-41.999999999999979
 31
0.0
  0
LINE
  5
45F2
  8
241
 10
47.499999999997613
 20
-28.249999999999812
 30
0.0
 11
47.499999999997499
 21
0.0000000000001563
 31
0.0
  0
LINE
  5
45F3
  8
241
 10
75.999999999995566
 20
-15.24999999999979
 30
0.0
 11
75.999999999995566
 21
15.250000000000121
 31
0.0
  0
LINE
  5
45F4
  8
240
  6
CONTINUOUS
 10
75.499999999997158
 20
-15.49999999999984
 30
0.0
 11
75.749999999995453
 21
-15.49999999999981
 31
0.0
  0
LINE
  5
45F5
  8
240
 10
75.999999999995566
 20
-15.24999999999979
 30
0.0
 11
75.749999999995566
 21
-15.49999999999978
 31
0.0
  0
LINE
  5
45F6
  8
241
  6
CONTINUOUS
 10
58.499999999997208
 20
0.0000000000000426
 30
0.0
 11
58.49999999999693
 21
-28.499999999999929
 31
0.0
  0
ARC
  5
45F7
  8
240
 10
57.99999999999693
 20
-28.499999999999929
 30
0.0
 40
0.5
 50
270.0
 51
0.0
1001
GENIUS_GENODEF_13
1002
{
1000
HIER
1070
     0
1002
}
1002
{
1000
MANEDIT
1070
     0
1002
}
1002
{
1000
NOSEL
1070
     0
1002
}
1002
{
1000
BEHIND
1070
     0
1002
}
1002
{
1000
OTHER
1070
     0
1002
}
1002
{
1000
REACTOR
1002
}
1001
GENIUS_GENOBJ-N-FIL_13
1002
{
1000
OWNER
1000
GEN
1002
}
  0
LINE
  5
45F8
  8
240
 10
57.999999999997549
 20
29.000000000000039
 30
0.0
 11
58.499999999997563
 21
28.500000000000039
 31
0.0
1001
GENIUS_GENFIL_13
1070
     0
1040
0.5
1040
0.5
1040
0.2500000000000284
1040
45.00000000000162
1002
{
1002
}
1001
GENIUS_GENODEF_13
1002
{
1000
HIER
1070
     0
1002
}
1002
{
1000
MANEDIT
1070
     0
1002
}
1002
{
1000
NOSEL
1070
     0
1002
}
1002
{
1000
BEHIND
1070
     0
1002
}
1002
{
1000
OTHER
1070
     0
1002
}
1002
{
1000
REACTOR
1002
}
1001
GENIUS_GENOBJ-N-CHA_13
1002
{
1000
OWNER
1000
GEN
1002
}
  0
LINE
  5
45F9
  8
240
 10
47.999999999997549
 20
29.000000000000039
 30
0.0
 11
57.499999999997549
 21
29.000000000000039
 31
0.0
  0
LINE
  5
45FA
  8
240
 10
47.999999999997549
 20
29.000000000000039
 30
0.0
 11
57.999999999997549
 21
29.000000000000039
 31
0.0
  0
LINE
  5
45FB
  8
240
 10
47.499999999997449
 20
28.49999999999994
 30
0.0
 11
47.999999999997549
 21
29.000000000000039
 31
0.0
1001
GENIUS_GENFIL_13
1070
     0
1040
0.5
1040
0.5
1040
0.2500000000000284
1040
45.00000000000162
1002
{
1002
}
1001
GENIUS_GENOBJ-N-CHA_13
1002
{
1000
OWNER
1000
GEN
1002
}
1001
GENIUS_GENODEF_13
1002
{
1000
HIER
1070
     0
1002
}
1002
{
1000
MANEDIT
1070
     0
1002
}
1002
{
1000
NOSEL
1070
     0
1002
}
1002
{
1000
BEHIND
1070
     0
1002
}
1002
{
1000
OTHER
1070
     0
1002
}
1002
{
1000
REACTOR
1002
}
  0
LINE
  5
45FC
  8
241
  6
CONTINUOUS
 10
47.499999999997371
 20
28.499999999999869
 30
0.0
 11
47.499999999997613
 21
-28.499999999999961
 31
0.0
  0
LINE
  5
45FD
  8
240
 10
47.999999999997549
 20
-28.999999999999929
 30
0.0
 11
57.499999999997549
 21
-28.999999999999929
 31
0.0
  0
LINE
  5
45FE
  8
240
 10
47.999999999997549
 20
-28.999999999999929
 30
0.0
 11
57.99999999999693
 21
-28.999999999999929
 31
0.0
  0
LINE
  5
45FF
  8
240
 10
47.499999999997648
 20
-28.500000000000028
 30
0.0
 11
47.999999999997549
 21
-28.999999999999929
 31
0.0
1001
GENIUS_GENFIL_13
1070
     0
1040
0.4999999999999858
1040
0.5000000000000285
1040
0.4999999999999858
1040
45.00000000000081
1002
{
1002
}
1001
GENIUS_GENOREF_13
1005
0
  0
LINE
  5
4600
  8
241
 10
58.499999999997158
 20
-4.4716781469930558
 30
0.0
 11
47.499999999997499
 21
-4.4716781469930558
 31
0.0
  0
LINE
  5
4601
  8
241
 10
47.499999999997549
 20
-10.453997634198981
 30
0.0
 11
58.499999999997101
 21
-10.453997634198981
 31
0.0
  0
LINE
  5
4602
  8
241
 10
58.499999999997037
 20
-18.199171379886781
 30
0.0
 11
47.499999999997549
 21
-18.199171379886781
 31
0.0
  0
LINE
  5
4603
  8
241
 10
47.499999999997549
 20
-22.578533191629429
 30
0.0
 11
58.49999999999693
 21
-22.578533191629429
 31
0.0
  0
LINE
  5
4604
  8
241
 10
58.49999999999693
 20
-27.050211338623161
 30
0.0
 11
47.499999999997613
 21
-27.050211338623161
 31
0.0
  0
LINE
  5
4605
  8
241
 10
50.899999999997469
 20
24.366025403784231
 30
0.0
 11
50.899999999997419
 21
22.633974596215371
 31
0.0
  0
LINE
  5
4606
  8
241
 10
50.899999999997419
 20
22.633974596215371
 30
0.0
 11
52.399999999997469
 21
21.767949192430919
 31
0.0
  0
LINE
  5
4607
  8
241
 10
52.399999999997469
 20
21.767949192430919
 30
0.0
 11
53.899999999997419
 21
22.633974596215371
 31
0.0
  0
LINE
  5
4608
  8
241
 10
53.899999999997419
 20
22.633974596215371
 30
0.0
 11
53.899999999997483
 21
24.366025403784231
 31
0.0
  0
LINE
  5
4609
  8
241
 10
53.899999999997483
 20
24.366025403784231
 30
0.0
 11
52.399999999997419
 21
25.232050807568712
 31
0.0
  0
LINE
  5
460A
  8
241
 10
52.399999999997419
 20
25.232050807568712
 30
0.0
 11
50.899999999997469
 21
24.366025403784231
 31
0.0
  0
LINE
  5
460B
  8
241
 10
58.999999999997158
 20
-2.48393866830834
 30
0.0
 11
60.999999999997158
 21
-2.48393866830834
 31
0.0
  0
LINE
  5
460C
  8
241
 10
58.999999999997158
 20
-4.9489730635076077
 30
0.0
 11
61.999999999997151
 21
-4.9489730635076077
 31
0.0
  0
LINE
  5
460D
  8
241
 10
58.999999999997158
 20
-7.3763427854219819
 30
0.0
 11
60.999999999997158
 21
-7.3763427854219819
 31
0.0
  0
LINE
  5
460E
  8
241
 10
58.999999999997158
 20
-9.7475740847816752
 30
0.0
 11
61.999999999997151
 21
-9.7475740847816752
 31
0.0
  0
LINE
  5
460F
  8
241
 10
58.999999999997158
 20
-11.998787042390839
 30
0.0
 11
60.999999999997158
 21
-11.998787042390839
 31
0.0
  0
LINE
  5
4610
  8
241
 10
58.999999999997158
 20
-14.250000000000099
 30
0.0
 11
61.999999999997151
 21
-14.250000000000099
 31
0.0
  0
LINE
  5
4611
  8
241
 10
58.999999999997158
 20
-16.28472343803325
 30
0.0
 11
60.999999999997158
 21
-16.28472343803325
 31
0.0
  0
LINE
  5
4612
  8
241
 10
58.999999999997158
 20
-18.180290095256041
 30
0.0
 11
61.999999999997101
 21
-18.180290095256041
 31
0.0
  0
LINE
  5
4613
  8
241
 10
58.999999999997101
 20
-19.923358065341159
 30
0.0
 11
60.999999999997101
 21
-19.923358065341159
 31
0.0
  0
LINE
  5
4614
  8
241
 10
58.999999999997101
 20
-21.83226662889091
 30
0.0
 11
61.999999999997101
 21
-21.83226662889091
 31
0.0
  0
LINE
  5
4615
  8
241
 10
58.999999999997037
 20
-23.345833262236329
 30
0.0
 11
60.999999999997101
 21
-23.345833262236329
 31
0.0
  0
LINE
  5
4616
  8
241
 10
58.999999999997037
 20
-24.68172400785658
 30
0.0
 11
61.999999999997037
 21
-24.68172400785658
 31
0.0
  0
LINE
  5
4617
  8
241
 10
58.999999999997037
 20
-25.829771930544599
 30
0.0
 11
60.999999999997037
 21
-25.829771930544599
 31
0.0
  0
LINE
  5
4618
  8
241
 10
58.999999999997037
 20
-26.67932898989157
 30
0.0
 11
61.999999999997037
 21
-26.67932898989157
 31
0.0
  0
LINE
  5
4619
  8
241
 10
58.999999999997037
 20
-27.31977323115909
 30
0.0
 11
60.999999999997037
 21
-27.31977323115909
 31
0.0
  0
LINE
  5
461A
  8
241
 10
58.999999999997037
 20
-28.067020960848009
 30
0.0
 11
61.999999999997037
 21
-28.067020960848009
 31
0.0
  0
LINE
  5
461B
  8
241
 10
58.999999999997158
 20
-0.0000000000000711
 30
0.0
 11
61.999999999997151
 21
0.0000000000000426
 31
0.0
  0
LINE
  5
461C
  8
241
  6
CONTINUOUS
 10
58.499999999997208
 20
28.50000000000033
 30
0.0
 11
58.499999999997037
 21
-28.249999999999499
 31
0.0
  0
LINE
  5
461D
  8
240
 10
58.749999999997272
 20
28.499999999999929
 30
0.0
 11
58.499999999997272
 21
28.249999999999929
 31
0.0
1001
GENIUS_GENFIL_13
1070
     0
1040
0.25
1040
0.25
1040
0.2500000000000284
1040
45.00000000000162
1002
{
1002
}
1001
GENIUS_GENODEF_13
1002
{
1000
HIER
1070
     0
1002
}
1002
{
1000
MANEDIT
1070
     0
1002
}
1002
{
1000
NOSEL
1070
     0
1002
}
1002
{
1000
BEHIND
1070
     0
1002
}
1002
{
1000
OTHER
1070
     0
1002
}
1002
{
1000
REACTOR
1002
}
1001
GENIUS_GENOBJ-N-CHA_13
1002
{
1000
OWNER
1000
GEN
1002
}
  0
LINE
  5
461E
  8
240
 10
75.499999999997158
 20
22.67157287525394
 30
0.0
 11
75.499999999997158
 21
15.499999999999959
 31
0.0
  0
LINE
  5
461F
  8
241
 10
75.499999999997186
 20
15.499999999999959
 30
0.0
 11
75.499999999997158
 21
-15.49999999999987
 31
0.0
  0
ARC
  5
4620
  8
240
 10
73.499999999997158
 20
22.67157287525394
 30
0.0
 40
2.0
 50
0.0
 51
45.000000000000057
1001
GENIUS_GENOBJ-N-FIL_13
1002
{
1000
OWNER
1000
GEN
1002
}
1001
GENIUS_GENODEF_13
1002
{
1000
HIER
1070
     0
1002
}
1002
{
1000
MANEDIT
1070
     0
1002
}
1002
{
1000
NOSEL
1070
     0
1002
}
1002
{
1000
BEHIND
1070
     0
1002
}
1002
{
1000
OTHER
1070
     0
1002
}
1002
{
1000
REACTOR
1002
}
  0
LINE
  5
4621
  8
240
 10
71.085786437624051
 20
27.914213562373259
 30
0.0
 11
74.914213562370264
 21
24.08578643762705
 31
0.0
1001
GENIUS_GENFIL_13
1070
     0
1040
5.0
1040
5.0
1040
0.2500000000000284
1040
45.00000000000162
1002
{
1002
}
1001
GENIUS_GENOBJ-N-CHA_13
1002
{
1000
OWNER
1000
GEN
1002
}
1001
GENIUS_GENODEF_13
1002
{
1000
HIER
1070
     0
1002
}
1002
{
1000
MANEDIT
1070
     0
1002
}
1002
{
1000
NOSEL
1070
     0
1002
}
1002
{
1000
BEHIND
1070
     0
1002
}
1002
{
1000
OTHER
1070
     0
1002
}
1002
{
1000
REACTOR
1002
}
  0
ARC
  5
4622
  8
240
 10
69.671572875250945
 20
26.50000000000016
 30
0.0
 40
2.0
 50
45.000000000000057
 51
90.000000000001606
1001
GENIUS_GENFIL_13
1070
     0
1040
5.0
1040
5.0
1040
0.2500000000000284
1040
45.00000000000162
1002
{
1002
}
1001
GENIUS_GENOBJ-N-CHA_13
1002
{
1000
OWNER
1000
GEN
1002
}
1001
GENIUS_GENODEF_13
1002
{
1000
HIER
1070
     0
1002
}
1002
{
1000
MANEDIT
1070
     0
1002
}
1002
{
1000
NOSEL
1070
     0
1002
}
1002
{
1000
BEHIND
1070
     0
1002
}
1002
{
1000
OTHER
1070
     0
1002
}
1002
{
1000
REACTOR
1002
}
1001
GENIUS_GENOBJ-N-FIL_13
1002
{
1000
OWNER
1000
GEN
1002
}
  0
LINE
  5
4623
  8
240
 10
58.749999999997272
 20
28.499999999999929
 30
0.0
 11
69.671572875250945
 21
28.500000000000149
 31
0.0
  0
LINE
  5
4624
  8
240
 10
58.749999999997272
 20
-28.499999999999758
 30
0.0
 11
58.499999999997272
 21
-28.249999999999758
 31
0.0
1001
GENIUS_GENFIL_13
1070
     0
1040
0.25
1040
0.25
1040
0.2500000000000284
1040
45.00000000000162
1002
{
1002
}
1001
GENIUS_GENODEF_13
1002
{
1000
HIER
1070
     0
1002
}
1002
{
1000
MANEDIT
1070
     0
1002
}
1002
{
1000
NOSEL
1070
     0
1002
}
1002
{
1000
BEHIND
1070
     0
1002
}
1002
{
1000
OTHER
1070
     0
1002
}
1002
{
1000
REACTOR
1002
}
1001
GENIUS_GENOBJ-N-CHA_13
1002
{
1000
OWNER
1000
GEN
1002
}
  0
LINE
  5
4625
  8
240
 10
75.499999999997158
 20
-22.671572875253862
 30
0.0
 11
75.499999999997215
 21
-15.49999999999984
 31
0.0
  0
ARC
  5
4626
  8
240
 10
73.499999999997158
 20
-22.671572875253862
 30
0.0
 40
2.0
 50
314.99999999999989
 51
0.0
1001
GENIUS_GENODEF_13
1002
{
1000
HIER
1070
     0
1002
}
1002
{
1000
MANEDIT
1070
     0
1002
}
1002
{
1000
NOSEL
1070
     0
1002
}
1002
{
1000
BEHIND
1070
     0
1002
}
1002
{
1000
OTHER
1070
     0
1002
}
1002
{
1000
REACTOR
1002
}
1001
GENIUS_GENOBJ-N-FIL_13
1002
{
1000
OWNER
1000
GEN
1002
}
  0
LINE
  5
4627
  8
240
 10
71.085786437624051
 20
-27.914213562373039
 30
0.0
 11
74.914213562370264
 21
-24.085786437626972
 31
0.0
1001
GENIUS_GENFIL_13
1070
     0
1040
5.0
1040
5.0
1040
0.2500000000000284
1040
45.00000000000162
1002
{
1002
}
1001
GENIUS_GENOBJ-N-CHA_13
1002
{
1000
OWNER
1000
GEN
1002
}
1001
GENIUS_GENODEF_13
1002
{
1000
HIER
1070
     0
1002
}
1002
{
1000
MANEDIT
1070
     0
1002
}
1002
{
1000
NOSEL
1070
     0
1002
}
1002
{
1000
BEHIND
1070
     0
1002
}
1002
{
1000
OTHER
1070
     0
1002
}
1002
{
1000
REACTOR
1002
}
  0
ARC
  5
4628
  8
240
 10
69.671572875251002
 20
-26.499999999999929
 30
0.0
 40
2.0
 50
269.99999999999841
 51
314.99999999999989
1001
GENIUS_GENFIL_13
1070
     0
1040
5.0
1040
5.0
1040
0.2500000000000284
1040
45.00000000000162
1002
{
1002
}
1001
GENIUS_GENOBJ-N-CHA_13
1002
{
1000
OWNER
1000
GEN
1002
}
1001
GENIUS_GENOBJ-N-FIL_13
1002
{
1000
OWNER
1000
GEN
1002
}
1001
GENIUS_GENODEF_13
1002
{
1000
HIER
1070
     0
1002
}
1002
{
1000
MANEDIT
1070
     0
1002
}
1002
{
1000
NOSEL
1070
     0
1002
}
1002
{
1000
BEHIND
1070
     0
1002
}
1002
{
1000
OTHER
1070
     0
1002
}
1002
{
1000
REACTOR
1002
}
  0
LINE
  5
4629
  8
240
 10
58.749999999997272
 20
-28.499999999999758
 30
0.0
 11
69.671572875250945
 21
-28.499999999999929
 31
0.0
  0
LINE
  5
462A
  8
241
 10
70.499999999997158
 20
-28.320359442248829
 30
0.0
 11
70.499999999997115
 21
28.32035944224906
 31
0.0
  0
LINE
  5
462B
  8
240
 10
88.499999999997556
 20
15.250000000000149
 30
0.0
 11
75.999999999995509
 21
15.250000000000099
 31
0.0
  0
LINE
  5
462C
  8
240
 10
88.499999999997556
 20
-15.24999999999984
 30
0.0
 11
75.999999999995566
 21
-15.24999999999984
 31
0.0
  0
CIRCLE
  5
462D
  8
241
 10
52.399999999997419
 20
23.499999999999812
 30
0.0
 40
3.5
  0
ARC
  5
462F
  8
241
 10
52.399999999997419
 20
23.499999999999758
 30
0.0
 40
3.75
 50
180.0
 51
0.0
  0
LINE
  5
4630
  8
241
 10
48.649999999997419
 20
27.249999999999758
 30
0.0
 11
48.649999999997419
 21
23.499999999999758
 31
0.0
  0
LINE
  5
4631
  8
241
 10
56.149999999997419
 20
27.249999999999758
 30
0.0
 11
56.149999999997419
 21
23.499999999999758
 31
0.0
  0
LINE
  5
4632
  8
241
 10
48.649999999997419
 20
27.249999999999758
 30
0.0
 11
56.149999999997419
 21
27.249999999999758
 31
0.0
  0
LINE
  5
4633
  8
240
  6
CONTINUOUS
 10
75.499999999997158
 20
15.499999999999959
 30
0.0
 11
75.749999999995453
 21
15.499999999999931
 31
0.0
  0
LINE
  5
4634
  8
240
 10
75.999999999995566
 20
15.249999999999901
 30
0.0
 11
75.749999999995566
 21
15.499999999999901
 31
0.0
  0
LINE
  5
4635
  8
241
 10
58.499999999997158
 20
4.471678146993141
 30
0.0
 11
47.499999999997499
 21
4.471678146993141
 31
0.0
  0
LINE
  5
4636
  8
241
 10
58.999999999997158
 20
2.4839386683084248
 30
0.0
 11
60.999999999997158
 21
2.4839386683084248
 31
0.0
  0
LINE
  5
4637
  8
241
 10
58.999999999997158
 20
4.9489730635076929
 30
0.0
 11
61.999999999997151
 21
4.9489730635076929
 31
0.0
  0
LINE
  5
4638
  8
241
 10
58.999999999997158
 20
7.376342785422068
 30
0.0
 11
60.999999999997158
 21
7.376342785422068
 31
0.0
  0
LINE
  5
4639
  8
241
 10
58.999999999997158
 20
9.7475740847817605
 30
0.0
 11
61.999999999997151
 21
9.7475740847817605
 31
0.0
  0
LINE
  5
463A
  8
241
 10
58.999999999997158
 20
11.99878704239093
 30
0.0
 11
60.999999999997158
 21
11.99878704239093
 31
0.0
  0
LINE
  5
463B
  8
241
 10
58.999999999997158
 20
14.250000000000179
 30
0.0
 11
61.999999999997151
 21
14.250000000000179
 31
0.0
  0
LINE
  5
463C
  8
241
 10
58.999999999997158
 20
16.284723438033339
 30
0.0
 11
60.999999999997158
 21
16.284723438033339
 31
0.0
  0
LINE
  5
463D
  8
241
 10
58.999999999997158
 20
18.180290095256119
 30
0.0
 11
61.999999999997101
 21
18.180290095256119
 31
0.0
  0
LINE
  5
463E
  8
241
 10
58.999999999997101
 20
19.923358065341251
 30
0.0
 11
60.999999999997101
 21
19.923358065341251
 31
0.0
  0
LINE
  5
463F
  8
241
 10
58.999999999997101
 20
21.832266628890991
 30
0.0
 11
61.999999999997101
 21
21.832266628890991
 31
0.0
  0
LINE
  5
4640
  8
241
 10
58.999999999997037
 20
23.345833262236411
 30
0.0
 11
60.999999999997101
 21
23.345833262236411
 31
0.0
  0
LINE
  5
4641
  8
241
 10
58.999999999997037
 20
24.681724007856658
 30
0.0
 11
61.999999999997037
 21
24.681724007856658
 31
0.0
  0
LINE
  5
4642
  8
241
 10
58.999999999997037
 20
25.82977193054468
 30
0.0
 11
60.999999999997037
 21
25.82977193054468
 31
0.0
  0
LINE
  5
4643
  8
241
 10
58.999999999997037
 20
26.679328989891658
 30
0.0
 11
61.999999999997037
 21
26.679328989891658
 31
0.0
  0
LINE
  5
4644
  8
241
 10
58.999999999997037
 20
27.319773231159179
 30
0.0
 11
60.999999999997037
 21
27.319773231159179
 31
0.0
  0
LINE
  5
4645
  8
241
 10
58.999999999997037
 20
28.067020960848101
 30
0.0
 11
61.999999999997037
 21
28.067020960848101
 31
0.0
  0
VIEWPORT
  5
22
 67
     1
  8
0
 10
261.51769911504419
 20
148.5
 30
0.0
 40
523.0353982300885
 41
297.0
 68
     1
 69
     1
1001
ACAD
1000
MVIEW
1002
{
1070
    16
1010
0.0
1020
0.0
1030
0.0
1010
0.0
1020
0.0
1030
1.0
1040
0.0
1040
297.0
1040
261.51769911504419
1040
148.5
1040
50.0
1040
0.0
1040
0.0
1070
     0
1070
   100
1070
     1
1070
     1
1070
     0
1070
     0
1070
     0
1070
     0
1040
0.0
1040
0.0
1040
0.0
1040
1.0
1040
1.0
1040
10.0
1040
10.0
1070
     0
1002
{
1002
}
1002
}
1001
GENIUS_GENODEF_13
1002
{
1000
HIER
1070
     0
1002
}
1002
{
1000
MANEDIT
1070
     0
1002
}
1002
{
1000
NOSEL
1070
     0
1002
}
1002
{
1000
BEHIND
1070
     0
1002
}
1002
{
1000
OTHER
1070
     0
1002
}
1002
{
1000
REACTOR
1002
}
1001
GENIUS_GENOBJ-N-SDF_13
1002
{
1000
OWNER
1000
GEN
1002
}
1001
GENIUS_GENSCREG_15
1000
PF
1040
1.0
1000
DF
1040
1.0
1000
MIN
1011
0.0
1021
0.0
1031
0.0
1021
0.0
1031
0.0
1000
MAX
1011
523.0353982300885
1021
0.0
1031
0.0
1021
297.0
1031
0.0
1000
FLAGS
1070
     4
  0
ENDSEC
  0
EOF
