  0
SECTION
  2
HEADER
  9
$ACADVER
  1
AC1009
  9
$INSBASE
 10
0.0
 20
0.0
 30
0.0
  9
$EXTMIN
 10
-62.058575475423822
 20
-36.00750675146412
 30
-0.0015258207003583
  9
$EXTMAX
 10
64.004743868302057
 20
68.00647013402363
 30
0.0000000349246037
  9
$LIMMIN
 10
0.0
 20
0.0
  9
$LIMMAX
 10
297.0
 20
210.0
  9
$ORTHOMODE
 70
     1
  9
$REGENMODE
 70
     1
  9
$FILLMODE
 70
     1
  9
$QTEXTMODE
 70
     0
  9
$MIRRTEXT
 70
     1
  9
$DRAGMODE
 70
     2
  9
$LTSCALE
 40
10.0
  9
$OSMODE
 70
  2597
  9
$ATTMODE
 70
     1
  9
$TEXTSIZE
 40
3.0
  9
$TRACEWID
 40
1.0
  9
$TEXTSTYLE
  7
YOKO
  9
$CLAYER
  8
240
  9
$CELTYPE
  6
BYLAYER
  9
$CECOLOR
 62
   256
  9
$DIMSCALE
 40
1.0
  9
$DIMASZ
 40
2.2299999999999991
  9
$DIMEXO
 40
0.5
  9
$DIMDLI
 40
2.5
  9
$DIMRND
 40
0.0
  9
$DIMDLE
 40
0.0
  9
$DIMEXE
 40
1.0
  9
$DIMTP
 40
0.0
  9
$DIMTM
 40
0.0
  9
$DIMTXT
 40
3.0
  9
$DIMCEN
 40
0.0
  9
$DIMTSZ
 40
0.0
  9
$DIMTOL
 70
     0
  9
$DIMLIM
 70
     0
  9
$DIMTIH
 70
     0
  9
$DIMTOH
 70
     0
  9
$DIMSE1
 70
     0
  9
$DIMSE2
 70
     0
  9
$DIMTAD
 70
     3
  9
$DIMZIN
 70
     8
  9
$DIMBLK
  1
OPEN
  9
$DIMASO
 70
     1
  9
$DIMSHO
 70
     1
  9
$DIMPOST
  1

  9
$DIMAPOST
  1

  9
$DIMALT
 70
     0
  9
$DIMALTD
 70
     2
  9
$DIMALTF
 40
25.399999999999999
  9
$DIMLFAC
 40
1.0
  9
$DIMTOFL
 70
     1
  9
$DIMTVP
 40
0.0
  9
$DIMTIX
 70
     0
  9
$DIMSOXD
 70
     0
  9
$DIMSAH
 70
     0
  9
$DIMBLK1
  1

  9
$DIMBLK2
  1

  9
$DIMSTYLE
  2
BIGT
  9
$DIMCLRD
 70
   256
  9
$DIMCLRE
 70
   256
  9
$DIMCLRT
 70
    40
  9
$DIMTFAC
 40
1.0
  9
$DIMGAP
 40
1.0
  9
$LUNITS
 70
     2
  9
$LUPREC
 70
     2
  9
$SKETCHINC
 40
1.0
  9
$FILLETRAD
 40
0.0
  9
$AUNITS
 70
     0
  9
$AUPREC
 70
     3
  9
$MENU
  1
.
  9
$ELEVATION
 40
0.0
  9
$PELEVATION
 40
0.0
  9
$THICKNESS
 40
0.0
  9
$LIMCHECK
 70
     0
  9
$BLIPMODE
 70
     0
  9
$CHAMFERA
 40
10.0
  9
$CHAMFERB
 40
10.0
  9
$SKPOLY
 70
     0
  9
$TDCREATE
 40
2452178.6621012269
  9
$TDUPDATE
 40
2454867.4659725348
  9
$TDINDWG
 40
0.0335568519
  9
$TDUSRTIMER
 40
0.0335566782
  9
$USRTIMER
 70
     1
  9
$ANGBASE
 50
0.0
  9
$ANGDIR
 70
     0
  9
$PDMODE
 70
    35
  9
$PDSIZE
 40
2.0
  9
$PLINEWID
 40
0.0
  9
$COORDS
 70
     2
  9
$SPLFRAME
 70
     0
  9
$SPLINETYPE
 70
     6
  9
$SPLINESEGS
 70
     8
  9
$ATTDIA
 70
     1
  9
$ATTREQ
 70
     1
  9
$HANDLING
 70
     1
  9
$HANDSEED
  5
16F9
  9
$SURFTAB1
 70
     6
  9
$SURFTAB2
 70
     6
  9
$SURFTYPE
 70
     6
  9
$SURFU
 70
     6
  9
$SURFV
 70
     6
  9
$UCSNAME
  2

  9
$UCSORG
 10
0.0
 20
0.0
 30
0.0
  9
$UCSXDIR
 10
1.0
 20
0.0
 30
0.0
  9
$UCSYDIR
 10
0.0
 20
1.0
 30
0.0
  9
$PUCSNAME
  2

  9
$PUCSORG
 10
0.0
 20
0.0
 30
0.0
  9
$PUCSXDIR
 10
1.0
 20
0.0
 30
0.0
  9
$PUCSYDIR
 10
0.0
 20
1.0
 30
0.0
  9
$USERI1
 70
     1
  9
$USERI2
 70
     0
  9
$USERI3
 70
     0
  9
$USERI4
 70
     0
  9
$USERI5
 70
     0
  9
$USERR1
 40
0.0
  9
$USERR2
 40
0.0
  9
$USERR3
 40
0.0
  9
$USERR4
 40
0.0
  9
$USERR5
 40
0.0
  9
$WORLDVIEW
 70
     1
  9
$SHADEDGE
 70
     3
  9
$SHADEDIF
 70
    70
  9
$TILEMODE
 70
     1
  9
$MAXACTVP
 70
    16
  9
$PLIMCHECK
 70
     0
  9
$PEXTMIN
 10
1.0000000000000000E+020
 20
1.0000000000000000E+020
 30
1.0000000000000000E+020
  9
$PEXTMAX
 10
-1.0000000000000000E+020
 20
-1.0000000000000000E+020
 30
-1.0000000000000000E+020
  9
$PLIMMIN
 10
0.0
 20
0.0
  9
$PLIMMAX
 10
420.0
 20
297.0
  9
$UNITMODE
 70
     0
  9
$VISRETAIN
 70
     0
  9
$PLINEGEN
 70
     0
  9
$PSLTSCALE
 70
     1
  0
ENDSEC
  0
SECTION
  2
TABLES
  0
TABLE
  2
VPORT
 70
     3
  0
VPORT
  2
*ACTIVE
 70
     0
 10
0.0
 20
0.0
 11
1.0
 21
1.0
 12
0.9730841964391201
 22
15.999481691279749
 13
0.0
 23
0.0
 14
7.0
 24
7.0
 15
7.0
 25
7.0
 16
0.0
 26
0.0
 36
1.0
 17
0.0
 27
0.0
 37
0.0
 40
104.8747822114366
 41
1.357734806629834
 42
50.0
 43
0.0
 44
0.0
 50
0.0
 51
0.0
 71
     0
 72
  2000
 73
     1
 74
     0
 75
     0
 76
     0
 77
     0
 78
     0
  0
ENDTAB
  0
TABLE
  2
LTYPE
 70
    16
  0
LTYPE
  2
CONTINUOUS
 70
     0
  3
Solid line
 72
    65
 73
     0
 40
0.0
  0
LTYPE
  2
CENTER2
 70
     0
  3
___ _ ___ _ ___ _ ___ _ ___ _ ___ _ ___ _ ___ _
 72
    65
 73
     4
 40
1.125
 49
0.75
 49
-0.125
 49
0.125
 49
-0.125
  0
LTYPE
  2
HIDDEN2
 70
     0
  3
_ _ _ _ _ _ _ _ _ _ _ _ _ _ _ _ _ _ _ _ _ _ _ _
 72
    65
 73
     2
 40
0.1875
 49
0.125
 49
-0.0625
  0
LTYPE
  2
PHANTOM2
 70
     0
  3
___ _ _ ___ _ _ ___ _ _ ___ _ _ ___ _ _ ___ _ _
 72
    65
 73
     6
 40
1.25
 49
0.625
 49
-0.125
 49
0.125
 49
-0.125
 49
0.125
 49
-0.125
  0
LTYPE
  2
HIDDEN
 70
     0
  3
Hidden __ __ __ __ __ __ __ __ __ __ __ __ __ _
 72
    65
 73
     2
 40
9.5249999999999986
 49
6.349999999999997
 49
-3.174999999999998
  0
LTYPE
  2
CENTER
 70
     0
  3
Center ____ _ ____ _ ____ _ ____ _ ____ _ ____
 72
    65
 73
     4
 40
50.799999999999997
 49
31.75
 49
-6.349999999999997
 49
6.349999999999997
 49
-6.349999999999997
  0
LTYPE
  2
AMCONSTR
 70
     0
  3
_______________________
 72
    65
 73
     2
 40
9999.0
 49
9999.0
 49
0.0
  0
LTYPE
  2
AMZIGZAG2
 70
     0
  3
/\/-/\/-/\/-/\/-/\/-/\/
 72
    65
 73
     2
 40
0.4401
 49
0.0001
 49
-0.4400000000000002
  0
LTYPE
  2
ACANSTGB
 70
     0
  3
__ . . __ . .
 72
    65
 73
     6
 40
0.35433070866
 49
0.15748031496
 49
-0.03937007874
 49
0.03937007874
 49
-0.03937007874
 49
0.03937007874
 49
-0.03937007874
  0
LTYPE
  2
ACANSTGL
 70
     0
  3
_ _ _ _ _
 72
    65
 73
     2
 40
0.11811023622
 49
0.07874015748
 49
-0.03937007874
  0
ENDTAB
  0
TABLE
  2
LAYER
 70
    10
  0
LAYER
  2
0
 70
     0
 62
     7
  6
CONTINUOUS
  0
LAYER
  2
240
 70
     0
 62
     4
  6
CONTINUOUS
  0
LAYER
  2
241
 70
     0
 62
   211
  6
CONTINUOUS
  0
LAYER
  2
242
 70
     0
 62
     3
  6
CONTINUOUS
  0
LAYER
  2
243
 70
     0
 62
   211
  6
HIDDEN2
  0
LAYER
  2
245
 70
     0
 62
     2
  6
CENTER2
  0
LAYER
  2
246
 70
     0
 62
     3
  6
PHANTOM2
  0
LAYER
  2
247
 70
     0
 62
    60
  6
CONTINUOUS
  0
LAYER
  2
250
 70
     0
 62
     3
  6
CONTINUOUS
  0
LAYER
  2
DEFPOINTS
 70
     0
 62
     7
  6
CONTINUOUS
  0
ENDTAB
  0
TABLE
  2
STYLE
 70
     5
  0
STYLE
  2
STANDARD
 70
     0
 40
0.0
 41
1.0
 50
0.0
 71
     0
 42
3.0
  3
romans.shx
  4
BIGFONT.SHX
  0
STYLE
  2
YOKO
 70
     0
 40
0.0
 41
1.0
 50
0.0
 71
     0
 42
3.0
  3
romans.shx
  4
extfont.shx
  0
STYLE
  2
ACANSTS
 70
     0
 40
1.0
 41
1.0
 50
0.0
 71
     0
 42
3.0
  3
romans.shx
  4
extfont.shx
  0
STYLE
  2
ACANSGDT
 70
     0
 40
0.0
 41
1.0
 50
0.0
 71
     0
 42
3.0
  3
amgdtans.shx
  4

  0
ENDTAB
  0
TABLE
  2
VIEW
 70
     0
  0
ENDTAB
  0
TABLE
  2
UCS
 70
     0
  0
ENDTAB
  0
TABLE
  2
APPID
 70
    19
  0
APPID
  2
ACAD
 70
     0
  0
APPID
  2
GLOBAL
 70
     0
  0
APPID
  2
DETAIL
 70
     0
  0
APPID
  2
GRPNAME
 70
     0
  0
APPID
  2
GPARA
 70
     0
  0
APPID
  2
ITEMNAME
 70
     0
  0
APPID
  2
HATCH_TYPE
 70
     0
  0
APPID
  2
HATCH_DISPLAY
 70
     0
  0
APPID
  2
HATCH_DISTANCE
 70
     0
  0
APPID
  2
MCAD_NO_VIS
 70
     0
  0
APPID
  2
ACAD_TEMP_GRAPHIC
 70
     0
  0
APPID
  2
AD_DRAW
 70
     0
  0
APPID
  2
ACATTRIBSERVICES
 70
     0
  0
APPID
  2
DESIGNERASSEMBLIES
 70
     0
  0
APPID
  2
ACADM_DIM_EDIT
 70
     0
  0
APPID
  2
AMDT_DM_ADJ
 70
     0
  0
APPID
  2
GENIUS_GENSCREG_15
 70
     0
  0
APPID
  2
GENIUS_GENODEF_13
 70
     0
  0
APPID
  2
GENIUS_GENOBJ-N-SDF_13
 70
     0
  0
ENDTAB
  0
TABLE
  2
DIMSTYLE
 70
     8
  0
DIMSTYLE
  2
STANDARD
 70
     0
  3

  4

  5

  6

  7

 40
1.0
 41
2.0
 42
2.0
 43
3.75
 44
2.0
 45
0.0
 46
0.0
 47
0.0
 48
0.0
140
4.0
141
0.09
142
0.0
143
25.399999999999999
144
1.0
145
0.0
146
1.0
147
1.0
 71
     0
 72
     0
 73
     1
 74
     1
 75
     0
 76
     0
 77
     0
 78
     8
170
     0
171
     2
172
     0
173
     1
174
     0
175
     0
176
   256
177
   256
178
   256
  0
DIMSTYLE
  2
BIGT
 70
     0
  3

  4

  5

  6

  7

 40
1.0
 41
2.2299999999999991
 42
0.5
 43
2.5
 44
1.0
 45
0.0
 46
0.0
 47
0.0
 48
0.0
140
3.5
141
0.0
142
0.0
143
25.399999999999999
144
1.0
145
0.0
146
1.0
147
1.0
 71
     0
 72
     0
 73
     0
 74
     0
 75
     0
 76
     0
 77
     3
 78
     9
170
     0
171
     2
172
     1
173
     0
174
     0
175
     0
176
   256
177
   256
178
    40
  0
DIMSTYLE
  2
AM_ANSI
 70
     0
  3

  4
mm
  5

  6

  7

 40
1.0
 41
0.1
 42
0.05
 43
0.5
 44
0.1
 45
0.0
 46
0.0
 47
0.1
 48
0.1
140
0.12
141
0.0
142
0.0
143
25.399999999999999
144
1.0
145
0.0
146
0.71
147
0.06
 71
     0
 72
     0
 73
     1
 74
     1
 75
     0
 76
     0
 77
     0
 78
     7
170
     0
171
     2
172
     0
173
     0
174
     0
175
     0
176
   256
177
   256
178
     2
  0
DIMSTYLE
  2
AM_ANSI$3
 70
     0
  3

  4
mm
  5

  6

  7

 40
1.0
 41
0.1
 42
0.05
 43
0.5
 44
0.1
 45
0.0
 46
0.0
 47
0.1
 48
0.1
140
0.12
141
0.0
142
0.0
143
25.399999999999999
144
1.0
145
0.0
146
0.71
147
0.06
 71
     0
 72
     0
 73
     1
 74
     1
 75
     0
 76
     0
 77
     0
 78
     7
170
     0
171
     2
172
     0
173
     0
174
     0
175
     0
176
   256
177
   256
178
     2
  0
DIMSTYLE
  2
AM_ANSI$4
 70
     0
  3

  4
mm
  5

  6

  7

 40
1.0
 41
0.1
 42
0.05
 43
0.5
 44
0.1
 45
0.0
 46
0.0
 47
0.1
 48
0.1
140
0.12
141
0.0
142
0.0
143
25.399999999999999
144
1.0
145
0.0
146
0.71
147
0.06
 71
     0
 72
     0
 73
     1
 74
     1
 75
     0
 76
     0
 77
     0
 78
     7
170
     0
171
     2
172
     0
173
     0
174
     0
175
     0
176
   256
177
   256
178
     2
  0
DIMSTYLE
  2
AM_ANSI$7
 70
     0
  3

  4
mm
  5

  6

  7

 40
1.0
 41
0.1
 42
0.05
 43
0.5
 44
0.1
 45
0.0
 46
0.0
 47
0.1
 48
0.1
140
0.24
141
0.0
142
0.0
143
25.399999999999999
144
1.0
145
0.0
146
0.71
147
0.06
 71
     0
 72
     0
 73
     1
 74
     1
 75
     0
 76
     0
 77
     0
 78
     7
170
     0
171
     2
172
     0
173
     0
174
     0
175
     0
176
   256
177
   256
178
     2
  0
DIMSTYLE
  2
AM_ANSI$SF
 70
     0
  3

  4
mm
  5

  6

  7

 40
1.0
 41
0.1
 42
0.05
 43
0.5
 44
0.1
 45
0.0
 46
0.0
 47
0.1
 48
0.1
140
0.12
141
0.0
142
0.0
143
25.399999999999999
144
1.0
145
0.0
146
0.71
147
0.06
 71
     0
 72
     0
 73
     1
 74
     1
 75
     1
 76
     1
 77
     0
 78
     7
170
     0
171
     2
172
     0
173
     0
174
     0
175
     0
176
   256
177
   256
178
     2
  0
DIMSTYLE
  2
AM_ANSI$SH
 70
     0
  3

  4
mm
  5

  6

  7

 40
1.0
 41
0.1
 42
0.05
 43
0.5
 44
0.1
 45
0.0
 46
0.0
 47
0.1
 48
0.1
140
0.12
141
0.0
142
0.0
143
25.399999999999999
144
1.0
145
0.0
146
0.71
147
0.06
 71
     0
 72
     0
 73
     1
 74
     1
 75
     1
 76
     1
 77
     0
 78
     7
170
     0
171
     2
172
     0
173
     1
174
     0
175
     0
176
   256
177
   256
178
     2
  0
ENDTAB
  0
ENDSEC
  0
SECTION
  2
BLOCKS
  0
BLOCK
  8
0
  2
$MODEL_SPACE
 70
     0
 10
0.0
 20
0.0
 30
0.0
  3
$MODEL_SPACE
  1

  0
ENDBLK
  5
1614
  8
0
  0
BLOCK
 67
     1
  8
0
  2
$PAPER_SPACE
 70
     0
 10
0.0
 20
0.0
 30
0.0
  3
$PAPER_SPACE
  1

  0
ENDBLK
  5
1610
 67
     1
  8
0
  0
BLOCK
  8
0
  2
_OPEN
 70
     0
 10
0.0
 20
0.0
 30
0.0
  3
_OPEN
  1

  0
LINE
  5
595
  8
0
  6
BYBLOCK
 62
     0
 10
-1.0
 20
0.1666666666666666
 30
0.0
 11
0.0
 21
0.0
 31
0.0
  0
LINE
  5
596
  8
0
  6
BYBLOCK
 62
     0
 10
-1.0
 20
-0.1666666666666666
 30
0.0
 11
0.0
 21
0.0
 31
0.0
  0
LINE
  5
597
  8
0
  6
BYBLOCK
 62
     0
 10
0.0
 20
0.0
 30
0.0
 11
-1.0
 21
0.0
 31
0.0
  0
ENDBLK
  5
599
  8
0
  0
BLOCK
  8
0
  2
A$C74540587
 70
     0
 10
0.0
 20
0.0
 30
0.0
  3
A$C74540587
  1

  0
ARC
  5
12E8
  8
240
  6
CONTINUOUS
 10
21.199999999999989
 20
22.200000000000038
 30
0.0
 40
0.8000000000000112
 50
0.0
 51
90.0
1001
GRPNAME
1000
PASTMD03
  0
LINE
  5
12E9
  8
240
  6
CONTINUOUS
 10
22.0
 20
22.200000000000038
 30
0.0
 11
22.0
 21
18.75
 31
0.0
1001
GRPNAME
1000
PASTMD03
  0
LINE
  5
12EA
  8
240
  6
CONTINUOUS
 10
17.518362671936579
 20
22.85860000000002
 30
0.0
 11
17.763274656126828
 21
23.0
 31
0.0
1001
GRPNAME
1000
PASTMD03
  0
LINE
  5
12EB
  8
240
  6
CONTINUOUS
 10
15.30000000000001
 20
19.016283142591568
 30
0.0
 11
17.5
 21
22.82679491924312
 31
0.0
1001
GRPNAME
1000
PASTMD03
  0
LINE
  5
12EC
  8
240
  6
CONTINUOUS
 10
9.4367253438731495
 20
23.0
 30
0.0
 11
9.6816373280634007
 21
22.85860000000002
 31
0.0
1001
GRPNAME
1000
PASTMD03
  0
LINE
  5
12ED
  8
240
  6
CONTINUOUS
 10
11.89999999999997
 20
19.016283142591568
 30
0.0
 11
9.6816373280634007
 21
22.85860000000002
 31
0.0
1001
GRPNAME
1000
PASTMD03
  0
LINE
  5
12EE
  8
240
  6
CONTINUOUS
 10
11.89999999999997
 20
19.0
 30
0.0
 11
15.30000000000001
 21
19.0
 31
0.0
1001
GRPNAME
1000
PASTMD03
  0
LINE
  5
12EF
  8
240
  6
CONTINUOUS
 10
17.763274656126828
 20
23.0
 30
0.0
 11
21.199999999999989
 21
23.0
 31
0.0
1001
GRPNAME
1000
PASTMD03
  0
LINE
  5
12F0
  8
240
 10
44.824264068711841
 20
14.275735931288059
 30
0.0
 11
44.305025253169312
 21
14.794974746830571
 31
0.0
  0
ARC
  5
12F1
  8
240
 10
43.810050506338712
 20
14.30000000000001
 30
0.0
 40
0.7000000000000137
 50
45.0
 51
90.0
  0
ARC
  5
12F2
  8
240
 10
44.39999999999992
 20
13.851471862576091
 30
0.0
 40
0.5999999999999944
 50
0.0
 51
45.0
  0
LINE
  5
12F3
  8
241
 10
40.499999999999893
 20
12.175265954710589
 30
0.0
 11
40.499999999999893
 21
13.675265954710589
 31
0.0
  0
ARC
  5
12F4
  8
240
 10
33.549999999999947
 20
14.30000000000001
 30
0.0
 40
0.6999999999999889
 50
90.0
 51
180.0
  0
LINE
  5
12F5
  8
240
 10
32.499999999999879
 20
10.5
 30
0.0
 11
32.499999999999879
 21
11.25
 31
0.0
  0
LINE
  5
12F6
  8
240
 10
32.499999999999879
 20
11.25
 30
0.0
 11
32.849999999999909
 21
11.599999999999961
 31
0.0
  0
LINE
  5
12F7
  8
240
 10
32.849999999999909
 20
14.30000000000001
 30
0.0
 11
32.849999999999909
 21
11.599999999999961
 31
0.0
  0
LINE
  5
12F8
  8
241
 10
40.499999999999893
 20
12.175265954710589
 30
0.0
 11
32.849999999999909
 21
12.175265954710589
 31
0.0
  0
LINE
  5
12F9
  8
241
 10
40.499999999999893
 20
13.675265954710589
 30
0.0
 11
32.849999999999909
 21
13.675265954710589
 31
0.0
  0
LINE
  5
12FA
  8
246
 10
42.499999999999922
 20
8.25
 30
0.0
 11
42.499999999999922
 21
7.0
 31
0.0
  0
LINE
  5
12FB
  8
246
 10
42.499999999999922
 20
8.25
 30
0.0
 11
42.699999999999932
 21
8.25
 31
0.0
  0
LINE
  5
12FC
  8
246
 10
40.39999999999992
 20
7.0
 30
0.0
 11
40.39999999999992
 21
8.25
 31
0.0
  0
LINE
  5
12FD
  8
246
 10
40.39999999999992
 20
7.0
 30
0.0
 11
42.499999999999922
 21
7.0
 31
0.0
  0
LINE
  5
12FE
  8
241
 10
40.499999999999893
 20
1.5
 30
0.0
 11
32.849999999999909
 21
1.5
 31
0.0
  0
LINE
  5
12FF
  8
240
 10
33.549999999999947
 20
15.0
 30
0.0
 11
43.810050506338712
 21
15.0
 31
0.0
  0
LINE
  5
1300
  8
246
 10
44.999999999999929
 20
6.9220943808638227
 30
0.0
 11
42.699999999999932
 21
8.25
 31
0.0
  0
LINE
  5
1301
  8
240
 10
44.305025253169269
 20
-14.794974746830571
 30
0.0
 11
44.824264068711841
 21
-14.275735931288059
 31
0.0
  0
ARC
  5
1302
  8
240
 10
43.810050506338712
 20
-14.30000000000001
 30
0.0
 40
0.700000000000003
 50
270.0
 51
315.0
  0
ARC
  5
1303
  8
240
 10
44.39999999999992
 20
-13.851471862576091
 30
0.0
 40
0.6000000000000089
 50
315.0
 51
0.0
  0
LINE
  5
1304
  8
240
 10
44.999999999999879
 20
-13.851471862576091
 30
0.0
 11
44.999999999999879
 21
0.0
 31
0.0
  0
LINE
  5
1305
  8
241
 10
40.499999999999893
 20
-1.5
 30
0.0
 11
40.499999999999893
 21
0.0
 31
0.0
  0
LINE
  5
1306
  8
246
 10
40.39999999999992
 20
-7.0
 30
0.0
 11
42.499999999999922
 21
-7.0
 31
0.0
  0
LINE
  5
1307
  8
241
 10
40.499999999999893
 20
-1.5
 30
0.0
 11
32.849999999999909
 21
-1.5
 31
0.0
  0
LINE
  5
1308
  8
246
 10
42.499999999999922
 20
-8.25
 30
0.0
 11
42.699999999999932
 21
-8.25
 31
0.0
  0
LINE
  5
1309
  8
241
 10
40.499999999999893
 20
-12.175265954710589
 30
0.0
 11
40.499999999999893
 21
-13.675265954710589
 31
0.0
  0
LINE
  5
130A
  8
240
 10
32.499999999999879
 20
-10.5
 30
0.0
 11
32.499999999999879
 21
-11.25
 31
0.0
  0
LINE
  5
130B
  8
240
 10
32.499999999999879
 20
-11.25
 30
0.0
 11
32.849999999999909
 21
-11.599999999999961
 31
0.0
  0
ARC
  5
130C
  8
240
 10
33.549999999999947
 20
-14.30000000000001
 30
0.0
 40
0.6999999999999889
 50
180.0
 51
270.0
  0
LINE
  5
130D
  8
240
 10
32.849999999999909
 20
-14.30000000000001
 30
0.0
 11
32.849999999999909
 21
-11.599999999999961
 31
0.0
  0
LINE
  5
130E
  8
241
 10
40.499999999999893
 20
-12.175265954710589
 30
0.0
 11
32.849999999999909
 21
-12.175265954710589
 31
0.0
  0
LINE
  5
130F
  8
241
 10
40.499999999999893
 20
-13.675265954710589
 30
0.0
 11
32.849999999999909
 21
-13.675265954710589
 31
0.0
  0
LINE
  5
1310
  8
241
 10
32.849999999999909
 20
0.0
 30
0.0
 11
32.849999999999909
 21
-11.599999999999961
 31
0.0
  0
LINE
  5
1311
  8
241
 10
32.499999999999879
 20
0.0
 30
0.0
 11
32.499999999999879
 21
-10.5
 31
0.0
  0
LINE
  5
1312
  8
246
 10
40.39999999999992
 20
-7.0
 30
0.0
 11
40.39999999999992
 21
-8.25
 31
0.0
  0
LINE
  5
1313
  8
246
 10
42.499999999999922
 20
-8.25
 30
0.0
 11
42.499999999999922
 21
-7.0
 31
0.0
  0
LINE
  5
1314
  8
240
 10
33.549999999999947
 20
-15.0
 30
0.0
 11
43.810050506338712
 21
-15.0
 31
0.0
  0
LINE
  5
1315
  8
246
 10
44.999999999999929
 20
-6.9220943808638227
 30
0.0
 11
42.699999999999932
 21
-8.25
 31
0.0
  0
LINE
  5
1316
  8
240
 10
44.999999999999879
 20
13.851471862576091
 30
0.0
 11
44.999999999999879
 21
0.0
 31
0.0
  0
LINE
  5
1317
  8
241
 10
43.810050506338712
 20
14.50331125827813
 30
0.0
 11
43.810050506338712
 21
-14.70198675496686
 31
0.0
  0
LINE
  5
1318
  8
241
 10
32.499999999999879
 20
0.0
 30
0.0
 11
32.499999999999879
 21
10.5
 31
0.0
  0
LINE
  5
1319
  8
241
 10
32.849999999999909
 20
0.0
 30
0.0
 11
32.849999999999909
 21
11.599999999999961
 31
0.0
  0
LINE
  5
131A
  8
241
 10
40.499999999999893
 20
1.5
 30
0.0
 11
40.499999999999893
 21
0.0
 31
0.0
  0
ARC
  5
131B
  8
240
 10
26.99999999999994
 20
13.75
 30
0.0
 40
1.0
 50
0.0
 51
90.0
  0
LINE
  5
131C
  8
240
 10
26.0
 20
14.75
 30
0.0
 11
26.99999999999994
 21
14.75
 31
0.0
  0
LINE
  5
131D
  8
242
 10
30.0
 20
10.0
 30
0.0
 11
29.5
 21
10.5
 31
0.0
  0
ARC
  5
131E
  8
240
 10
28.99999999999995
 20
11.5
 30
0.0
 40
1.0
 50
180.0
 51
270.0
  0
LINE
  5
131F
  8
240
 10
27.99999999999994
 20
13.75
 30
0.0
 11
27.99999999999994
 21
11.5
 31
0.0
  0
LINE
  5
1320
  8
242
 10
30.0
 20
-10.0
 30
0.0
 11
29.5
 21
-10.5
 31
0.0
  0
ARC
  5
1321
  8
240
 10
28.99999999999995
 20
-11.5
 30
0.0
 40
1.0
 50
90.0
 51
180.0
  0
ARC
  5
1322
  8
240
 10
26.99999999999994
 20
-13.75
 30
0.0
 40
1.0
 50
270.0
 51
0.0
  0
LINE
  5
1323
  8
240
 10
26.0
 20
-14.75000000000005
 30
0.0
 11
26.99999999999994
 21
-14.75
 31
0.0
  0
LINE
  5
1324
  8
240
 10
27.99999999999994
 20
-13.75
 30
0.0
 11
27.99999999999994
 21
-11.5
 31
0.0
  0
LINE
  5
1325
  8
241
 10
29.99999999999995
 20
-10.0
 30
0.0
 11
29.99999999999995
 21
0.0
 31
0.0
  0
LINE
  5
1326
  8
241
 10
27.99999999999994
 20
-11.5
 30
0.0
 11
27.99999999999994
 21
0.0
 31
0.0
  0
LINE
  5
1327
  8
246
 10
18.00000000000022
 20
-5.8956651300489371
 30
0.0
 11
18.00000000000022
 21
5.8664152946866439
 31
0.0
  0
LINE
  5
1328
  8
241
 10
27.99999999999994
 20
11.5
 30
0.0
 11
27.99999999999994
 21
0.0
 31
0.0
  0
LINE
  5
1329
  8
241
 10
29.99999999999995
 20
10.0
 30
0.0
 11
29.99999999999995
 21
0.0
 31
0.0
  0
LINE
  5
132A
  8
246
 10
40.39999999999992
 20
-8.25
 30
0.0
 11
17.99999999999994
 21
-5.8956651300488252
 31
0.0
  0
LINE
  5
132B
  8
246
 10
17.99999999999994
 20
-5.0
 30
0.0
 11
44.999999999999929
 21
-5.0
 31
0.0
  0
LINE
  5
132C
  8
242
 10
32.499999999999879
 20
-10.0
 30
0.0
 11
29.99999999999995
 21
-10.0
 31
0.0
  0
LINE
  5
132D
  8
240
 10
28.99999999999995
 20
-10.5
 30
0.0
 11
32.499999999999879
 21
-10.5
 31
0.0
  0
LINE
  5
132E
  8
246
 10
17.99999999999994
 20
5.866415294686476
 30
0.0
 11
40.39999999999992
 21
8.25
 31
0.0
  0
LINE
  5
132F
  8
246
 10
17.99999999999994
 20
5.0
 30
0.0
 11
44.999999999999929
 21
5.0
 31
0.0
  0
LINE
  5
1330
  8
242
 10
32.499999999999879
 20
10.0
 30
0.0
 11
29.99999999999995
 21
10.0
 31
0.0
  0
LINE
  5
1331
  8
240
 10
28.99999999999995
 20
10.5
 30
0.0
 11
32.499999999999879
 21
10.5
 31
0.0
  0
LINE
  5
1332
  8
241
  6
CONTINUOUS
 10
9.6000000000000245
 20
0.0
 30
0.0
 11
9.6000000000000245
 21
22.90573333333333
 31
0.0
1001
GRPNAME
1000
PASTMD03
  0
LINE
  5
1333
  8
241
  6
CONTINUOUS
 10
11.89999999999997
 20
19.0
 30
0.0
 11
11.89999999999997
 21
0.0
 31
0.0
1001
GRPNAME
1000
PASTMD03
  0
LINE
  5
1334
  8
241
  6
CONTINUOUS
 10
15.30000000000001
 20
19.0
 30
0.0
 11
15.30000000000001
 21
0.0
 31
0.0
1001
GRPNAME
1000
PASTMD03
  0
LINE
  5
1335
  8
241
  6
CONTINUOUS
 10
17.600000000000019
 20
0.0
 30
0.0
 11
17.600000000000019
 21
22.90573333333333
 31
0.0
1001
GRPNAME
1000
PASTMD03
  0
LINE
  5
1336
  8
243
  6
HIDDEN2
 10
19.0
 20
16.300000000000001
 30
0.0
 11
19.0
 21
23.0
 31
0.0
1001
GRPNAME
1000
PASTMD03
  0
ARC
  5
1337
  8
240
 10
26.0
 20
18.75
 30
0.0
 40
4.0
 50
180.0
 51
270.0
  0
ARC
  5
1338
  8
240
  6
CONTINUOUS
 10
21.199999999999989
 20
-22.199999999999982
 30
0.0
 40
0.8000000000000112
 50
269.99999998970981
 51
359.9999999897081
1001
GRPNAME
1000
PASTMD03
  0
LINE
  5
1339
  8
240
  6
CONTINUOUS
 10
22.0
 20
-22.199999999999982
 30
0.0
 11
22.0
 21
-18.75000000000005
 31
0.0
1001
GRPNAME
1000
PASTMD03
  0
LINE
  5
133A
  8
240
  6
CONTINUOUS
 10
17.518362671936579
 20
-22.85860000000002
 30
0.0
 11
17.763274656126828
 21
-23.0
 31
0.0
1001
GRPNAME
1000
PASTMD03
  0
LINE
  5
133B
  8
240
  6
CONTINUOUS
 10
15.30000000000001
 20
-19.016283142591519
 30
0.0
 11
17.518362671936579
 21
-22.85860000000002
 31
0.0
1001
GRPNAME
1000
PASTMD03
  0
LINE
  5
133C
  8
243
  6
HIDDEN2
 10
19.0
 20
-16.300000000000001
 30
0.0
 11
19.0
 21
-23.0
 31
0.0
1001
GRPNAME
1000
PASTMD03
  0
LINE
  5
133D
  8
240
  6
CONTINUOUS
 10
9.4367253438732082
 20
-23.0
 30
0.0
 11
9.6816373280634593
 21
-22.85859999999996
 31
0.0
1001
GRPNAME
1000
PASTMD03
  0
LINE
  5
133E
  8
240
  6
CONTINUOUS
 10
11.89999999999997
 20
-19.016283142591519
 30
0.0
 11
9.6816373280634593
 21
-22.85859999999991
 31
0.0
1001
GRPNAME
1000
PASTMD03
  0
LINE
  5
133F
  8
240
  6
CONTINUOUS
 10
11.89999999999997
 20
-19.0
 30
0.0
 11
15.30000000000001
 21
-19.0
 31
0.0
1001
GRPNAME
1000
PASTMD03
  0
LINE
  5
1340
  8
240
  6
CONTINUOUS
 10
21.199999999999989
 20
-23.0
 30
0.0
 11
17.763274656126828
 21
-23.0
 31
0.0
1001
GRPNAME
1000
PASTMD03
  0
LINE
  5
1341
  8
241
  6
CONTINUOUS
 10
11.89999999999997
 20
-19.0
 30
0.0
 11
11.89999999999997
 21
0.0
 31
0.0
1001
GRPNAME
1000
PASTMD03
  0
LINE
  5
1342
  8
241
  6
CONTINUOUS
 10
9.6000000000000245
 20
0.0
 30
0.0
 11
9.6000000000000245
 21
-22.90573333333333
 31
0.0
1001
GRPNAME
1000
PASTMD03
  0
LINE
  5
1343
  8
241
 10
21.999999999999972
 20
18.75
 30
0.0
 11
22.000000000000021
 21
-18.75000000000005
 31
0.0
  0
LINE
  5
1344
  8
241
  6
CONTINUOUS
 10
15.30000000000001
 20
-19.0
 30
0.0
 11
15.30000000000001
 21
0.0
 31
0.0
1001
GRPNAME
1000
PASTMD03
  0
LINE
  5
1345
  8
241
  6
CONTINUOUS
 10
17.600000000000019
 20
0.0
 30
0.0
 11
17.600000000000019
 21
-22.90573333333333
 31
0.0
1001
GRPNAME
1000
PASTMD03
  0
ARC
  5
1346
  8
240
 10
26.0
 20
-18.75000000000005
 30
0.0
 40
4.0
 50
90.0
 51
180.0
  0
ARC
  5
1347
  8
240
  6
CONTINUOUS
 10
1.5
 20
22.5
 30
0.0
 40
0.5
 50
89.999999997427025
 51
179.99999999742701
1001
GRPNAME
1000
PASTMD03
  0
LINE
  5
1348
  8
240
 10
0.0
 20
15.87500000000011
 30
0.0
 11
1.0
 21
15.87500000000113
 31
0.0
  0
LINE
  5
1349
  8
246
 10
4.9999999999998863
 20
5.0
 30
0.0
 11
4.4999999999998863
 21
5.5
 31
0.0
  0
LINE
  5
134A
  8
246
 10
-1.0000000000000551
 20
1.3321329386272951
 30
0.0
 11
-1.0000000000000551
 21
2.5
 31
0.0
  0
LINE
  5
134B
  8
246
 10
-0.5566243270259861
 20
1.7320508075688961
 30
0.0
 11
-1.0000000000000551
 21
2.5
 31
0.0
  0
LINE
  5
134C
  8
246
 10
1.982050807568781
 20
0.8660254037844197
 30
0.0
 11
-0.5566243270259861
 21
0.8660254037844197
 31
0.0
  0
LINE
  5
134D
  8
246
 10
1.982050807568781
 20
1.7320508075688961
 30
0.0
 11
-0.5566243270259861
 21
1.7320508075688961
 31
0.0
  0
LINE
  5
134E
  8
246
 10
1.982050807568781
 20
1.7320508075688961
 30
0.0
 11
4.9999999999998863
 21
4.750000000000056
 31
0.0
  0
LINE
  5
134F
  8
246
 10
-5.9611804559465851
 20
5.1999999999999851
 30
0.0
 11
-6.6000000000001364
 21
5.1999999999999851
 31
0.0
  0
LINE
  5
1350
  8
246
 10
-7.000000000000111
 20
4.75
 30
0.0
 11
-6.250000000000111
 21
5.5
 31
0.0
  0
ARC
  5
1351
  8
246
 10
-10.00000000000005
 20
3.75
 30
0.0
 40
1.0
 50
90.0
 51
180.0
  0
LINE
  5
1352
  8
246
 10
-10.00000000000005
 20
4.75
 30
0.0
 11
-7.000000000000111
 21
4.75
 31
0.0
  0
LINE
  5
1353
  8
246
 10
-11.00000000000005
 20
2.5
 30
0.0
 11
-1.0000000000000551
 21
2.5
 31
0.0
  0
LINE
  5
1354
  8
246
 10
-6.250000000000111
 20
5.5
 30
0.0
 11
4.4999999999998863
 21
5.5
 31
0.0
  0
LINE
  5
1355
  8
246
 10
-6.6000000000001364
 20
5.1999999999999851
 30
0.0
 11
4.8499999999999091
 21
5.1999999999999851
 31
0.0
  0
LINE
  5
1356
  8
246
 10
4.4999999999998863
 20
-5.5
 30
0.0
 11
4.9999999999998863
 21
-5.0
 31
0.0
  0
LINE
  5
1357
  8
246
 10
-1.0000000000000551
 20
-1.3321329386272951
 30
0.0
 11
-1.0000000000000551
 21
-2.5
 31
0.0
  0
LINE
  5
1358
  8
246
 10
-0.5566243270259861
 20
-1.7320508075688961
 30
0.0
 11
-1.0000000000000551
 21
-2.5
 31
0.0
  0
LINE
  5
1359
  8
246
 10
1.982050807568781
 20
-0.8660254037844197
 30
0.0
 11
-0.5566243270259861
 21
-0.8660254037844197
 31
0.0
  0
LINE
  5
135A
  8
246
 10
1.982050807568781
 20
-1.7320508075688961
 30
0.0
 11
-0.5566243270259861
 21
-1.7320508075688961
 31
0.0
  0
LINE
  5
135B
  8
246
 10
1.982050807568781
 20
-1.7320508075688961
 30
0.0
 11
4.9999999999998863
 21
-4.750000000000056
 31
0.0
  0
LINE
  5
135C
  8
247
 10
6.525924915613242
 20
-15.601591372105521
 30
0.0
 11
6.7037317698612924
 21
-15.42377307376568
 31
0.0
1001
ACAD
1000
ASC_BOUNDS
1002
{
1070
    19
1005
13D4
1002
}
  0
LINE
  5
135D
  8
247
 10
4.3176611607685791
 20
-14.9154150720567
 30
0.0
 11
4.0281599705830331
 21
-15.006704592320361
 31
0.0
1001
ACAD
1000
ASC_BOUNDS
1002
{
1070
    19
1005
13CF
1002
}
  0
POLYLINE
  5
135E
  8
247
 66
     1
 10
0.0
 20
0.0
 30
0.0
 70
     1
  0
VERTEX
  5
135F
  8
247
 10
4.3176611607685791
 20
-14.9154150720567
 30
0.0
  0
VERTEX
  5
1360
  8
247
 10
4.0281599705830331
 20
-15.006704592320361
 30
0.0
  0
VERTEX
  5
1361
  8
247
 10
4.0281599705830331
 20
-15.006704592320361
 30
0.0
  0
VERTEX
  5
1362
  8
247
 10
4.3176611607685791
 20
-14.9154150720567
 30
0.0
  0
SEQEND
  5
1363
  8
247
  0
POLYLINE
  5
1364
  8
247
 66
     1
 10
0.0
 20
0.0
 30
0.0
 70
     1
1001
HATCH_DISTANCE
1040
1.0
1001
HATCH_DISPLAY
1070
     0
1001
HATCH_TYPE
1070
     7
  0
VERTEX
  5
1365
  8
247
 10
4.3176611607685791
 20
-14.9154150720567
 30
0.0
  0
VERTEX
  5
1366
  8
247
 10
4.0281599705830331
 20
-15.006704592320361
 30
0.0
  0
VERTEX
  5
1367
  8
247
 10
4.0281599705830331
 20
-15.006704592320361
 30
0.0
  0
VERTEX
  5
1368
  8
247
 10
4.3176611607685791
 20
-14.9154150720567
 30
0.0
  0
SEQEND
  5
1369
  8
247
  0
POLYLINE
  5
136A
  8
247
 66
     1
 10
0.0
 20
0.0
 30
0.0
 70
     1
  0
VERTEX
  5
136B
  8
247
 10
4.3176611607685791
 20
-14.9154150720567
 30
0.0
  0
VERTEX
  5
136C
  8
247
 10
4.0281599705830331
 20
-15.006704592320361
 30
0.0
  0
VERTEX
  5
136D
  8
247
 10
4.0281599705830331
 20
-15.006704592320361
 30
0.0
  0
VERTEX
  5
136E
  8
247
 10
4.3176611607685791
 20
-14.9154150720567
 30
0.0
  0
SEQEND
  5
136F
  8
247
  0
POLYLINE
  5
1370
  8
247
 66
     1
 10
0.0
 20
0.0
 30
0.0
 70
     1
1001
HATCH_DISTANCE
1040
1.0
1001
HATCH_DISPLAY
1070
     0
1001
HATCH_TYPE
1070
     7
  0
VERTEX
  5
1371
  8
247
 10
4.3176611607685791
 20
-14.9154150720567
 30
0.0
  0
VERTEX
  5
1372
  8
247
 10
4.0281599705830331
 20
-15.006704592320361
 30
0.0
  0
VERTEX
  5
1373
  8
247
 10
4.0281599705830331
 20
-15.006704592320361
 30
0.0
  0
VERTEX
  5
1374
  8
247
 10
4.3176611607685791
 20
-14.9154150720567
 30
0.0
  0
SEQEND
  5
1375
  8
247
  0
ARC
  5
1376
  8
247
 10
5.5670012181416251
 20
-14.600965761753971
 30
0.0
 40
1.288299322128293
 50
200.87218340207721
 51
222.5419489373881
1001
ACAD
1000
ASC_BOUNDS
1002
{
1070
    19
1005
13D4
1002
}
  0
LINE
  5
1377
  8
247
 10
4.3632429783955331
 20
-15.059965395543029
 30
0.0
 11
4.0737417882099836
 21
-15.1512549158067
 31
0.0
1001
ACAD
1000
ASC_BOUNDS
1002
{
1070
    19
1005
13D4
1002
}
  0
ARC
  5
1378
  8
247
 10
5.5670012181416251
 20
-14.600965761753971
 30
0.0
 40
1.591427564620969
 50
200.22964506332011
 51
208.57168892371641
1001
ACAD
1000
ASC_BOUNDS
1002
{
1070
    19
1005
13D4
1002
}
  0
LINE
  5
1379
  8
247
 10
6.7037317698612924
 20
-15.42377307376568
 30
0.0
 11
5.1577719395771711
 21
-14.98047473392193
 31
0.0
1001
ACAD
1000
ASC_BOUNDS
1002
{
1070
    19
1005
13D4
1002
}
  0
LINE
  5
137A
  8
246
 10
-7.000000000000111
 20
-4.75
 30
0.0
 11
-6.250000000000111
 21
-5.5
 31
0.0
  0
LINE
  5
137B
  8
246
 10
-5.9611804559465851
 20
-5.1999999999999851
 30
0.0
 11
-6.6000000000001364
 21
-5.1999999999999851
 31
0.0
  0
ARC
  5
137C
  8
246
 10
-10.00000000000005
 20
-3.75
 30
0.0
 40
1.0
 50
180.0
 51
270.0
  0
LINE
  5
137D
  8
246
 10
-10.00000000000005
 20
-4.75
 30
0.0
 11
-7.000000000000111
 21
-4.75
 31
0.0
  0
LINE
  5
137E
  8
246
 10
-11.00000000000005
 20
-2.5
 30
0.0
 11
-1.0000000000000551
 21
-2.5
 31
0.0
  0
LINE
  5
137F
  8
246
 10
-6.250000000000111
 20
-5.5
 30
0.0
 11
4.4999999999998863
 21
-5.5
 31
0.0
  0
LINE
  5
1380
  8
246
 10
-6.6000000000001364
 20
-5.1999999999999851
 30
0.0
 11
4.8499999999999091
 21
-5.1999999999999851
 31
0.0
  0
LINE
  5
1381
  8
246
 10
4.9999999999998863
 20
5.0
 30
0.0
 11
4.9999999999998863
 21
-5.0
 31
0.0
  0
LINE
  5
1382
  8
241
  6
CONTINUOUS
 10
1.0
 20
15.8749183884297
 30
0.0
 11
1.0
 21
0.0
 31
0.0
1001
GRPNAME
1000
PASTMD03
  0
LINE
  5
1383
  8
241
  6
CONTINUOUS
 10
0.0
 20
15.875
 30
0.0
 11
0.0
 21
0.0
 31
0.0
1001
GRPNAME
1000
PASTMD03
  0
LINE
  5
1384
  8
246
 10
-11.00000000000005
 20
3.75
 30
0.0
 11
-11.00000000000005
 21
-3.75
 31
0.0
  0
LINE
  5
1385
  8
246
 10
-0.5566243270259861
 20
-1.7320508075688961
 30
0.0
 11
-0.5566243270259295
 21
1.7320508075688961
 31
0.0
  0
LINE
  5
1386
  8
246
 10
1.982050807568839
 20
-1.7320508075688961
 30
0.0
 11
1.982050807568839
 21
1.7320508075688961
 31
0.0
  0
TEXT
  5
1387
  8
247
 10
6.726232873754836
 20
-12.002239636846181
 30
0.0
 40
2.5
  1
BBT30-NBS10-45
 50
90.0
  7
YOKO
 11
6.726232873754836
 21
-12.002239636846181
 31
0.0
 73
     1
  0
LINE
  5
1388
  8
240
  6
CONTINUOUS
 10
1.0
 20
22.5
 30
0.0
 11
1.0
 21
15.87500000000022
 31
0.0
1001
GRPNAME
1000
PASTMD03
  0
ARC
  5
1389
  8
240
 10
-47.899999999999977
 20
8.3841292718131513
 30
0.0
 40
0.5000000000000023
 50
98.297338155456529
 51
179.99999999485399
1001
GRPNAME
1000
PASTMD03
  0
ARC
  5
138A
  8
240
 10
-47.899999999999977
 20
-8.3841292718131513
 30
0.0
 40
0.5
 50
179.99999999485399
 51
261.70266183425468
1001
GRPNAME
1000
PASTMD03
  0
LINE
  5
138B
  8
240
 10
-48.399999999999977
 20
-8.3841292718131513
 30
0.0
 11
-48.399999999999977
 21
0.0
 31
0.0
1001
GRPNAME
1000
PASTMD03
  0
LINE
  5
138C
  8
240
 10
-48.399999999999977
 20
8.3841292718131513
 30
0.0
 11
-48.399999999999977
 21
0.0
 31
0.0
1001
GRPNAME
1000
PASTMD03
  0
LINE
  5
138D
  8
240
  6
CONTINUOUS
 10
-47.97215511479645
 20
8.8788955190539127
 30
0.0
 11
0.0000000000001137
 21
15.875
 31
0.0
1001
GRPNAME
1000
PASTMD03
  0
LINE
  5
138E
  8
247
 10
6.7037317698612924
 20
-18.419550203892641
 30
0.0
 11
6.7037317698612924
 21
-17.741556429478571
 31
0.0
  0
LINE
  5
138F
  8
247
 10
6.6469142123491443
 20
-19.049593296771199
 30
0.0
 11
6.233814051776787
 21
-18.636493136198851
 31
0.0
  0
LINE
  5
1390
  8
247
 10
6.7037317698613492
 20
-19.443170458823481
 30
0.0
 11
5.8467530525023204
 21
-18.586191741464461
 31
0.0
  0
ARC
  5
1391
  8
247
 10
6.0520018284931858
 20
-16.198698305699281
 30
0.0
 40
0.3182872831821442
 50
254.00027305718419
 51
74.000273057184273
1001
ACAD
1000
ASC_BOUNDS
1002
{
1070
    19
1005
13D4
1002
}
  0
ARC
  5
1392
  8
247
 10
4.7333906834736572
 20
-18.989809298130918
 30
0.0
 40
0.7578227519989014
 50
17.669577547398148
 51
180.2361598426715
  0
LINE
  5
1393
  8
247
 10
4.3212070757014081
 20
-19.081203391904118
 30
0.0
 11
4.0085795960670758
 21
-18.768575912269789
 31
0.0
  0
LINE
  5
1394
  8
247
 10
4.3090094273701398
 20
-17.843248629185609
 30
0.0
 11
3.975574368776392
 21
-17.747633242222719
 31
0.0
  0
LINE
  5
1395
  8
247
 10
3.975574368776392
 20
-17.747633242222719
 30
0.0
 11
3.975574368776392
 21
-16.95927264651959
 31
0.0
  0
LINE
  5
1396
  8
247
 10
4.4986333940931891
 20
-18.921870105755811
 30
0.0
 11
4.120651310550155
 21
-18.543888022212791
 31
0.0
  0
LINE
  5
1397
  8
247
 10
4.7965401976577482
 20
-18.88301730478031
 30
0.0
 11
4.2892795600917539
 21
-18.375756667214318
 31
0.0
  0
ARC
  5
1398
  8
247
 10
4.7030867283955331
 20
-19.327993654820361
 30
0.0
 40
0.4546839594841006
 50
351.66260168792923
 51
156.3381550951899
  0
LINE
  5
1399
  8
247
 10
4.2866285529504999
 20
-19.145510529252299
 30
0.0
 11
5.1529653969759011
 21
-19.393923060767289
 31
0.0
  0
LINE
  5
139A
  8
247
 10
4.3090094273701398
 20
-17.843248629185609
 30
0.0
 11
4.3090094273701398
 21
-17.73287036380475
 31
0.0
  0
LINE
  5
139B
  8
247
 10
5.5993018175829521
 20
-19.349019320165361
 30
0.0
 11
4.5145536099832384
 21
-18.264271112565648
 31
0.0
  0
ARC
  5
139C
  8
247
 10
5.770362729372092
 20
-14.555441164586
 30
0.0
 40
2.5780792236328121
 50
245.2051773698407
 51
262.79482596205207
1001
ACAD
1000
ASC_BOUNDS
1002
{
1070
    19
1005
13D4
1002
}
  0
LINE
  5
139D
  8
247
 10
5.4609030430927961
 20
-15.95036151370709
 30
0.0
 11
5.1577719395771711
 21
-15.863443636509819
 31
0.0
1001
ACAD
1000
ASC_BOUNDS
1002
{
1070
    19
1005
13D4
1002
}
  0
INSERT
  5
139E
  8
247
  6
CONTINUOUS
  2
*X5
 10
0.0
 20
0.0
 30
0.0
1001
ACAD
1000
HATCH
1002
{
1070
    19
1000
ANSI31
1040
0.075
1040
1.5707963267948939
1000
R14_HATCH_DATA
1000
139E
1011
1.0
1021
3.1050376999025323E+231
1031
0.0
1021
0.0
1031
0.0
1011
0.0
1021
3.1050376999025323E+231
1031
0.0
1021
1.0
1031
0.0
1011
0.0
1021
3.1050376999025323E+231
1031
0.0
1021
0.0
1031
1.0
1040
0.0
1010
0.0
1020
0.0
1030
1.0
1000
ANSI31
1070
     0
1070
     0
1071
        1
1071
        7
1070
     0
1070
     1
1071
        6
1040
3.975574368776392
1040
-16.95927264651959
1040
3.975574368776392
1040
-17.747633242222719
1040
4.3090094273701398
1040
-17.843248629185609
1040
4.3090094273701398
1040
-17.7328703638048
1040
6.7037317698612924
1040
-18.419550203892641
1040
6.7037317698612924
1040
-17.741556429478571
1071
        0
1070
     0
1070
     1
1040
1.5707963267948939
1040
0.075
1070
     0
1070
     1
1040
2.3561944901923431
1040
18.970920914949481
1040
-112.1959050889939
1040
-0.1683798022700466
1040
-0.1683798022700466
1070
     0
1040
0.0134348504236232
1071
        1
1040
5.268217658775141
1040
-17.668009345223702
1040
0.0
1002
}
  0
POLYLINE
  5
139F
  8
247
 66
     1
 10
0.0
 20
0.0
 30
0.0
 70
     1
  0
VERTEX
  5
13A0
  8
247
 10
3.975574368776392
 20
-17.747633242222719
 30
0.0
  0
VERTEX
  5
13A1
  8
247
 10
4.3090094273701398
 20
-17.843248629185609
 30
0.0
  0
VERTEX
  5
13A2
  8
247
 10
4.3090094273701398
 20
-17.73287036380475
 30
0.0
  0
VERTEX
  5
13A3
  8
247
 10
6.7037317698612924
 20
-18.419550203892641
 30
0.0
  0
VERTEX
  5
13A4
  8
247
 10
6.7037317698612924
 20
-17.741556429478571
 30
0.0
  0
VERTEX
  5
13A5
  8
247
 10
3.975574368776392
 20
-16.95927264651959
 30
0.0
  0
SEQEND
  5
13A6
  8
247
  0
POLYLINE
  5
13A7
  8
247
 66
     1
 10
0.0
 20
0.0
 30
0.0
 70
     1
1001
HATCH_DISTANCE
1040
1.0
1001
HATCH_DISPLAY
1070
     0
1001
HATCH_TYPE
1070
     7
  0
VERTEX
  5
13A8
  8
247
 10
3.975574368776392
 20
-17.747633242222719
 30
0.0
  0
VERTEX
  5
13A9
  8
247
 10
4.3090094273701398
 20
-17.843248629185609
 30
0.0
  0
VERTEX
  5
13AA
  8
247
 10
4.3090094273701398
 20
-17.73287036380475
 30
0.0
  0
VERTEX
  5
13AB
  8
247
 10
6.7037317698612924
 20
-18.419550203892641
 30
0.0
  0
VERTEX
  5
13AC
  8
247
 10
6.7037317698612924
 20
-17.741556429478571
 30
0.0
  0
VERTEX
  5
13AD
  8
247
 10
3.975574368776392
 20
-16.95927264651959
 30
0.0
  0
SEQEND
  5
13AE
  8
247
  0
LINE
  5
13AF
  8
247
 10
6.7037317698612924
 20
-17.741556429478571
 30
0.0
 11
3.975574368776392
 21
-16.95927264651959
 31
0.0
  0
LINE
  5
13B0
  8
247
 10
5.8185085723045491
 20
-19.231466470346891
 30
0.0
 11
4.8245288963731241
 21
-18.237486794415471
 31
0.0
  0
ARC
  5
13B1
  8
247
 10
5.9459150975361572
 20
-19.337492251011781
 30
0.0
 40
0.7578163146972659
 50
0.0
 51
130.32984065416761
  0
LINE
  5
13B2
  8
247
 10
6.7037317698612924
 20
-18.419550203892641
 30
0.0
 11
4.3090094273701398
 21
-17.73287036380475
 31
0.0
  0
LINE
  5
13B3
  8
247
 10
6.7037317698612924
 20
-19.779930063363562
 30
0.0
 11
5.5914748300036168
 21
-18.667673123505882
 31
0.0
  0
ARC
  5
13B4
  8
247
 10
5.9155996983662371
 20
-19.675676607701231
 30
0.0
 40
0.4546969681978227
 50
351.66285421114878
 51
156.33819215911009
  0
LINE
  5
13B5
  8
247
 10
5.4991289054677841
 20
-19.49318986420797
 30
0.0
 11
6.365491445909468
 21
-19.74160648242303
 31
0.0
  0
LINE
  5
13B6
  8
247
 10
5.964271420778342
 20
-16.504656099888731
 30
0.0
 11
4.5395621007099836
 21
-16.096124910923891
 31
0.0
1001
ACAD
1000
ASC_BOUNDS
1002
{
1070
    19
1005
13D4
1002
}
  0
LINE
  5
13B7
  8
247
 10
4.2787054722920148
 20
-20.75448825320904
 30
0.0
 11
4.2787054722920148
 21
-20.21540286502545
 31
0.0
1001
ACAD
1000
ASC_BOUNDS
1002
{
1070
    19
1005
13CF
1002
}
  0
LINE
  5
13B8
  8
247
 10
3.975574368776392
 20
-20.75448825320904
 30
0.0
 11
3.975574368776392
 21
-20.128484987828191
 31
0.0
1001
ACAD
1000
ASC_BOUNDS
1002
{
1070
    19
1005
13CF
1002
}
  0
LINE
  5
13B9
  8
247
 10
3.975574368776392
 20
-20.128484987828191
 30
0.0
 11
4.2787054722920148
 21
-20.21540286502545
 31
0.0
1001
ACAD
1000
ASC_BOUNDS
1002
{
1070
    19
1005
13CF
1002
}
  0
LINE
  5
13BA
  8
247
 10
3.975574368776392
 20
-19.97081973514247
 30
0.0
 11
4.2787054722920148
 21
-20.05773761234024
 31
0.0
  0
LINE
  5
13BB
  8
247
 10
4.2787054722920148
 20
-20.05773761234024
 30
0.0
 11
4.2787054722929261
 21
-19.9000609155629
 31
0.0
  0
ARC
  5
13BC
  8
247
 10
5.5670012181416251
 20
-20.75448825320904
 30
0.0
 40
1.591426849365233
 50
180.0
 51
0.0
1001
ACAD
1000
ASC_BOUNDS
1002
{
1070
    19
1005
13CF
1002
}
  0
ARC
  5
13BD
  8
247
 10
5.5670012181416251
 20
-20.75448825320904
 30
0.0
 40
1.2882957458496069
 50
180.0
 51
0.0
1001
ACAD
1000
ASC_BOUNDS
1002
{
1070
    19
1005
13CF
1002
}
  0
LINE
  5
13BE
  8
247
 10
6.7037317698612924
 20
-20.595426821324221
 30
0.0
 11
4.2787054722929261
 21
-19.9000609155629
 31
0.0
  0
LINE
  5
13BF
  8
247
 10
5.0142068712069081
 20
-20.110962791949699
 30
0.0
 11
3.9755743687765039
 21
-19.07233028951935
 31
0.0
  0
LINE
  5
13C0
  8
247
 10
4.542061644989813
 20
-19.975577170272729
 30
0.0
 11
3.9755743687765039
 21
-19.40908989405937
 31
0.0
  0
LINE
  5
13C1
  8
247
 10
4.2787054722920734
 20
-20.04898060211508
 30
0.0
 11
3.975574368776448
 21
-19.745849498599451
 31
0.0
  0
LINE
  5
13C2
  8
247
 10
3.975574368776392
 20
-19.97081973514247
 30
0.0
 11
3.9755743687765039
 21
-18.992932857957889
 31
0.0
  0
LINE
  5
13C3
  8
247
 10
6.7037317698612924
 20
-20.1166896679037
 30
0.0
 11
6.313837613489679
 21
-19.726795511532028
 31
0.0
  0
LINE
  5
13C4
  8
247
 10
5.4863520974239472
 20
-20.246348413626659
 30
0.0
 11
4.4252673618711906
 21
-19.185263678073891
 31
0.0
  0
LINE
  5
13C5
  8
247
 10
5.9584973236410379
 20
-20.38173403530368
 30
0.0
 11
4.8974081193812227
 21
-19.320644831043801
 31
0.0
  0
LINE
  5
13C6
  8
247
 10
6.7037317698612924
 20
-20.595426821324221
 30
0.0
 11
6.7037317698612924
 21
-19.337492251011781
 31
0.0
  0
LINE
  5
13C7
  8
247
 10
6.7037317698612924
 20
-20.45344927244377
 30
0.0
 11
5.841699363177665
 21
-19.591416865760081
 31
0.0
  0
LINE
  5
13C8
  8
247
 10
6.4306425498581321
 20
-20.51711965698064
 30
0.0
 11
5.1480630784356531
 21
-19.234540185558139
 31
0.0
  0
LINE
  5
13C9
  8
240
 10
0.0
 20
-15.875
 30
0.0
 11
1.0
 21
-15.875
 31
0.0
  0
ARC
  5
13CA
  8
240
  6
CONTINUOUS
 10
1.5
 20
-22.5
 30
0.0
 40
0.5
 50
179.99999999485399
 51
269.99999999485408
1001
GRPNAME
1000
PASTMD03
  0
LINE
  5
13CB
  8
240
  6
CONTINUOUS
 10
1.0
 20
-22.5
 30
0.0
 11
1.0000000000000271
 21
-15.874999999998909
 31
0.0
1001
GRPNAME
1000
PASTMD03
  0
LINE
  5
13CC
  8
240
  6
CONTINUOUS
 10
-47.97215511479645
 20
-8.8788955190539127
 30
0.0
 11
0.0
 21
-15.875
 31
0.0
1001
GRPNAME
1000
PASTMD03
  0
LINE
  5
13CD
  8
241
  6
CONTINUOUS
 10
1.0
 20
0.0
 30
0.0
 11
1.0
 21
-15.875
 31
0.0
1001
GRPNAME
1000
PASTMD03
  0
LINE
  5
13CE
  8
241
  6
CONTINUOUS
 10
0.0
 20
-15.875
 30
0.0
 11
0.0
 21
0.0
 31
0.0
1001
GRPNAME
1000
PASTMD03
  0
INSERT
  5
13CF
  8
247
  6
CONTINUOUS
  2
*X6
 10
0.0
 20
0.0
 30
0.0
1001
ACAD
1000
HATCH
1002
{
1070
    19
1000
ANSI31
1040
0.075
1040
1.5707963267948939
1000
ASC_BOUNDS
1070
     1
1070
     2
1070
    10
1005
135D
1005
13D9
1005
13D2
1005
13D0
1005
13D1
1005
13BC
1005
13BD
1005
13B7
1005
13B8
1005
13B9
1000
ASC_SEEDPOINT
1011
18.970920914949481
1021
3.1050376999025323E+231
1031
0.0
1021
-112.1959050889939
1031
0.0
1000
R14_HATCH_DATA
1000
13CF
1011
1.0
1021
3.1050376999025323E+231
1031
0.0
1021
0.0
1031
0.0
1011
0.0
1021
3.1050376999025323E+231
1031
0.0
1021
1.0
1031
0.0
1011
0.0
1021
3.1050376999025323E+231
1031
0.0
1021
0.0
1031
1.0
1040
0.0
1010
0.0
1020
0.0
1030
1.0
1000
ANSI31
1070
     0
1070
     1
1071
        1
1071
       33
1071
       10
1070
     1
1040
3.975574368776392
1040
-20.128484987828191
1040
4.2787054722920148
1040
-20.21540286502545
1070
     1
1040
3.975574368776392
1040
-20.75448825320904
1040
3.975574368776392
1040
-20.128484987828191
1070
     1
1040
4.2787054722920148
1040
-20.75448825320904
1040
4.2787054722920148
1040
-20.21540286502545
1070
     2
1040
5.5670012181416251
1040
-20.75448825320904
1040
1.2882957458496069
1040
3.1415926535897909
1040
6.2831853071795836
1070
     1
1070
     2
1040
5.5670012181416251
1040
-20.75448825320904
1040
1.591426849365233
1040
3.1415926535897909
1040
6.2831853071795836
1070
     1
1070
     1
1040
7.158428417333309
1040
-20.75448825320904
1040
7.158428417333309
1040
-14.600965761753971
1070
     1
1040
6.8552973216191031
1040
-20.75448825320904
1040
6.8552973216191031
1040
-14.600965761753971
1070
     2
1040
5.5670012181416251
1040
-14.600965761753971
1040
1.591426849365233
1040
0.0
1040
3.399391641431841
1070
     1
1070
     2
1040
5.5670012181416251
1040
-14.600965761753971
1040
1.2882957458496069
1040
0.0
1040
3.38816293531859
1070
     1
1070
     1
1040
4.3176611607685791
1040
-14.9154150720567
1040
4.0281599705830331
1040
-15.006704592320361
1071
       10
1005
13B9
1005
13B8
1005
13B7
1005
13BD
1005
13BC
1005
13D1
1005
13D0
1005
13D2
1005
13D9
1005
135D
1070
     0
1070
     1
1040
1.5707963267948939
1040
0.075
1070
     0
1070
     1
1040
2.3561944901923431
1040
18.970920914949481
1040
-112.1959050889939
1040
-0.1683798022700466
1040
-0.1683798022700466
1070
     0
1071
        1
1040
18.970920914949481
1040
-112.1959050889939
1040
0.0
1002
}
  0
LINE
  5
13D0
  8
247
 10
6.8552973216191031
 20
-20.75448825320904
 30
0.0
 11
6.8552973216191031
 21
-14.600965761753971
 31
0.0
1001
ACAD
1000
ASC_BOUNDS
1002
{
1070
    19
1005
13CF
1002
}
  0
LINE
  5
13D1
  8
247
 10
7.158428417333309
 20
-20.75448825320904
 30
0.0
 11
7.158428417333309
 21
-14.600965761753971
 31
0.0
1001
ACAD
1000
ASC_BOUNDS
1002
{
1070
    19
1005
13CF
1002
}
  0
ARC
  5
13D2
  8
247
 10
5.5670012181416251
 20
-14.600965761753971
 30
0.0
 40
1.591426849365233
 50
0.0
 51
194.77079396609381
1001
ACAD
1000
ASC_BOUNDS
1002
{
1070
    19
1005
13CF
1002
}
  0
ARC
  5
13D3
  8
247
 10
5.7185667698994358
 20
-16.166151308628962
 30
0.0
 40
0.9851760864257813
 50
253.99975070172931
 51
34.963873291630819
1001
ACAD
1000
ASC_BOUNDS
1002
{
1070
    19
1005
13D4
1002
}
  0
INSERT
  5
13D4
  8
247
  6
CONTINUOUS
  2
*X7
 10
0.0
 20
0.0
 30
0.0
1001
ACAD
1000
HATCH
1002
{
1070
    19
1000
ANSI31
1040
0.075
1040
1.5707963267948939
1000
ASC_BOUNDS
1070
     1
1070
     2
1070
    15
1005
1378
1005
13D5
1005
139C
1005
13D3
1005
135C
1005
1379
1005
13D7
1005
139D
1005
13D8
1005
13DA
1005
1391
1005
13B6
1005
13D6
1005
1376
1005
1377
1000
ASC_SEEDPOINT
1011
18.970920914949481
1021
3.1050376999025323E+231
1031
0.0
1021
-112.1959050889939
1031
0.0
1000
R14_HATCH_DATA
1000
13D4
1011
1.0
1021
3.1050376999025323E+231
1031
0.0
1021
0.0
1031
0.0
1011
0.0
1021
3.1050376999025323E+231
1031
0.0
1021
1.0
1031
0.0
1011
0.0
1021
3.1050376999025323E+231
1031
0.0
1021
0.0
1031
1.0
1040
0.0
1010
0.0
1020
0.0
1030
1.0
1000
ANSI31
1070
     0
1070
     1
1071
        1
1071
       33
1071
       15
1070
     1
1040
4.3632429783955331
1040
-15.059965395543029
1040
4.0737417882099836
1040
-15.1512549158067
1070
     2
1040
5.5670012181416251
1040
-14.600965761753971
1040
1.288299322128293
1040
3.50588097603615
1040
3.8840897327625181
1070
     1
1070
     2
1040
4.6273039525166251
1040
-15.79016711673443
1040
0.3182875066995621
1040
1.6006435755206461
1040
4.4331083460772751
1070
     1
1070
     1
1040
5.964271420778342
1040
-16.504656099888731
1040
4.5395621007099836
1040
-16.096124910923891
1070
     2
1040
6.0520018284931858
1040
-16.198698305699281
1040
0.3182872831821442
1040
4.4331410658125074
1040
7.5747337194022979
1070
     1
1070
     1
1040
6.1397322362080322
1040
-15.892740511509819
1040
5.4609030430927961
1040
-15.698087954136779
1070
     1
1040
5.4609030430927961
1040
-15.95036151370709
1040
5.4609030430927961
1040
-15.698087954136779
1070
     1
1040
5.4609030430927961
1040
-15.95036151370709
1040
5.1577719395771711
1040
-15.863443636509819
1070
     1
1040
5.1577719395771711
1040
-15.863443636509819
1040
5.1577719395771711
1040
-14.98047473392193
1070
     1
1040
6.7037317698612924
1040
-15.42377307376568
1040
5.1577719395771711
1040
-14.98047473392193
1070
     1
1040
6.525924915613242
1040
-15.601591372105521
1040
6.7037317698612924
1040
-15.42377307376568
1070
     2
1040
5.7185667698994358
1040
-16.166151308628962
1040
0.9851760864257813
1040
4.433131948989951
1040
6.8934200153686511
1070
     1
1070
     2
1040
5.770362729372092
1040
-14.555441164586
1040
2.5780792236328121
1040
4.279637688040407
1040
4.586634970243284
1070
     1
1070
     2
1040
4.9607390111103751
1040
-15.948850893589899
1040
0.9851660728454588
1040
2.5035703051095641
1040
4.4331395182378071
1070
     1
1070
     2
1040
5.5670012181416251
1040
-14.600965761753971
1040
1.591427564620969
1040
3.4946665664545442
1040
3.640262698164241
1070
     1
1071
       15
1005
1377
1005
1376
1005
13D6
1005
13B6
1005
1391
1005
13DA
1005
13D8
1005
139D
1005
13D7
1005
1379
1005
135C
1005
13D3
1005
139C
1005
13D5
1005
1378
1070
     0
1070
     1
1040
1.5707963267948939
1040
0.075
1070
     0
1070
     1
1040
2.3561944901923431
1040
18.970920914949481
1040
-112.1959050889939
1040
-0.1683798022700466
1040
-0.1683798022700466
1070
     0
1071
        1
1040
18.970920914949481
1040
-112.1959050889939
1040
0.0
1002
}
  0
ARC
  5
13D5
  8
247
 10
4.9607390111103751
 20
-15.948850893589899
 30
0.0
 40
0.9851660728454588
 50
143.44401219705779
 51
254.00018438768541
1001
ACAD
1000
ASC_BOUNDS
1002
{
1070
    19
1005
13D4
1002
}
  0
ARC
  5
13D6
  8
247
 10
4.6273039525166251
 20
-15.79016711673443
 30
0.0
 40
0.3182875066995621
 50
91.710121382062695
 51
253.9983983544486
1001
ACAD
1000
ASC_BOUNDS
1002
{
1070
    19
1005
13D4
1002
}
  0
LINE
  5
13D7
  8
247
 10
5.1577719395771711
 20
-15.863443636509819
 30
0.0
 11
5.1577719395771711
 21
-14.98047473392193
 31
0.0
1001
ACAD
1000
ASC_BOUNDS
1002
{
1070
    19
1005
13D4
1002
}
  0
LINE
  5
13D8
  8
247
 10
5.4609030430927961
 20
-15.95036151370709
 30
0.0
 11
5.4609030430927961
 21
-15.698087954136779
 31
0.0
1001
ACAD
1000
ASC_BOUNDS
1002
{
1070
    19
1005
13D4
1002
}
  0
ARC
  5
13D9
  8
247
 10
5.5670012181416251
 20
-14.600965761753971
 30
0.0
 40
1.2882957458496069
 50
0.0
 51
194.1274364964118
1001
ACAD
1000
ASC_BOUNDS
1002
{
1070
    19
1005
13CF
1002
}
  0
LINE
  5
13DA
  8
247
 10
6.1397322362080322
 20
-15.892740511509819
 30
0.0
 11
5.4609030430927961
 21
-15.698087954136779
 31
0.0
1001
ACAD
1000
ASC_BOUNDS
1002
{
1070
    19
1005
13D4
1002
}
  0
LINE
  5
13DB
  8
245
  6
CENTER2
 10
50.510547398656968
 20
0.0
 30
0.0
 11
-52.563449332594779
 21
0.0
 31
0.0
1001
GRPNAME
1000
PASTMD03
  0
LINE
  5
13DC
  8
240
  6
CONTINUOUS
 10
9.4367253438732082
 20
-23.0
 30
0.0
 11
1.5
 21
-23.0
 31
0.0
1001
GRPNAME
1000
PASTMD03
  0
LINE
  5
13DD
  8
240
  6
CONTINUOUS
 10
1.5
 20
23.0
 30
0.0
 11
9.4367253438731495
 21
23.0
 31
0.0
1001
GRPNAME
1000
PASTMD03
  0
LINE
  5
13DE
  8
243
  6
HIDDEN2
 10
19.0
 20
16.300000000000001
 30
0.0
 11
1.0
 21
16.300000000000001
 31
0.0
1001
GRPNAME
1000
PASTMD03
  0
LINE
  5
13DF
  8
243
  6
HIDDEN2
 10
19.0
 20
-16.300000000000001
 30
0.0
 11
1.0
 21
-16.300000000000001
 31
0.0
1001
GRPNAME
1000
PASTMD03
  0
ENDBLK
  5
13E2
  8
0
  0
BLOCK
  8
0
  2
*X5
 70
     1
 10
0.0
 20
0.0
 30
0.0
  3
*X5
  1

  0
LINE
  5
146E
  8
0
 62
     0
 10
6.7037317698612968
 20
-17.75937243612298
 30
0.0
 11
6.678753338614789
 21
-17.734394004876471
 31
0.0
  0
LINE
  5
146F
  8
0
 62
     0
 10
6.7037317698612968
 20
-18.096132040663051
 30
0.0
 11
6.206609002541561
 21
-17.599009273343331
 31
0.0
  0
LINE
  5
1470
  8
0
 62
     0
 10
6.6850267039496361
 20
-18.41418657929151
 30
0.0
 11
5.7344646664683321
 21
-17.463624541810201
 31
0.0
  0
LINE
  5
1471
  8
0
 62
     0
 10
6.2128805202885564
 20
-18.278800000170531
 30
0.0
 11
5.2623203303950961
 21
-17.328239810277061
 31
0.0
  0
LINE
  5
1472
  8
0
 62
     0
 10
5.740734336627475
 20
-18.143413421049541
 30
0.0
 11
4.790175994321868
 21
-17.192855078743939
 31
0.0
  0
LINE
  5
1473
  8
0
 62
     0
 10
5.2685881529663918
 20
-18.008026841928551
 30
0.0
 11
4.3180316582486258
 21
-17.057470347210771
 31
0.0
  0
LINE
  5
1474
  8
0
 62
     0
 10
4.7964419693053131
 20
-17.87264026280755
 30
0.0
 11
3.9755743687763991
 21
-17.05177266227863
 31
0.0
  0
LINE
  5
1475
  8
0
 62
     0
 10
4.324295785644229
 20
-17.737253683686571
 30
0.0
 11
3.975574368776392
 21
-17.388532266818721
 31
0.0
  0
LINE
  5
1476
  8
0
 62
     0
 10
4.0068980866672703
 20
-17.756615589249691
 30
0.0
 11
3.975574368776392
 21
-17.725291871358831
 31
0.0
  0
ENDBLK
  5
1478
  8
0
  0
BLOCK
  8
0
  2
*X6
 70
     1
 10
0.0
 20
0.0
 30
0.0
  3
*X6
  1

  0
LINE
  5
147A
  8
0
 62
     0
 10
7.0734964946623151
 20
-14.08802190644287
 30
0.0
 11
6.0799450734527181
 21
-13.09447048523328
 31
0.0
  0
LINE
  5
147B
  8
0
 62
     0
 10
6.0590554732196864
 20
-13.41034048954034
 30
0.0
 11
5.661034411129461
 21
-13.012319427450119
 31
0.0
  0
LINE
  5
147C
  8
0
 62
     0
 10
7.155647552445477
 20
-14.506932568766141
 30
0.0
 11
6.7576264903552561
 21
-14.108911506675909
 31
0.0
  0
LINE
  5
147D
  8
0
 62
     0
 10
5.6259759559393787
 20
-13.314020576800131
 30
0.0
 11
5.3380495436986068
 21
-13.02609416455936
 31
0.0
  0
LINE
  5
147E
  8
0
 62
     0
 10
7.158428417333317
 20
-14.84647303819407
 30
0.0
 11
6.8539464030954704
 21
-14.54199102395623
 31
0.0
  0
LINE
  5
147F
  8
0
 62
     0
 10
5.3131278009331071
 20
-13.33793202633395
 30
0.0
 11
5.0657391572759281
 21
-13.090543382676771
 31
0.0
  0
LINE
  5
1480
  8
0
 62
     0
 10
7.158428417333317
 20
-15.18323264273416
 30
0.0
 11
6.855297321619096
 21
-14.88010154701994
 31
0.0
  0
LINE
  5
1481
  8
0
 62
     0
 10
5.056547995022318
 20
-13.418111824963249
 30
0.0
 11
4.8292886229631451
 21
-13.190852452904069
 31
0.0
  0
LINE
  5
1482
  8
0
 62
     0
 10
7.158428417333317
 20
-15.51999224727424
 30
0.0
 11
6.8552973216191111
 21
-15.21686115156003
 31
0.0
  0
LINE
  5
1483
  8
0
 62
     0
 10
4.839450773706095
 20
-13.537774208187139
 30
0.0
 11
4.622097202157339
 21
-13.32042063663839
 31
0.0
  0
LINE
  5
1484
  8
0
 62
     0
 10
7.158428417333309
 20
-15.856751851814341
 30
0.0
 11
6.855297321619096
 21
-15.553620756100139
 31
0.0
  0
LINE
  5
1485
  8
0
 62
     0
 10
4.6554794840366682
 20
-13.690562523057791
 30
0.0
 11
4.4411333924541694
 21
-13.476216431475301
 31
0.0
  0
LINE
  5
1486
  8
0
 62
     0
 10
7.1584284173333019
 20
-16.193511456354429
 30
0.0
 11
6.855297321619096
 21
-15.89038036064022
 31
0.0
  0
LINE
  5
1487
  8
0
 62
     0
 10
4.5029015335429721
 20
-13.87474417710418
 30
0.0
 11
4.2855068635490241
 21
-13.65734950711024
 31
0.0
  0
LINE
  5
1488
  8
0
 62
     0
 10
7.1584284173333019
 20
-16.53027106089452
 30
0.0
 11
6.855297321619096
 21
-16.22713996518031
 31
0.0
  0
LINE
  5
1489
  8
0
 62
     0
 10
4.3834737885903641
 20
-14.092076036691671
 30
0.0
 11
4.156120211031042
 21
-13.864722459132359
 31
0.0
  0
LINE
  5
148A
  8
0
 62
     0
 10
7.158428417333309
 20
-16.867030665434619
 30
0.0
 11
6.855297321619096
 21
-16.563899569720409
 31
0.0
  0
LINE
  5
148B
  8
0
 62
     0
 10
4.3035942851918563
 20
-14.34895613783327
 30
0.0
 11
4.0560222150364851
 21
-14.101384067677881
 31
0.0
  0
LINE
  5
148C
  8
0
 62
     0
 10
7.158428417333325
 20
-17.203790269974728
 30
0.0
 11
6.8552973216191031
 21
-16.900659174260522
 31
0.0
  0
LINE
  5
148D
  8
0
 62
     0
 10
4.280165714489355
 20
-14.662287171670849
 30
0.0
 11
3.991846769811827
 21
-14.37396822699332
 31
0.0
  0
LINE
  5
148E
  8
0
 62
     0
 10
7.158428417333317
 20
-17.540549874514799
 30
0.0
 11
6.8552973216191031
 21
-17.237418778800599
 31
0.0
  0
LINE
  5
148F
  8
0
 62
     0
 10
4.2255726374616307
 20
-14.9444536991832
 30
0.0
 11
3.978497524685769
 21
-14.69737858640735
 31
0.0
  0
LINE
  5
1490
  8
0
 62
     0
 10
7.158428417333317
 20
-17.877309479054901
 30
0.0
 11
6.855297321619096
 21
-17.57417838334068
 31
0.0
  0
LINE
  5
1491
  8
0
 62
     0
 10
7.158428417333317
 20
-18.214069083595
 30
0.0
 11
6.8552973216191111
 21
-17.910937987880779
 31
0.0
  0
LINE
  5
1492
  8
0
 62
     0
 10
7.158428417333317
 20
-18.550828688135081
 30
0.0
 11
6.8552973216191031
 21
-18.24769759242087
 31
0.0
  0
LINE
  5
1493
  8
0
 62
     0
 10
7.158428417333309
 20
-18.887588292675169
 30
0.0
 11
6.855297321619096
 21
-18.584457196960969
 31
0.0
  0
LINE
  5
1494
  8
0
 62
     0
 10
7.1584284173333019
 20
-19.224347897215271
 30
0.0
 11
6.855297321619096
 21
-18.921216801501071
 31
0.0
  0
LINE
  5
1495
  8
0
 62
     0
 10
7.158428417333309
 20
-19.56110750175538
 30
0.0
 11
6.855297321619096
 21
-19.257976406041159
 31
0.0
  0
LINE
  5
1496
  8
0
 62
     0
 10
7.158428417333309
 20
-19.897867106295461
 30
0.0
 11
6.855297321619096
 21
-19.59473601058124
 31
0.0
  0
LINE
  5
1497
  8
0
 62
     0
 10
7.158428417333317
 20
-20.23462671083556
 30
0.0
 11
6.8552973216191031
 21
-19.931495615121332
 31
0.0
  0
LINE
  5
1498
  8
0
 62
     0
 10
7.158428417333317
 20
-20.571386315375651
 30
0.0
 11
6.8552973216191031
 21
-20.26825521966143
 31
0.0
  0
LINE
  5
1499
  8
0
 62
     0
 10
7.151636757588931
 20
-20.90135426017137
 30
0.0
 11
6.8552973216191111
 21
-20.60501482420155
 31
0.0
  0
LINE
  5
149A
  8
0
 62
     0
 10
7.0989663153247662
 20
-21.185443422447278
 30
0.0
 11
6.8433141794720358
 21
-20.929791286594561
 31
0.0
  0
LINE
  5
149B
  8
0
 62
     0
 10
7.0075686641629078
 20
-21.430805375825521
 30
0.0
 11
6.7760685333112463
 21
-21.199305244973861
 31
0.0
  0
LINE
  5
149C
  8
0
 62
     0
 10
6.8855690202141391
 20
-21.645565336416858
 30
0.0
 11
6.6662779918717421
 21
-21.426274308074468
 31
0.0
  0
LINE
  5
149D
  8
0
 62
     0
 10
6.736760689670068
 20
-21.833516610412879
 30
0.0
 11
6.5221991393196461
 21
-21.618955060062461
 31
0.0
  0
LINE
  5
149E
  8
0
 62
     0
 10
6.5625517695212494
 20
-21.996067294804138
 30
0.0
 11
6.3466056410702052
 21
-21.780121166353091
 31
0.0
  0
LINE
  5
149F
  8
0
 62
     0
 10
6.3625336713116161
 20
-22.132808801134608
 30
0.0
 11
6.1387076710185129
 21
-21.908982800841521
 31
0.0
  0
LINE
  5
14A0
  8
0
 62
     0
 10
4.2787054722920148
 20
-20.385740206655122
 30
0.0
 11
4.0398923931046786
 21
-20.146927127467769
 31
0.0
  0
LINE
  5
14A1
  8
0
 62
     0
 10
6.134324109614254
 20
-22.241358843977348
 30
0.0
 11
5.8936502646298949
 21
-22.000684998992991
 31
0.0
  0
LINE
  5
14A2
  8
0
 62
     0
 10
4.2787054722920148
 20
-20.722499811195188
 30
0.0
 11
3.975574368776392
 21
-20.41936870767957
 31
0.0
  0
LINE
  5
14A3
  8
0
 62
     0
 10
5.8725191883813892
 20
-22.31631352728456
 30
0.0
 11
5.5986020311342273
 21
-22.042396370037402
 31
0.0
  0
LINE
  5
14A4
  8
0
 62
     0
 10
4.3284412706904947
 20
-21.10899521413376
 30
0.0
 11
3.975575214737304
 21
-20.75612915818056
 31
0.0
  0
LINE
  5
14A5
  8
0
 62
     0
 10
5.5653603131700731
 20
-22.34591425661333
 30
0.0
 11
5.2124942572168811
 21
-21.993048200660141
 31
0.0
  0
LINE
  5
14A6
  8
0
 62
     0
 10
5.1811061962427507
 20
-22.298419744226109
 30
0.0
 11
4.0230697271245361
 21
-21.14038327510789
 31
0.0
  0
ENDBLK
  5
14A8
  8
0
  0
BLOCK
  8
0
  2
*X7
 70
     1
 10
0.0
 20
0.0
 30
0.0
  3
*X7
  1

  0
LINE
  5
14AA
  8
0
 62
     0
 10
6.5462159713573831
 20
-15.58129901037851
 30
0.0
 11
6.262035137144939
 21
-15.29711817616607
 31
0.0
  0
LINE
  5
14AB
  8
0
 62
     0
 10
6.6991349101305859
 20
-16.070977553691801
 30
0.0
 11
5.7898894917271209
 21
-15.161732135288331
 31
0.0
  0
LINE
  5
14AC
  8
0
 62
     0
 10
6.219359883042455
 20
-15.92796213114377
 30
0.0
 11
5.3177438463092912
 21
-15.0263460944106
 31
0.0
  0
LINE
  5
14AD
  8
0
 62
     0
 10
6.6786188808784521
 20
-16.38722112897976
 30
0.0
 11
6.3227380030486913
 21
-16.031340251149999
 31
0.0
  0
LINE
  5
14AE
  8
0
 62
     0
 10
5.7298443391896381
 20
-15.77520619183103
 30
0.0
 11
5.1577719395771711
 21
-15.203133792218591
 31
0.0
  0
LINE
  5
14AF
  8
0
 62
     0
 10
6.5866415214837319
 20
-16.632003374125151
 30
0.0
 11
6.3219548466111251
 21
-16.367316699252541
 31
0.0
  0
LINE
  5
14B0
  8
0
 62
     0
 10
5.4609030430928112
 20
-15.8430245002743
 30
0.0
 11
5.157771939577187
 21
-15.53989339675868
 31
0.0
  0
LINE
  5
14B1
  8
0
 62
     0
 10
6.4471536166610974
 20
-16.829275073842592
 30
0.0
 11
6.1261152153277481
 21
-16.508236672509241
 31
0.0
  0
LINE
  5
14B2
  8
0
 62
     0
 10
4.3779572504249611
 20
-15.09683831214654
 30
0.0
 11
4.346396574843479
 21
-15.06527763656506
 31
0.0
  0
LINE
  5
14B3
  8
0
 62
     0
 10
6.2662087174549512
 20
-16.98508977917653
 30
0.0
 11
5.7140146477571454
 21
-16.432895709478721
 31
0.0
  0
LINE
  5
14B4
  8
0
 62
     0
 10
4.4623304297389028
 20
-15.517971096000579
 30
0.0
 11
4.0903706171572738
 21
-15.146011283418961
 31
0.0
  0
LINE
  5
14B5
  8
0
 62
     0
 10
6.0413184896899468
 20
-17.09695915595162
 30
0.0
 11
5.2418685421429672
 21
-16.297509208404641
 31
0.0
  0
LINE
  5
14B6
  8
0
 62
     0
 10
4.3189336233139359
 20
-15.71133389411572
 30
0.0
 11
4.091951118779197
 21
-15.484351389580979
 31
0.0
  0
LINE
  5
14B7
  8
0
 62
     0
 10
5.7581323101451121
 20
-17.150532580946891
 30
0.0
 11
4.7697224365288147
 21
-16.162122707330582
 31
0.0
  0
LINE
  5
14B8
  8
0
 62
     0
 10
5.3736556134222271
 20
-17.102815488764101
 30
0.0
 11
4.0003098836525597
 21
-15.729469758994419
 31
0.0
  0
LINE
  5
14B9
  8
0
 62
     0
 10
4.9250942375133109
 20
-16.991013717395269
 30
0.0
 11
3.9804070854300511
 21
-16.046326565312011
 31
0.0
  0
ENDBLK
  5
14BB
  8
0
  0
ENDSEC
  0
SECTION
  2
ENTITIES
  0
TEXT
  5
827
  8
241
 10
-63.0
 20
63.0
 30
0.0
 40
5.0
  1
BBT30-NBS10-45
  7
YOKO
 11
-63.0
 21
63.0
 31
0.0
 73
     1
  0
LINE
  5
115B
  8
250
 10
2.2299999999999711
 20
42.0
 30
0.0
 11
19.77
 21
42.0
 31
0.0
  0
LINE
  5
115F
  8
250
 10
22.0
 20
22.700000000000038
 30
0.0
 11
22.0
 21
43.0
 31
0.0
  0
LINE
  5
1161
  8
250
 10
24.23
 20
42.0
 30
0.0
 11
42.770000000000003
 21
42.0
 31
0.0
  0
LINE
  5
1165
  8
250
 10
-0.0000000000000284
 20
16.375
 30
0.0
 11
-0.0000000000000263
 21
50.0
 31
0.0
  0
LINE
  5
1166
  8
250
 10
45.0
 20
9.5928932188133995
 30
0.0
 11
45.0
 21
50.0
 31
0.0
  0
LINE
  5
1167
  8
250
 10
2.2299999999999711
 20
49.0
 30
0.0
 11
42.770000000000003
 21
49.0
 31
0.0
  0
LINE
  5
116B
  8
250
 10
45.499999999999929
 20
-5.0
 30
0.0
 11
57.0
 21
-5.0
 31
0.0
  0
LINE
  5
116C
  8
250
 10
45.499999999999929
 20
5.0
 30
0.0
 11
57.0
 21
4.9999999999999929
 31
0.0
  0
LINE
  5
116D
  8
250
 10
56.0
 20
-2.7700000000000031
 30
0.0
 11
56.0
 21
2.769999999999996
 31
0.0
  0
LINE
  5
1171
  8
250
 10
44.310050506338712
 20
-15.0
 30
0.0
 11
64.0
 21
-15.0
 31
0.0
  0
LINE
  5
1172
  8
250
 10
44.310050506338712
 20
15.0
 30
0.0
 11
64.0
 21
14.999999999999989
 31
0.0
  0
LINE
  5
1173
  8
250
 10
63.0
 20
-12.77
 30
0.0
 11
63.0
 21
12.769999999999991
 31
0.0
  0
LINE
  5
1177
  8
250
 10
4.9999999999998863
 20
-5.5
 30
0.0
 11
4.999999999999881
 21
-36.0
 31
0.0
  0
LINE
  5
1178
  8
250
 10
44.999999999999879
 20
-14.351471862576091
 30
0.0
 11
44.999999999999879
 21
-36.0
 31
0.0
  0
LINE
  5
1179
  8
250
 10
7.2299999999998841
 20
-35.0
 30
0.0
 11
42.769999999999889
 21
-35.0
 31
0.0
  0
TEXT
  5
1184
  8
250
 10
17.48571428571417
 20
-34.0
 30
0.0
 40
3.0
  1
35ü`45
1001
ACAD
1000
MTEXTBEGIN
1070
    73
1070
     1
1070
    44
1040
1.0
1070
    74
1070
     0
1000
MTEXTEND
  0
LINE
  5
1185
  8
250
 10
42.769999999999889
 20
-34.62833333333333
 30
0.0
 11
44.999999999999879
 21
-35.0
 31
0.0
  0
LINE
  5
1186
  8
250
 10
42.769999999999889
 20
-35.37166666666667
 30
0.0
 11
44.999999999999879
 21
-35.0
 31
0.0
  0
LINE
  5
1187
  8
250
 10
44.999999999999879
 20
-35.0
 30
0.0
 11
42.769999999999889
 21
-35.0
 31
0.0
  0
LINE
  5
1188
  8
250
 10
7.2299999999998832
 20
-35.37166666666667
 30
0.0
 11
4.999999999999881
 21
-35.0
 31
0.0
  0
LINE
  5
1189
  8
250
 10
7.2299999999998832
 20
-34.628333333333337
 30
0.0
 11
4.999999999999881
 21
-35.0
 31
0.0
  0
LINE
  5
118A
  8
250
 10
4.999999999999881
 20
-35.0
 30
0.0
 11
7.2299999999998832
 21
-35.0
 31
0.0
  0
TEXT
  5
118B
  8
250
 10
62.0
 20
-4.0714285714285667
 30
0.0
 40
3.0
  1
\U+2205
 50
90.0
1001
ACAD
1000
MTEXTBEGIN
1070
    73
1070
     1
1070
    44
1040
1.0
1070
    74
1070
     0
1000
MTEXTEND
  0
TEXT
  5
118C
  8
250
 10
62.0
 20
-1.3571428571428541
 30
0.0
 40
3.0
  1
30
 50
90.0
1001
ACAD
1000
MTEXTBEGIN
1070
    73
1070
     1
1070
    44
1040
1.0
1070
    74
1070
     0
1000
MTEXTEND
  0
LINE
  5
118D
  8
250
 10
62.62833333333333
 20
12.769999999999991
 30
0.0
 11
63.0
 21
14.999999999999989
 31
0.0
  0
LINE
  5
118E
  8
250
 10
63.37166666666667
 20
12.769999999999991
 30
0.0
 11
63.0
 21
14.999999999999989
 31
0.0
  0
LINE
  5
118F
  8
250
 10
63.0
 20
14.999999999999989
 30
0.0
 11
63.0
 21
12.769999999999991
 31
0.0
  0
LINE
  5
1190
  8
250
 10
63.37166666666667
 20
-12.77
 30
0.0
 11
63.0
 21
-15.0
 31
0.0
  0
LINE
  5
1191
  8
250
 10
62.62833333333333
 20
-12.77
 30
0.0
 11
63.0
 21
-15.0
 31
0.0
  0
LINE
  5
1192
  8
250
 10
63.0
 20
-15.0
 30
0.0
 11
63.0
 21
-12.77
 31
0.0
  0
LINE
  5
1193
  8
250
 10
55.62833333333333
 20
2.769999999999996
 30
0.0
 11
56.0
 21
4.9999999999999929
 31
0.0
  0
LINE
  5
1194
  8
250
 10
56.37166666666667
 20
2.769999999999996
 30
0.0
 11
56.0
 21
4.9999999999999929
 31
0.0
  0
LINE
  5
1195
  8
250
 10
56.0
 20
4.9999999999999929
 30
0.0
 11
56.0
 21
2.769999999999996
 31
0.0
  0
LINE
  5
1196
  8
250
 10
56.37166666666667
 20
-2.7700000000000031
 30
0.0
 11
56.0
 21
-5.0
 31
0.0
  0
LINE
  5
1197
  8
250
 10
55.62833333333333
 20
-2.7700000000000031
 30
0.0
 11
56.0
 21
-5.0
 31
0.0
  0
LINE
  5
1198
  8
250
 10
56.0
 20
-5.0
 30
0.0
 11
56.0
 21
-2.7700000000000031
 31
0.0
  0
TEXT
  5
1199
  8
250
 10
54.741671770104638
 20
-4.9176907874141129
 30
0.0
 40
3.0
  1
MAX.
 50
90.0
  0
TEXT
  5
119A
  8
250
 10
54.741671770104638
 20
5.36802349830017
 30
0.0
 40
3.0
  1
\U+2205
 50
90.0
  0
TEXT
  5
119B
  8
250
 10
54.741671770104638
 20
8.0823092125858835
 30
0.0
 40
3.0
  1
10
 50
90.0
  0
TEXT
  5
119C
  8
250
 10
19.642857142857132
 20
50.0
 30
0.0
 40
3.0
  1
45
1001
ACAD
1000
MTEXTBEGIN
1070
    73
1070
     1
1070
    44
1040
1.0
1070
    74
1070
     0
1000
MTEXTEND
  0
LINE
  5
119D
  8
250
 10
42.770000000000003
 20
49.37166666666667
 30
0.0
 11
45.0
 21
49.0
 31
0.0
  0
LINE
  5
119E
  8
250
 10
42.770000000000003
 20
48.62833333333333
 30
0.0
 11
45.0
 21
49.0
 31
0.0
  0
LINE
  5
119F
  8
250
 10
45.0
 20
49.0
 30
0.0
 11
42.770000000000003
 21
49.0
 31
0.0
  0
LINE
  5
11A0
  8
250
 10
2.2299999999999711
 20
48.62833333333333
 30
0.0
 11
-0.0000000000000264
 21
49.0
 31
0.0
  0
LINE
  5
11A1
  8
250
 10
2.2299999999999711
 20
49.371666666666663
 30
0.0
 11
-0.0000000000000264
 21
49.0
 31
0.0
  0
LINE
  5
11A2
  8
250
 10
-0.0000000000000264
 20
49.0
 30
0.0
 11
2.2299999999999711
 21
49.0
 31
0.0
  0
TEXT
  5
11A3
  8
250
 10
30.642857142857139
 20
43.0
 30
0.0
 40
3.0
  1
23
1001
ACAD
1000
MTEXTBEGIN
1070
    73
1070
     1
1070
    44
1040
1.0
1070
    74
1070
     0
1000
MTEXTEND
  0
LINE
  5
11A4
  8
250
 10
42.770000000000003
 20
42.371666666666663
 30
0.0
 11
45.0
 21
42.0
 31
0.0
  0
LINE
  5
11A5
  8
250
 10
42.770000000000003
 20
41.62833333333333
 30
0.0
 11
45.0
 21
42.0
 31
0.0
  0
LINE
  5
11A6
  8
250
 10
45.0
 20
42.0
 30
0.0
 11
42.770000000000003
 21
42.0
 31
0.0
  0
LINE
  5
11A7
  8
250
 10
24.23
 20
41.62833333333333
 30
0.0
 11
22.0
 21
42.0
 31
0.0
  0
LINE
  5
11A8
  8
250
 10
24.23
 20
42.371666666666663
 30
0.0
 11
22.0
 21
42.0
 31
0.0
  0
LINE
  5
11A9
  8
250
 10
22.0
 20
42.0
 30
0.0
 11
24.23
 21
42.0
 31
0.0
  0
TEXT
  5
11AA
  8
250
 10
8.1428571428571228
 20
43.0
 30
0.0
 40
3.0
  1
22
1001
ACAD
1000
MTEXTBEGIN
1070
    73
1070
     1
1070
    44
1040
1.0
1070
    74
1070
     0
1000
MTEXTEND
  0
LINE
  5
11AB
  8
250
 10
19.77
 20
42.371666666666663
 30
0.0
 11
22.0
 21
42.0
 31
0.0
  0
LINE
  5
11AC
  8
250
 10
19.77
 20
41.62833333333333
 30
0.0
 11
22.0
 21
42.0
 31
0.0
  0
LINE
  5
11AD
  8
250
 10
22.0
 20
42.0
 30
0.0
 11
19.77
 21
42.0
 31
0.0
  0
LINE
  5
11AE
  8
250
 10
2.2299999999999711
 20
41.62833333333333
 30
0.0
 11
-0.0000000000000268
 21
42.0
 31
0.0
  0
LINE
  5
11AF
  8
250
 10
2.2299999999999711
 20
42.371666666666663
 30
0.0
 11
-0.0000000000000268
 21
42.0
 31
0.0
  0
LINE
  5
11B0
  8
250
 10
-0.0000000000000268
 20
42.0
 30
0.0
 11
2.2299999999999711
 21
42.0
 31
0.0
  0
INSERT
  5
13E4
  8
240
  2
A$C74540587
 10
0.0
 20
0.0
 30
0.0
  0
VIEWPORT
  5
22
 67
     1
  8
0
 10
261.51769911504419
 20
148.5
 30
0.0
 40
523.0353982300885
 41
297.0
 68
     1
 69
     1
1001
ACAD
1000
MVIEW
1002
{
1070
    16
1010
0.0
1020
0.0
1030
0.0
1010
0.0
1020
0.0
1030
1.0
1040
0.0
1040
297.0
1040
261.51769911504419
1040
148.5
1040
50.0
1040
0.0
1040
0.0
1070
     0
1070
   100
1070
     1
1070
     1
1070
     0
1070
     0
1070
     0
1070
     0
1040
0.0
1040
0.0
1040
0.0
1040
1.0
1040
1.0
1040
10.0
1040
10.0
1070
     0
1002
{
1002
}
1002
}
1001
GENIUS_GENODEF_13
1002
{
1000
HIER
1070
     0
1002
}
1002
{
1000
MANEDIT
1070
     0
1002
}
1002
{
1000
NOSEL
1070
     0
1002
}
1002
{
1000
BEHIND
1070
     0
1002
}
1002
{
1000
OTHER
1070
     0
1002
}
1002
{
1000
REACTOR
1002
}
1001
GENIUS_GENOBJ-N-SDF_13
1002
{
1000
OWNER
1000
GEN
1002
}
1001
GENIUS_GENSCREG_15
1000
PF
1040
1.0
1000
DF
1040
1.0
1000
MIN
1011
0.0
1021
3.1050376999025323E+231
1031
0.0
1021
0.0
1031
0.0
1000
MAX
1011
523.0353982300885
1021
3.1050376999025323E+231
1031
0.0
1021
297.0
1031
0.0
1000
FLAGS
1070
     2
  0
ENDSEC
  0
EOF
