  0
SECTION
  2
HEADER
  9
$ACADVER
  1
AC1009
  9
$INSBASE
 10
0.0
 20
0.0
 30
0.0
  9
$EXTMIN
 10
-51.435513802869878
 20
-22.999999999999961
 30
0.0
  9
$EXTMAX
 10
95.003898610452808
 20
46.228994991233961
 30
0.0
  9
$LIMMIN
 10
0.0
 20
0.0
  9
$LIMMAX
 10
297.0
 20
210.0
  9
$ORTHOMODE
 70
     1
  9
$REGENMODE
 70
     1
  9
$FILLMODE
 70
     1
  9
$QTEXTMODE
 70
     0
  9
$MIRRTEXT
 70
     1
  9
$DRAGMODE
 70
     2
  9
$LTSCALE
 40
10.0
  9
$OSMODE
 70
    63
  9
$ATTMODE
 70
     1
  9
$TEXTSIZE
 40
3.0
  9
$TRACEWID
 40
1.0
  9
$TEXTSTYLE
  7
YOKO
  9
$CLAYER
  8
240
  9
$CELTYPE
  6
BYLAYER
  9
$CECOLOR
 62
   256
  9
$DIMSCALE
 40
1.0
  9
$DIMASZ
 40
2.2299999999999991
  9
$DIMEXO
 40
0.5
  9
$DIMDLI
 40
7.0
  9
$DIMRND
 40
0.0
  9
$DIMDLE
 40
0.0
  9
$DIMEXE
 40
1.0
  9
$DIMTP
 40
0.0
  9
$DIMTM
 40
0.01
  9
$DIMTXT
 40
2.799999999999998
  9
$DIMCEN
 40
0.0
  9
$DIMTSZ
 40
0.0
  9
$DIMTOL
 70
     0
  9
$DIMLIM
 70
     0
  9
$DIMTIH
 70
     0
  9
$DIMTOH
 70
     0
  9
$DIMSE1
 70
     0
  9
$DIMSE2
 70
     0
  9
$DIMTAD
 70
     3
  9
$DIMZIN
 70
     9
  9
$DIMBLK
  1
OPEN
  9
$DIMASO
 70
     1
  9
$DIMSHO
 70
     1
  9
$DIMPOST
  1

  9
$DIMAPOST
  1

  9
$DIMALT
 70
     0
  9
$DIMALTD
 70
     2
  9
$DIMALTF
 40
25.399999999999999
  9
$DIMLFAC
 40
1.0
  9
$DIMTOFL
 70
     1
  9
$DIMTVP
 40
0.0
  9
$DIMTIX
 70
     1
  9
$DIMSOXD
 70
     0
  9
$DIMSAH
 70
     0
  9
$DIMBLK1
  1

  9
$DIMBLK2
  1

  9
$DIMSTYLE
  2
BIGT
  9
$DIMCLRD
 70
   256
  9
$DIMCLRE
 70
   256
  9
$DIMCLRT
 70
    40
  9
$DIMTFAC
 40
1.0
  9
$DIMGAP
 40
1.0
  9
$LUNITS
 70
     2
  9
$LUPREC
 70
     3
  9
$SKETCHINC
 40
1.0
  9
$FILLETRAD
 40
1.0
  9
$AUNITS
 70
     0
  9
$AUPREC
 70
     3
  9
$MENU
  1
.
  9
$ELEVATION
 40
0.0
  9
$PELEVATION
 40
0.0
  9
$THICKNESS
 40
0.0
  9
$LIMCHECK
 70
     0
  9
$BLIPMODE
 70
     0
  9
$CHAMFERA
 40
0.25
  9
$CHAMFERB
 40
0.25
  9
$SKPOLY
 70
     0
  9
$TDCREATE
 40
2456496.545532512
  9
$TDUPDATE
 40
2457014.6952049192
  9
$TDINDWG
 40
0.0897260995
  9
$TDUSRTIMER
 40
0.0897257986
  9
$USRTIMER
 70
     1
  9
$ANGBASE
 50
0.0
  9
$ANGDIR
 70
     0
  9
$PDMODE
 70
     1
  9
$PDSIZE
 40
0.0
  9
$PLINEWID
 40
0.0
  9
$COORDS
 70
     1
  9
$SPLFRAME
 70
     0
  9
$SPLINETYPE
 70
     6
  9
$SPLINESEGS
 70
     4
  9
$ATTDIA
 70
     1
  9
$ATTREQ
 70
     1
  9
$HANDLING
 70
     1
  9
$HANDSEED
  5
2547
  9
$SURFTAB1
 70
     6
  9
$SURFTAB2
 70
     6
  9
$SURFTYPE
 70
     6
  9
$SURFU
 70
     6
  9
$SURFV
 70
     6
  9
$UCSNAME
  2

  9
$UCSORG
 10
0.0
 20
0.0
 30
0.0
  9
$UCSXDIR
 10
1.0
 20
0.0
 30
0.0
  9
$UCSYDIR
 10
0.0
 20
1.0
 30
0.0
  9
$PUCSNAME
  2

  9
$PUCSORG
 10
0.0
 20
0.0
 30
0.0
  9
$PUCSXDIR
 10
1.0
 20
0.0
 30
0.0
  9
$PUCSYDIR
 10
0.0
 20
1.0
 30
0.0
  9
$USERI1
 70
     1
  9
$USERI2
 70
     0
  9
$USERI3
 70
     0
  9
$USERI4
 70
     0
  9
$USERI5
 70
     0
  9
$USERR1
 40
0.0
  9
$USERR2
 40
0.0
  9
$USERR3
 40
0.0
  9
$USERR4
 40
0.0
  9
$USERR5
 40
0.0
  9
$WORLDVIEW
 70
     1
  9
$SHADEDGE
 70
     3
  9
$SHADEDIF
 70
    70
  9
$TILEMODE
 70
     1
  9
$MAXACTVP
 70
    16
  9
$PLIMCHECK
 70
     0
  9
$PEXTMIN
 10
1.0000000000000000E+020
 20
1.0000000000000000E+020
 30
1.0000000000000000E+020
  9
$PEXTMAX
 10
-1.0000000000000000E+020
 20
-1.0000000000000000E+020
 30
-1.0000000000000000E+020
  9
$PLIMMIN
 10
0.0
 20
0.0
  9
$PLIMMAX
 10
420.0
 20
297.0
  9
$UNITMODE
 70
     0
  9
$VISRETAIN
 70
     1
  9
$PLINEGEN
 70
     0
  9
$PSLTSCALE
 70
     1
  0
ENDSEC
  0
SECTION
  2
TABLES
  0
TABLE
  2
VPORT
 70
     1
  0
VPORT
  2
*ACTIVE
 70
     0
 10
0.0
 20
0.0
 11
1.0
 21
1.0
 12
21.787947378982569
 22
11.610873095395791
 13
0.0
 23
0.0
 14
7.0
 24
7.0
 15
7.0
 25
7.0
 16
0.0
 26
0.0
 36
1.0
 17
0.0
 27
0.0
 37
0.0
 40
105.8605372111882
 41
1.3899033297529531
 42
50.0
 43
0.0
 44
0.0
 50
0.0
 51
0.0
 71
     0
 72
  2000
 73
     1
 74
     0
 75
     0
 76
     0
 77
     0
 78
     0
  0
ENDTAB
  0
TABLE
  2
LTYPE
 70
    18
  0
LTYPE
  2
CONTINUOUS
 70
     0
  3
Solid line
 72
    65
 73
     0
 40
0.0
  0
LTYPE
  2
CENTER2
 70
     0
  3
___ _ ___ _ ___ _ ___ _ ___ _ ___ _ ___ _ ___ _
 72
    65
 73
     4
 40
1.125
 49
0.75
 49
-0.125
 49
0.125
 49
-0.125
  0
LTYPE
  2
HIDDEN2
 70
     0
  3
_ _ _ _ _ _ _ _ _ _ _ _ _ _ _ _ _ _ _ _ _ _ _ _
 72
    65
 73
     2
 40
0.1875
 49
0.125
 49
-0.0625
  0
LTYPE
  2
PHANTOM2
 70
     0
  3
___ _ _ ___ _ _ ___ _ _ ___ _ _ ___ _ _ ___ _ _
 72
    65
 73
     6
 40
1.25
 49
0.625
 49
-0.125
 49
0.125
 49
-0.125
 49
0.125
 49
-0.125
  0
LTYPE
  2
CENTER
 70
     0
  3
____ _ ____ _ ____ _ ____ _ ____ _ ____ _ ____ 
 72
    65
 73
     4
 40
2.0
 49
1.25
 49
-0.25
 49
0.25
 49
-0.25
  0
LTYPE
  2
AMCONSTR
 70
     0
  3
_______________________
 72
    65
 73
     2
 40
9999.0
 49
9999.0
 49
0.0
  0
LTYPE
  2
HIDDEN
 70
     0
  3
Hidden __ __ __ __ __ __ __ __ __ __ __ __ __ _
 72
    65
 73
     2
 40
9.5249999999999986
 49
6.349999999999997
 49
-3.174999999999998
  0
LTYPE
  2
AMZIGZAG2
 70
     0
  3
/\/-/\/-/\/-/\/-/\/-/\/
 72
    65
 73
     2
 40
0.4401
 49
0.0001
 49
-0.4400000000000003
  0
LTYPE
  2
ACANSTGB
 70
     0
  3
__ . . __ . .
 72
    65
 73
     6
 40
0.35433070866
 49
0.15748031496
 49
-0.03937007874
 49
0.03937007874
 49
-0.03937007874
 49
0.03937007874
 49
-0.03937007874
  0
LTYPE
  2
ACANSTGL
 70
     0
  3
_ _ _ _ _
 72
    65
 73
     2
 40
0.11811023622
 49
0.07874015748
 49
-0.03937007874
  0
ENDTAB
  0
TABLE
  2
LAYER
 70
     9
  0
LAYER
  2
0
 70
     0
 62
     7
  6
CONTINUOUS
  0
LAYER
  2
240
 70
     0
 62
     4
  6
CONTINUOUS
  0
LAYER
  2
DEFPOINTS
 70
     0
 62
     7
  6
CONTINUOUS
  0
LAYER
  2
245
 70
     0
 62
     2
  6
CENTER2
  0
LAYER
  2
241
 70
     0
 62
   211
  6
CONTINUOUS
  0
LAYER
  2
243
 70
     0
 62
   211
  6
HIDDEN2
  0
LAYER
  2
250
 70
     0
 62
     3
  6
CONTINUOUS
  0
LAYER
  2
242
 70
     0
 62
     3
  6
CONTINUOUS
  0
ENDTAB
  0
TABLE
  2
STYLE
 70
     9
  0
STYLE
  2
STANDARD
 70
     0
 40
0.0
 41
1.0
 50
0.0
 71
     0
 42
3.0
  3
romans.shx
  4
extfont.shx
  0
STYLE
  2
YOKO
 70
     0
 40
0.0
 41
1.0
 50
0.0
 71
     0
 42
3.0
  3
romans.shx
  4
extfont.shx
  0
STYLE
  2
ACANSGDT
 70
     0
 40
0.0
 41
1.0
 50
0.0
 71
     0
 42
3.0
  3
amgdt.shx
  4

  0
ENDTAB
  0
TABLE
  2
VIEW
 70
     0
  0
ENDTAB
  0
TABLE
  2
UCS
 70
     0
  0
ENDTAB
  0
TABLE
  2
APPID
 70
    42
  0
APPID
  2
ACAD
 70
     0
  0
APPID
  2
ACADANNOTATIVE
 70
     0
  0
APPID
  2
GLOBAL
 70
     0
  0
APPID
  2
DETAIL
 70
     0
  0
APPID
  2
GRPNAME
 70
     0
  0
APPID
  2
GPARA
 70
     0
  0
APPID
  2
MCAD_NO_VIS
 70
     0
  0
APPID
  2
ACAD_TEMP_GRAPHIC
 70
     0
  0
APPID
  2
ACATTRIBSERVICES
 70
     0
  0
APPID
  2
GENIUS_GENSCREG_15
 70
     0
  0
APPID
  2
GENIUS_GENODEF_13
 70
     0
  0
APPID
  2
GENIUS_GENOBJ-N-SDF_13
 70
     0
  0
APPID
  2
GENIUS_GENREC_14
 70
     0
  0
APPID
  2
GENIUS_GENOBJ-N-REC_13
 70
     0
  0
APPID
  2
GENIUS_GENDIMSH_14
 70
     0
  0
APPID
  2
GENIUS_GENOBJ-N-DIM_13
 70
     0
  0
APPID
  2
GENIUS_GENDIM_13
 70
     0
  0
APPID
  2
GENIUS_GENDTOL_13
 70
     0
  0
APPID
  2
GENIUS_GENOLIS_13
 70
     0
  0
APPID
  2
GENIUS_GENOENT_13
 70
     0
  0
APPID
  2
GENIUS_GENOBJ-F-FEM_13
 70
     0
  0
APPID
  2
GENIUS_GENOREF_13
 70
     0
  0
APPID
  2
GENIUS_GEFFEM_13
 70
     0
  0
APPID
  2
GENIUS_GEFFEMP_13
 70
     0
  0
APPID
  2
AD_DRAW
 70
     0
  0
APPID
  2
DESIGNERASSEMBLIES
 70
     0
  0
APPID
  2
ACADM_DIM_EDIT
 70
     0
  0
APPID
  2
AMDT_DM_ADJ
 70
     0
  0
APPID
  2
GENIUS_GENOBJ-N-FIL_13
 70
     0
  0
APPID
  2
GENIUS_GENFIL_13
 70
     0
  0
APPID
  2
GENIUS_GENOBJ-N-CHA_13
 70
     0
  0
APPID
  2
ACAD_PSEXT
 70
     0
  0
APPID
  2
ACAD_DSTYLE_DIMINSPECT
 70
     0
  0
APPID
  2
HATCH_TYPE
 70
     0
  0
APPID
  2
HATCH_DISPLAY
 70
     0
  0
APPID
  2
HATCH_DISTANCE
 70
     0
  0
APPID
  2
ACAD_DSTYLE_DIMBREAK
 70
     0
  0
APPID
  2
ACAD_DSTYLE_DIMJAG
 70
     0
  0
APPID
  2
ACAD_NAV_VCDISPLAY
 70
     0
  0
APPID
  2
ACAD_MLEADERVER
 70
     0
  0
APPID
  2
ITEMNAME
 70
     0
  0
APPID
  2
ACAD_EXEMPT_FROM_CAD_STANDARDS
 70
     0
  0
ENDTAB
  0
TABLE
  2
DIMSTYLE
 70
    19
  0
DIMSTYLE
  2
STANDARD
 70
     0
  3

  4

  5

  6

  7

 40
1.0
 41
0.18
 42
0.0625
 43
0.38
 44
0.18
 45
0.0
 46
0.0
 47
0.0
 48
0.0
140
0.18
141
0.09
142
0.0
143
25.399999999999999
144
1.0
145
0.0
146
1.0
147
0.09
 71
     0
 72
     0
 73
     1
 74
     1
 75
     0
 76
     0
 77
     0
 78
     0
170
     0
171
     2
172
     0
173
     0
174
     0
175
     0
176
     0
177
     0
178
     0
  0
DIMSTYLE
  2
BIGT
 70
     0
  3

  4

  5

  6

  7

 40
1.0
 41
2.2299999999999991
 42
0.5
 43
7.0
 44
1.0
 45
0.0
 46
0.0
 47
0.0
 48
0.01
140
2.799999999999998
141
0.0
142
0.0
143
25.399999999999999
144
1.0
145
0.0
146
1.0
147
1.0
 71
     0
 72
     0
 73
     0
 74
     0
 75
     0
 76
     0
 77
     3
 78
     9
170
     0
171
     2
172
     1
173
     0
174
     1
175
     0
176
   256
177
   256
178
    40
  0
DIMSTYLE
  2
AM_ANSI
 70
     0
  3

  4
mm
  5

  6

  7

 40
1.0
 41
0.1
 42
0.05
 43
0.5
 44
0.1
 45
0.0
 46
0.0
 47
0.1
 48
0.1
140
0.12
141
0.0
142
0.0
143
25.399999999999999
144
1.0
145
0.0
146
0.71
147
0.06
 71
     0
 72
     0
 73
     1
 74
     1
 75
     0
 76
     0
 77
     0
 78
     7
170
     0
171
     2
172
     0
173
     0
174
     0
175
     0
176
   256
177
   256
178
     2
  0
DIMSTYLE
  2
AM_ANSI$3
 70
     0
  3

  4
mm
  5

  6

  7

 40
1.0
 41
0.1
 42
0.05
 43
0.5
 44
0.1
 45
0.0
 46
0.0
 47
0.1
 48
0.1
140
0.12
141
0.0
142
0.0
143
25.399999999999999
144
1.0
145
0.0
146
0.71
147
0.06
 71
     0
 72
     0
 73
     1
 74
     1
 75
     0
 76
     0
 77
     0
 78
     7
170
     0
171
     2
172
     0
173
     0
174
     0
175
     0
176
   256
177
   256
178
     2
  0
DIMSTYLE
  2
AM_ANSI$4
 70
     0
  3

  4
mm
  5

  6

  7

 40
1.0
 41
0.1
 42
0.05
 43
0.5
 44
0.1
 45
0.0
 46
0.0
 47
0.1
 48
0.1
140
0.12
141
0.0
142
0.0
143
25.399999999999999
144
1.0
145
0.0
146
0.71
147
0.06
 71
     0
 72
     0
 73
     1
 74
     1
 75
     0
 76
     0
 77
     0
 78
     7
170
     0
171
     2
172
     0
173
     0
174
     0
175
     0
176
   256
177
   256
178
     2
  0
DIMSTYLE
  2
AM_ANSI$7
 70
     0
  3

  4
mm
  5

  6

  7

 40
1.0
 41
0.1
 42
0.05
 43
0.5
 44
0.1
 45
0.0
 46
0.0
 47
0.1
 48
0.1
140
0.24
141
0.0
142
0.0
143
25.399999999999999
144
1.0
145
0.0
146
0.71
147
0.06
 71
     0
 72
     0
 73
     1
 74
     1
 75
     0
 76
     0
 77
     0
 78
     7
170
     0
171
     2
172
     0
173
     0
174
     0
175
     0
176
   256
177
   256
178
     2
  0
DIMSTYLE
  2
AM_ANSI$SF
 70
     0
  3

  4
mm
  5

  6

  7

 40
1.0
 41
0.1
 42
0.05
 43
0.5
 44
0.1
 45
0.0
 46
0.0
 47
0.1
 48
0.1
140
0.12
141
0.0
142
0.0
143
25.399999999999999
144
1.0
145
0.0
146
0.71
147
0.06
 71
     0
 72
     0
 73
     1
 74
     1
 75
     1
 76
     1
 77
     0
 78
     7
170
     0
171
     2
172
     0
173
     0
174
     0
175
     0
176
   256
177
   256
178
     2
  0
DIMSTYLE
  2
AM_ANSI$SH
 70
     0
  3

  4
mm
  5

  6

  7

 40
1.0
 41
0.1
 42
0.05
 43
0.5
 44
0.1
 45
0.0
 46
0.0
 47
0.1
 48
0.1
140
0.12
141
0.0
142
0.0
143
25.399999999999999
144
1.0
145
0.0
146
0.71
147
0.06
 71
     0
 72
     0
 73
     1
 74
     1
 75
     1
 76
     1
 77
     0
 78
     7
170
     0
171
     2
172
     0
173
     1
174
     0
175
     0
176
   256
177
   256
178
     2
  0
ENDTAB
  0
ENDSEC
  0
SECTION
  2
BLOCKS
  0
BLOCK
  8
0
  2
$MODEL_SPACE
 70
     0
 10
0.0
 20
0.0
 30
0.0
  3
$MODEL_SPACE
  1

  0
ENDBLK
  5
2412
  8
0
  0
BLOCK
 67
     1
  8
0
  2
$PAPER_SPACE
 70
     0
 10
0.0
 20
0.0
 30
0.0
  3
$PAPER_SPACE
  1

  0
ENDBLK
  5
240E
 67
     1
  8
0
  0
BLOCK
  8
0
  2
_OPEN
 70
     0
 10
0.0
 20
0.0
 30
0.0
  3
_OPEN
  1

  0
LINE
  5
1BA9
  8
0
  6
BYBLOCK
 62
     0
 10
-1.0
 20
0.1666666666666666
 30
0.0
 11
0.0
 21
0.0
 31
0.0
  0
LINE
  5
1BAA
  8
0
  6
BYBLOCK
 62
     0
 10
-1.0
 20
-0.1666666666666666
 30
0.0
 11
0.0
 21
0.0
 31
0.0
  0
LINE
  5
1BAB
  8
0
  6
BYBLOCK
 62
     0
 10
0.0
 20
0.0
 30
0.0
 11
-1.0
 21
0.0
 31
0.0
  0
ENDBLK
  5
1BAC
  8
0
  0
BLOCK
  8
0
  2
_ACMFILLEDHALF
 70
     0
 10
0.0
 20
0.0
 30
0.0
  3
_ACMFILLEDHALF
  1

  0
TRACE
  5
1E6F
  8
240
 62
     0
 10
-0.8
 20
0.0
 30
0.0
 11
-1.0
 21
0.166666666
 31
0.0
 12
0.0
 22
0.0
 32
0.0
 13
0.0
 23
0.0
 33
0.0
  0
LINE
  5
1E70
  8
240
 62
     0
 10
-1.0
 20
0.0
 30
0.0
 11
-0.8
 21
0.0
 31
0.0
  0
ENDBLK
  5
1E6E
  8
0
  0
ENDSEC
  0
SECTION
  2
ENTITIES
  0
ARC
  5
15EB
  8
240
 10
-47.400000000000091
 20
7.9517585436262621
 30
0.0
 40
1.0
 50
98.297338160599296
 51
180.0
  0
LINE
  5
15EE
  8
243
 10
19.0
 20
16.30000000000005
 30
0.0
 11
1.0
 21
16.30000000000005
 31
0.0
  0
LINE
  5
15F2
  8
243
 10
19.0
 20
16.30000000000005
 30
0.0
 11
19.0
 21
22.999999999999979
 31
0.0
  0
ARC
  5
15F5
  8
240
 10
1.5
 20
22.499999999999979
 30
0.0
 40
0.5
 50
90.0
 51
180.0
  0
LINE
  5
15F6
  8
240
 10
22.000000000000249
 20
11.99999999999998
 30
0.0
 11
22.0
 21
22.200000000000021
 31
0.0
  0
LINE
  5
15F7
  8
240
 10
1.0
 20
15.87499999999998
 30
0.0
 11
1.0
 21
22.499999999999979
 31
0.0
  0
LINE
  5
15F8
  8
240
 10
1.5
 20
22.999999999999979
 30
0.0
 11
9.4367253438731495
 21
22.999999999999979
 31
0.0
  0
LINE
  5
15FE
  8
240
 10
-47.544310229592611
 20
8.941291038107785
 30
0.0
 11
0.0
 21
15.87499999999998
 31
0.0
  0
ARC
  5
15FF
  8
240
 10
21.200000000000269
 20
22.200000000000021
 30
0.0
 40
0.8000000000000112
 50
0.0
 51
90.0
  0
LINE
  5
1600
  8
240
 10
17.76327465612712
 20
22.999999999999979
 30
0.0
 11
21.200000000000269
 21
22.999999999999979
 31
0.0
  0
LINE
  5
1601
  8
240
 10
-48.400000000000098
 20
7.9517585436262621
 30
0.0
 11
-48.400000000000098
 21
-0.0000000000000213
 31
0.0
  0
LINE
  5
1602
  8
240
 10
17.518362671936458
 20
22.858599999999829
 30
0.0
 11
17.76327465612712
 21
22.999999999999979
 31
0.0
  0
LINE
  5
1603
  8
240
 10
9.4367253438731495
 20
22.999999999999979
 30
0.0
 11
9.6816373280635162
 21
22.858599999999999
 31
0.0
  0
LINE
  5
1604
  8
240
 10
11.900000000000089
 20
19.016283142591622
 30
0.0
 11
9.6816373280635162
 21
22.858599999999999
 31
0.0
  0
LINE
  5
1605
  8
240
 10
11.900000000000089
 20
18.999999999999961
 30
0.0
 11
15.30000000000018
 21
18.999999999999961
 31
0.0
  0
LINE
  5
1606
  8
240
 10
15.30000000000018
 20
19.016283142591622
 30
0.0
 11
17.518362671936458
 21
22.858599999999829
 31
0.0
  0
LINE
  5
1609
  8
241
 10
0.0
 20
-15.874999999999909
 30
0.0
 11
0.0
 21
15.87499999999998
 31
0.0
  0
LINE
  5
160C
  8
240
 10
15.30000000000018
 20
-19.016283142591551
 30
0.0
 11
17.518362671936458
 21
-22.858599999999761
 31
0.0
  0
LINE
  5
160D
  8
240
 10
11.900000000000089
 20
-18.999999999999911
 30
0.0
 11
15.30000000000018
 21
-18.999999999999911
 31
0.0
  0
LINE
  5
160E
  8
240
 10
11.900000000000089
 20
-19.016283142591551
 30
0.0
 11
9.6816373280635162
 21
-22.858599999999932
 31
0.0
  0
LINE
  5
160F
  8
240
 10
9.4367253438731495
 20
-22.999999999999911
 30
0.0
 11
9.6816373280635162
 21
-22.858599999999932
 31
0.0
  0
LINE
  5
1610
  8
240
 10
17.518362671936458
 20
-22.858599999999761
 30
0.0
 11
17.76327465612712
 21
-22.999999999999911
 31
0.0
  0
LINE
  5
1611
  8
240
 10
-48.400000000000098
 20
-7.9517585436261902
 30
0.0
 11
-48.400000000000098
 21
0.0000000000000924
 31
0.0
  0
LINE
  5
1612
  8
240
 10
17.76327465612712
 20
-22.999999999999911
 30
0.0
 11
21.200000000000269
 21
-22.999999999999911
 31
0.0
  0
ARC
  5
1613
  8
240
 10
21.200000000000269
 20
-22.19999999999995
 30
0.0
 40
0.8000000000000112
 50
270.0
 51
0.0
  0
LINE
  5
1614
  8
240
 10
-47.544310229592611
 20
-8.9412910381077122
 30
0.0
 11
0.0
 21
-15.874999999999909
 31
0.0
  0
LINE
  5
161A
  8
240
 10
1.5
 20
-22.999999999999911
 30
0.0
 11
9.4367253438731495
 21
-22.999999999999911
 31
0.0
  0
LINE
  5
161B
  8
240
 10
1.0
 20
-15.874999999999909
 30
0.0
 11
1.0
 21
-22.499999999999918
 31
0.0
  0
ARC
  5
161C
  8
240
 10
1.5
 20
-22.499999999999918
 30
0.0
 40
0.5
 50
180.0
 51
270.0
  0
LINE
  5
161F
  8
243
 10
19.0
 20
-16.299999999999962
 30
0.0
 11
19.0
 21
-22.999999999999911
 31
0.0
  0
LINE
  5
1623
  8
243
 10
19.0
 20
-16.299999999999962
 30
0.0
 11
1.0
 21
-16.299999999999962
 31
0.0
  0
ARC
  5
1626
  8
240
 10
-47.400000000000091
 20
-7.9517585436261902
 30
0.0
 40
1.0
 50
180.0
 51
261.70266183940072
  0
TEXT
  5
1629
  8
241
  6
CONTINUOUS
 10
-30.865684397863909
 20
42.228994991233918
 30
0.0
 40
4.0
  1
BBT30-MGT3-70
  7
YOKO
 11
-30.865684397863909
 21
42.228994991233918
 31
0.0
 73
     1
1001
GRPNAME
1000
0000002I
  0
LINE
  5
162A
  8
245
 10
-51.435513802869878
 20
-0.0000000000000213
 30
0.0
 11
71.862622030966335
 21
0.0000000000000355
 31
0.0
  0
LINE
  5
164F
  8
240
 10
34.99999999999725
 20
-9.9999999999999645
 30
0.0
 11
35.399999999997362
 21
-9.7690598923240568
 31
0.0
  0
LINE
  5
1650
  8
240
 10
36.199999999997097
 20
-9.9999999999999645
 30
0.0
 11
35.799999999997461
 21
-9.7690598923240568
 31
0.0
  0
ARC
  5
1651
  8
240
 10
35.599999999997181
 20
-10.11547005383769
 30
0.0
 40
0.4
 50
60.00000000000189
 51
119.99999999999631
1001
GENIUS_GENODEF_13
1002
{
1000
HIER
1070
     0
1002
}
1002
{
1000
MANEDIT
1070
     0
1002
}
1002
{
1000
NOSEL
1070
     0
1002
}
1002
{
1000
BEHIND
1070
     0
1002
}
1002
{
1000
OTHER
1070
     0
1002
}
1002
{
1000
REACTOR
1002
}
1001
GENIUS_GENOBJ-N-FIL_13
1002
{
1000
OWNER
1000
GEN
1002
}
  0
ARC
  5
1652
  8
240
 10
33.399999999997362
 20
-10.11547005383769
 30
0.0
 40
0.4
 50
60.00000000000189
 51
119.99999999999631
1001
GENIUS_GENODEF_13
1002
{
1000
HIER
1070
     0
1002
}
1002
{
1000
MANEDIT
1070
     0
1002
}
1002
{
1000
NOSEL
1070
     0
1002
}
1002
{
1000
BEHIND
1070
     0
1002
}
1002
{
1000
OTHER
1070
     0
1002
}
1002
{
1000
REACTOR
1002
}
1001
GENIUS_GENOBJ-N-FIL_13
1002
{
1000
OWNER
1000
GEN
1002
}
  0
LINE
  5
1653
  8
240
 10
33.999999999997272
 20
-9.9999999999999645
 30
0.0
 11
33.599999999997181
 21
-9.7690598923240568
 31
0.0
  0
LINE
  5
1654
  8
240
 10
32.799999999997453
 20
-9.9999999999999645
 30
0.0
 11
33.19999999999709
 21
-9.7690598923240568
 31
0.0
  0
LINE
  5
1655
  8
240
 10
33.999999999997272
 20
-9.9999999999999645
 30
0.0
 11
34.99999999999725
 21
-9.9999999999999645
 31
0.0
  0
LINE
  5
1656
  8
240
 10
36.199999999997097
 20
-9.9999999999999645
 30
0.0
 11
47.000000000000881
 21
-9.9999999999999645
 31
0.0
  0
LINE
  5
1657
  8
240
 10
36.19999999999753
 20
10.00000000000003
 30
0.0
 11
47.000000000000881
 21
9.9999999999995808
 31
0.0
  0
LINE
  5
1658
  8
240
 10
33.999999999997272
 20
10.00000000000003
 30
0.0
 11
34.99999999999725
 21
10.00000000000003
 31
0.0
  0
LINE
  5
1664
  8
240
 10
32.799999999997453
 20
10.00000000000003
 30
0.0
 11
33.199999999997551
 21
9.7690598923241279
 31
0.0
  0
LINE
  5
1665
  8
240
 10
33.999999999997272
 20
10.00000000000003
 30
0.0
 11
33.599999999997181
 21
9.7690598923241279
 31
0.0
  0
ARC
  5
1666
  8
240
 10
33.399999999997362
 20
10.115470053837759
 30
0.0
 40
0.4
 50
240.0000000000019
 51
299.99999999999631
1001
GENIUS_GENODEF_13
1002
{
1000
HIER
1070
     0
1002
}
1002
{
1000
MANEDIT
1070
     0
1002
}
1002
{
1000
NOSEL
1070
     0
1002
}
1002
{
1000
BEHIND
1070
     0
1002
}
1002
{
1000
OTHER
1070
     0
1002
}
1002
{
1000
REACTOR
1002
}
1001
GENIUS_GENOBJ-N-FIL_13
1002
{
1000
OWNER
1000
GEN
1002
}
  0
ARC
  5
1667
  8
240
 10
35.599999999997181
 20
10.115470053837759
 30
0.0
 40
0.4
 50
240.0000000000019
 51
299.99999999999631
1001
GENIUS_GENODEF_13
1002
{
1000
HIER
1070
     0
1002
}
1002
{
1000
MANEDIT
1070
     0
1002
}
1002
{
1000
NOSEL
1070
     0
1002
}
1002
{
1000
BEHIND
1070
     0
1002
}
1002
{
1000
OTHER
1070
     0
1002
}
1002
{
1000
REACTOR
1002
}
1001
GENIUS_GENOBJ-N-FIL_13
1002
{
1000
OWNER
1000
GEN
1002
}
  0
LINE
  5
1668
  8
240
 10
36.19999999999753
 20
10.00000000000003
 30
0.0
 11
35.799999999997461
 21
9.7690598923241279
 31
0.0
  0
LINE
  5
1669
  8
240
 10
34.99999999999725
 20
10.00000000000003
 30
0.0
 11
35.399999999997362
 21
9.7690598923241279
 31
0.0
  0
LINE
  5
16A0
  8
240
 10
48.000000000000888
 20
-9.0000000000004192
 30
0.0
 11
48.000000000002608
 21
-6.7499999999999591
 31
0.0
  0
LINE
  5
16A2
  8
240
 10
48.000000000002608
 20
-6.7499999999999591
 30
0.0
 11
53.645299461620652
 21
-6.7499999999999591
 31
0.0
  0
ARC
  5
16AF
  8
240
 10
47.000000000000881
 20
-8.9999999999999645
 30
0.0
 40
1.0
 50
270.0
 51
359.99999999994787
1001
GENIUS_GENOBJ-N-FIL_13
1002
{
1000
OWNER
1000
GEN
1002
}
1001
GENIUS_GENODEF_13
1002
{
1000
HIER
1070
     0
1002
}
1002
{
1000
MANEDIT
1070
     0
1002
}
1002
{
1000
NOSEL
1070
     0
1002
}
1002
{
1000
BEHIND
1070
     0
1002
}
1002
{
1000
OTHER
1070
     0
1002
}
1002
{
1000
REACTOR
1002
}
  0
LINE
  5
16B9
  8
240
 10
55.800000000000637
 20
-6.0999999999998691
 30
0.0
 11
57.500000000000881
 21
-6.0999999999998691
 31
0.0
1001
GRPNAME
1000
00000006
  0
LINE
  5
16BA
  8
240
 10
55.500000000000888
 20
-5.800000000000141
 30
0.0
 11
55.500000000000888
 21
-5.24999999999996
 31
0.0
1001
GRPNAME
1000
00000006
  0
ARC
  5
16BC
  8
240
 10
55.800000000000637
 20
-5.800000000000141
 30
0.0
 40
0.3000000000000114
 50
180.0
 51
270.0
1001
GRPNAME
1000
00000006
  0
ARC
  5
16BD
  8
240
 10
55.030940107676081
 20
-5.6500000000000563
 30
0.0
 40
0.4
 50
90.0
 51
150.0000000000002
1001
GENIUS_GENODEF_13
1002
{
1000
HIER
1070
     0
1002
}
1002
{
1000
MANEDIT
1070
     0
1002
}
1002
{
1000
NOSEL
1070
     0
1002
}
1002
{
1000
BEHIND
1070
     0
1002
}
1002
{
1000
OTHER
1070
     0
1002
}
1002
{
1000
REACTOR
1002
}
1001
GENIUS_GENOBJ-N-FIL_13
1002
{
1000
OWNER
1000
GEN
1002
}
  0
LINE
  5
16BE
  8
240
 10
55.500000000000888
 20
-5.24999999999996
 30
0.0
 11
55.030940107676081
 21
-5.24999999999996
 31
0.0
1001
GRPNAME
1000
00000006
  0
ARC
  5
16BF
  8
240
 10
53.645299461620652
 20
-6.2499999999999591
 30
0.0
 40
0.5
 50
270.0
 51
330.00000000000028
1001
GENIUS_GENODEF_13
1002
{
1000
HIER
1070
     0
1002
}
1002
{
1000
MANEDIT
1070
     0
1002
}
1002
{
1000
NOSEL
1070
     0
1002
}
1002
{
1000
BEHIND
1070
     0
1002
}
1002
{
1000
OTHER
1070
     0
1002
}
1002
{
1000
REACTOR
1002
}
1001
GENIUS_GENOBJ-N-FIL_13
1002
{
1000
OWNER
1000
GEN
1002
}
  0
LINE
  5
16C0
  8
240
 10
54.078312163513139
 20
-6.4999999999999591
 30
0.0
 11
54.684529946162463
 21
-5.4499999999997772
 31
0.0
  0
LINE
  5
1704
  8
240
 10
24.000000000000249
 20
10.00000000000003
 30
0.0
 11
32.799999999997453
 21
10.00000000000003
 31
0.0
  0
LINE
  5
1705
  8
240
 10
70.000000000000895
 20
0.0000000000000355
 30
0.0
 11
70.000000000000895
 21
-1.999999999999964
 31
0.0
1001
GRPNAME
1000
0000002V
  0
LINE
  5
1706
  8
240
 10
70.000000000000895
 20
0.0000000000000355
 30
0.0
 11
70.000000000000895
 21
2.0000000000000351
 31
0.0
1001
GRPNAME
1000
0000002V
  0
LINE
  5
1707
  8
240
 10
54.078312163513139
 20
6.5000000000000311
 30
0.0
 11
54.684529946162463
 21
5.4499999999998492
 31
0.0
  0
ARC
  5
1708
  8
240
 10
53.645299461620652
 20
6.2500000000000311
 30
0.0
 40
0.5
 50
29.999999999999719
 51
90.0
1001
GENIUS_GENODEF_13
1002
{
1000
HIER
1070
     0
1002
}
1002
{
1000
MANEDIT
1070
     0
1002
}
1002
{
1000
NOSEL
1070
     0
1002
}
1002
{
1000
BEHIND
1070
     0
1002
}
1002
{
1000
OTHER
1070
     0
1002
}
1002
{
1000
REACTOR
1002
}
1001
GENIUS_GENOBJ-N-FIL_13
1002
{
1000
OWNER
1000
GEN
1002
}
  0
LINE
  5
170B
  8
240
 10
48.000000000002608
 20
6.7500000000000311
 30
0.0
 11
53.645299461620652
 21
6.7500000000000311
 31
0.0
  0
LINE
  5
170E
  8
240
 10
58.70000000000072
 20
-5.9999999999999591
 30
0.0
 11
69.000000000000895
 21
-5.9999999999999591
 31
0.0
1001
GRPNAME
1000
00000006
  0
ARC
  5
1713
  8
240
 10
58.387337453475531
 20
-6.9498642703037694
 30
0.0
 40
1.0
 50
71.78023861105298
 51
90.944017359645628
1001
GRPNAME
1000
00000006
  0
LINE
  5
1714
  8
240
 10
58.02678268764339
 20
-5.9499999999997772
 30
0.0
 11
58.403812919153097
 21
-5.9499999999997772
 31
0.0
1001
GRPNAME
1000
00000006
  0
ARC
  5
1715
  8
240
 10
58.02678268764339
 20
-6.9499999999997772
 30
0.0
 40
1.0000000000000011
 50
90.0
 51
121.78833061703931
1001
GRPNAME
1000
00000006
  0
LINE
  5
1725
  8
240
 10
70.000000000000895
 20
-4.99999999999996
 30
0.0
 11
70.000000000000895
 21
0.0000000000000355
 31
0.0
1001
GRPNAME
1000
00000006
  0
LINE
  5
174D
  8
240
 10
48.000000000000888
 20
9.0000000000004903
 30
0.0
 11
48.000000000002608
 21
6.7500000000000311
 31
0.0
  0
ARC
  5
174E
  8
240
 10
47.000000000000881
 20
8.9999999999995808
 30
0.0
 40
1.0
 50
0.0000000000521102
 51
90.0
1001
GENIUS_GENOBJ-N-FIL_13
1002
{
1000
OWNER
1000
GEN
1002
}
1001
GENIUS_GENODEF_13
1002
{
1000
HIER
1070
     0
1002
}
1002
{
1000
MANEDIT
1070
     0
1002
}
1002
{
1000
NOSEL
1070
     0
1002
}
1002
{
1000
BEHIND
1070
     0
1002
}
1002
{
1000
OTHER
1070
     0
1002
}
1002
{
1000
REACTOR
1002
}
  0
LINE
  5
176C
  8
240
 10
55.500000000000888
 20
5.2500000000000311
 30
0.0
 11
55.030940107676081
 21
5.2500000000000311
 31
0.0
1001
GRPNAME
1000
00000006
  0
LINE
  5
1777
  8
240
 10
70.000000000000895
 20
5.0000000000000311
 30
0.0
 11
70.000000000000895
 21
0.0000000000000355
 31
0.0
1001
GRPNAME
1000
00000006
  0
ARC
  5
1787
  8
240
 10
58.02678268764339
 20
6.9499999999998492
 30
0.0
 40
1.0000000000000011
 50
238.21166938296051
 51
270.0
1001
GRPNAME
1000
00000006
  0
LINE
  5
1788
  8
240
 10
58.02678268764339
 20
5.9499999999998492
 30
0.0
 11
58.403812919153097
 21
5.9499999999998492
 31
0.0
1001
GRPNAME
1000
00000006
  0
ARC
  5
1789
  8
240
 10
58.387337453475531
 20
6.9498642703042961
 30
0.0
 40
1.0
 50
269.05598264035427
 51
288.21976138894701
1001
GRPNAME
1000
00000006
  0
ARC
  5
178A
  8
240
 10
55.030940107676081
 20
5.650000000000122
 30
0.0
 40
0.4
 50
209.99999999999969
 51
270.0
1001
GENIUS_GENODEF_13
1002
{
1000
HIER
1070
     0
1002
}
1002
{
1000
MANEDIT
1070
     0
1002
}
1002
{
1000
NOSEL
1070
     0
1002
}
1002
{
1000
BEHIND
1070
     0
1002
}
1002
{
1000
OTHER
1070
     0
1002
}
1002
{
1000
REACTOR
1002
}
1001
GENIUS_GENOBJ-N-FIL_13
1002
{
1000
OWNER
1000
GEN
1002
}
  0
ARC
  5
178B
  8
240
 10
55.800000000000637
 20
5.8000000000002174
 30
0.0
 40
0.3000000000000114
 50
90.0
 51
180.0
1001
GRPNAME
1000
00000006
  0
LINE
  5
178D
  8
240
 10
55.500000000000888
 20
5.8000000000002174
 30
0.0
 11
55.500000000000888
 21
5.2500000000000311
 31
0.0
1001
GRPNAME
1000
00000006
  0
LINE
  5
178E
  8
240
 10
55.800000000000637
 20
6.099999999999941
 30
0.0
 11
57.500000000000881
 21
6.099999999999941
 31
0.0
1001
GRPNAME
1000
00000006
  0
LINE
  5
1793
  8
240
 10
58.70000000000072
 20
6.0000000000000311
 30
0.0
 11
69.000000000000895
 21
6.0000000000000311
 31
0.0
1001
GRPNAME
1000
00000006
  0
LINE
  5
1861
  8
240
 10
22.000000000000249
 20
-11.99999999999994
 30
0.0
 11
22.0
 21
-22.199999999999982
 31
0.0
  0
LINE
  5
1865
  8
240
 10
24.000000000000249
 20
-9.9999999999999911
 30
0.0
 11
32.799999999997453
 21
-9.9999999999999911
 31
0.0
  0
LINE
  5
1890
  8
240
 10
0.0
 20
15.87499999999998
 30
0.0
 11
1.0
 21
15.87499999999998
 31
0.0
  0
LINE
  5
1892
  8
240
 10
0.0
 20
-15.874999999999909
 30
0.0
 11
1.0
 21
-15.874999999999909
 31
0.0
  0
LINE
  5
1894
  8
241
 10
1.0
 20
-15.874999999999909
 30
0.0
 11
1.0
 21
15.87499999999998
 31
0.0
  0
LINE
  5
1895
  8
241
 10
22.000000000000249
 20
11.800000000000161
 30
0.0
 11
22.000000000000249
 21
-11.80000000000012
 31
0.0
  0
LINE
  5
1897
  8
241
 10
36.19999999999753
 20
10.00000000000003
 30
0.0
 11
36.199999999997097
 21
-9.9999999999999645
 31
0.0
  0
LINE
  5
1898
  8
241
 10
48.000000000002608
 20
6.7500000000000311
 30
0.0
 11
48.000000000002608
 21
-6.7499999999999591
 31
0.0
  0
LINE
  5
189A
  8
241
 10
32.799999999997453
 20
10.00000000000003
 30
0.0
 11
32.799999999997397
 21
-9.9999999999999911
 31
0.0
  0
LINE
  5
189B
  8
241
 10
33.999999999997272
 20
10.00000000000003
 30
0.0
 11
33.999999999997272
 21
-9.9999999999999645
 31
0.0
  0
LINE
  5
189C
  8
241
 10
34.99999999999725
 20
-9.9999999999999645
 30
0.0
 11
34.99999999999725
 21
10.00000000000003
 31
0.0
  0
LINE
  5
189D
  8
241
 10
55.500000000000888
 20
5.2500000000000311
 30
0.0
 11
55.500000000000888
 21
-5.24999999999996
 31
0.0
  0
LINE
  5
189F
  8
241
 10
57.500000000000917
 20
6.0999999999997341
 30
0.0
 11
57.500000000000881
 21
-6.0999999999998691
 31
0.0
  0
LINE
  5
18A0
  8
241
 10
58.700000000001403
 20
6.000000000000397
 30
0.0
 11
58.700000000001673
 21
-5.9999999999999591
 31
0.0
  0
LINE
  5
18A2
  8
241
 10
54.80000000000026
 20
5.2500000000000311
 30
0.0
 11
54.80000000000026
 21
-5.24999999999996
 31
0.0
  0
ARC
  5
18BC
  8
240
 10
24.000000000000249
 20
-11.999999999999989
 30
0.0
 40
2.0
 50
90.0
 51
179.99999999999861
1001
GENIUS_GENOBJ-N-FIL_13
1002
{
1000
OWNER
1000
GEN
1002
}
1001
GENIUS_GENODEF_13
1002
{
1000
HIER
1070
     0
1002
}
1002
{
1000
MANEDIT
1070
     0
1002
}
1002
{
1000
NOSEL
1070
     0
1002
}
1002
{
1000
BEHIND
1070
     0
1002
}
1002
{
1000
OTHER
1070
     0
1002
}
1002
{
1000
REACTOR
1002
}
  0
ARC
  5
18BF
  8
240
 10
24.000000000000249
 20
12.00000000000003
 30
0.0
 40
2.0
 50
180.00000000000139
 51
270.0
1001
GENIUS_GENODEF_13
1002
{
1000
HIER
1070
     0
1002
}
1002
{
1000
MANEDIT
1070
     0
1002
}
1002
{
1000
NOSEL
1070
     0
1002
}
1002
{
1000
BEHIND
1070
     0
1002
}
1002
{
1000
OTHER
1070
     0
1002
}
1002
{
1000
REACTOR
1002
}
1001
GENIUS_GENOBJ-N-FIL_13
1002
{
1000
OWNER
1000
GEN
1002
}
  0
LINE
  5
18C0
  8
241
 10
9.6816373280635162
 20
22.858599999999999
 30
0.0
 11
9.6816373280635162
 21
-22.858599999999932
 31
0.0
  0
LINE
  5
18C1
  8
241
 10
11.900000000000089
 20
-18.999999999999911
 30
0.0
 11
11.900000000000089
 21
19.016283142591622
 31
0.0
  0
LINE
  5
18C2
  8
241
 10
15.30000000000018
 20
18.999999999999961
 30
0.0
 11
15.30000000000018
 21
-19.016283142591551
 31
0.0
  0
LINE
  5
18C4
  8
241
 10
17.518362671936458
 20
22.858599999999829
 30
0.0
 11
17.51836267193676
 21
-22.858599999999932
 31
0.0
  0
LINE
  5
1A42
  8
250
 10
70.000000000000895
 20
4.9257359312878481
 30
0.0
 11
70.000000000000895
 21
29.0
 31
0.0
  0
LINE
  5
1A43
  8
250
 10
48.000000000000888
 20
9.5000000000004903
 30
0.0
 11
48.000000000000888
 21
29.0
 31
0.0
  0
LINE
  5
1A44
  8
250
 10
67.770000000000891
 20
28.0
 30
0.0
 11
50.230000000000913
 21
28.0
 31
0.0
  0
LINE
  5
1A48
  8
250
 10
69.000000000000895
 20
6.0000000000000311
 30
0.0
 11
88.234172912513202
 21
6.0000000000000311
 31
0.0
  0
LINE
  5
1A49
  8
250
 10
69.000000000000895
 20
-5.9999999999996971
 30
0.0
 11
88.453765698074335
 21
-5.9999999999997051
 31
0.0
  0
LINE
  5
1A4A
  8
250
 10
87.88435152637237
 20
3.7700000000000311
 30
0.0
 11
87.88435152637237
 21
-3.7699999999997029
 31
0.0
  0
LINE
  5
1A50
  8
250
 10
41.99999999999914
 20
7.7699999999995821
 30
0.0
 11
41.99999999999914
 21
-7.7699999999999614
 31
0.0
  0
LINE
  5
1AF0
  8
250
 10
0.0
 20
16.374999999999979
 30
0.0
 11
0.0000000000000012
 21
36.0
 31
0.0
  0
LINE
  5
1AF1
  8
250
 10
70.000000000000682
 20
4.9257359312878481
 30
0.0
 11
70.000000000000682
 21
36.0
 31
0.0
  0
LINE
  5
1AF2
  8
250
 10
2.2299999999999991
 20
35.0
 30
0.0
 11
67.770000000000678
 21
35.0
 31
0.0
  0
TEXT
  5
1AF6
  8
250
 10
56.333333333334252
 20
29.0
 30
0.0
 40
2.799999999999998
  1
22
  0
LINE
  5
1AF7
  8
250
 10
50.230000000000913
 20
27.62833333333333
 30
0.0
 11
48.000000000000888
 21
28.0
 31
0.0
  0
LINE
  5
1AF8
  8
250
 10
50.230000000000913
 20
28.371666666666659
 30
0.0
 11
48.000000000000888
 21
28.0
 31
0.0
  0
LINE
  5
1AF9
  8
250
 10
48.000000000000888
 20
28.0
 30
0.0
 11
50.230000000000913
 21
28.0
 31
0.0
  0
LINE
  5
1AFA
  8
250
 10
67.770000000000891
 20
28.371666666666659
 30
0.0
 11
70.000000000000895
 21
28.0
 31
0.0
  0
LINE
  5
1AFB
  8
250
 10
67.770000000000891
 20
27.62833333333333
 30
0.0
 11
70.000000000000895
 21
28.0
 31
0.0
  0
LINE
  5
1AFC
  8
250
 10
70.000000000000895
 20
28.0
 30
0.0
 11
67.770000000000891
 21
28.0
 31
0.0
  0
TEXT
  5
1AFD
  8
250
 10
86.884351526372384
 20
-3.7999999999998191
 30
0.0
 40
2.799999999999998
  1
\U+220512
 50
90.0
  0
LINE
  5
1AFE
  8
250
 10
88.256018193039054
 20
-3.7699999999997029
 30
0.0
 11
87.88435152637237
 21
-5.9999999999997051
 31
0.0
  0
LINE
  5
1AFF
  8
250
 10
87.512684859705701
 20
-3.7699999999997029
 30
0.0
 11
87.88435152637237
 21
-5.9999999999997051
 31
0.0
  0
LINE
  5
1B00
  8
250
 10
87.88435152637237
 20
-5.9999999999997051
 30
0.0
 11
87.88435152637237
 21
-3.7699999999997029
 31
0.0
  0
LINE
  5
1B01
  8
250
 10
87.512684859705701
 20
3.7700000000000311
 30
0.0
 11
87.88435152637237
 21
6.0000000000000311
 31
0.0
  0
LINE
  5
1B02
  8
250
 10
88.256018193039054
 20
3.7700000000000311
 30
0.0
 11
87.88435152637237
 21
6.0000000000000311
 31
0.0
  0
LINE
  5
1B03
  8
250
 10
87.88435152637237
 20
6.0000000000000311
 30
0.0
 11
87.88435152637237
 21
3.7700000000000311
 31
0.0
  0
TEXT
  5
1B04
  8
250
 10
40.999999999999147
 20
-3.800000000000181
 30
0.0
 40
2.799999999999998
  1
\U+220520
 50
90.0
  0
LINE
  5
1B05
  8
250
 10
42.371666666665767
 20
-7.7699999999999614
 30
0.0
 11
41.99999999999914
 21
-9.9999999999999591
 31
0.0
  0
LINE
  5
1B06
  8
250
 10
41.628333333332492
 20
-7.7699999999999614
 30
0.0
 11
41.99999999999914
 21
-9.9999999999999591
 31
0.0
  0
LINE
  5
1B07
  8
250
 10
41.99999999999914
 20
-9.9999999999999591
 30
0.0
 11
41.99999999999914
 21
-7.7699999999999614
 31
0.0
  0
LINE
  5
1B08
  8
250
 10
41.628333333332492
 20
7.7699999999995821
 30
0.0
 11
41.99999999999914
 21
9.9999999999995826
 31
0.0
  0
LINE
  5
1B09
  8
250
 10
42.371666666665767
 20
7.7699999999995821
 30
0.0
 11
41.99999999999914
 21
9.9999999999995826
 31
0.0
  0
LINE
  5
1B0A
  8
250
 10
41.99999999999914
 20
9.9999999999995826
 30
0.0
 11
41.99999999999914
 21
7.7699999999995821
 31
0.0
  0
TEXT
  5
1B0B
  8
250
 10
32.333333333333677
 20
36.0
 30
0.0
 40
2.799999999999998
  1
70
  0
LINE
  5
1B0C
  8
250
 10
67.770000000000678
 20
35.37166666666667
 30
0.0
 11
70.000000000000682
 21
35.0
 31
0.0
  0
LINE
  5
1B0D
  8
250
 10
67.770000000000678
 20
34.62833333333333
 30
0.0
 11
70.000000000000682
 21
35.0
 31
0.0
  0
LINE
  5
1B0E
  8
250
 10
70.000000000000682
 20
35.0
 30
0.0
 11
67.770000000000678
 21
35.0
 31
0.0
  0
LINE
  5
1B0F
  8
250
 10
2.2299999999999991
 20
34.62833333333333
 30
0.0
 11
0.0000000000000012
 21
35.0
 31
0.0
  0
LINE
  5
1B10
  8
250
 10
2.2299999999999991
 20
35.37166666666667
 30
0.0
 11
0.0000000000000012
 21
35.0
 31
0.0
  0
LINE
  5
1B11
  8
250
 10
0.0000000000000012
 20
35.0
 30
0.0
 11
2.2299999999999991
 21
35.0
 31
0.0
  0
LINE
  5
2294
  8
250
 10
50.274784057929722
 20
21.132763881701411
 30
0.0
 11
65.741450724596419
 21
21.132763881701411
 31
0.0
1001
ITEMNAME
1000
LNSP2
  0
LINE
  5
2297
  8
250
 10
81.500000000002515
 20
2.000000010000027
 30
0.0
 11
81.500000000002515
 21
-4.7363023099999673
 31
0.0
  0
LINE
  5
2298
  8
250
 10
68.7000007300026
 20
2.000000010000027
 30
0.0
 11
82.500000000002544
 21
2.000000010000027
 31
0.0
  0
LINE
  5
229B
  8
250
 10
76.470565277119491
 20
21.000777046257181
 30
0.0
 11
95.003898610452808
 21
21.000777046257181
 31
0.0
1001
ITEMNAME
1000
LNSP2
  0
LINE
  5
229C
  8
241
  6
HIDDEN2
 10
58.77004648037429
 20
5.2500000969624194
 30
0.0
 11
55.499998474123622
 21
5.250000096962391
 31
0.0
1001
GRPNAME
1000
PASTMD0E
  0
LINE
  5
229D
  8
241
  6
HIDDEN2
 10
56.876003511624347
 20
2.7000046745990511
 30
0.0
 11
46.020046003537097
 21
2.7000046745991391
 31
0.0
1001
GRPNAME
1000
PASTMD0E
  0
LINE
  5
229E
  8
241
  6
HIDDEN2
 10
58.462266881468523
 20
2.100000267502987
 30
0.0
 11
46.020001370909419
 21
2.1000002675029878
 31
0.0
1001
GRPNAME
1000
PASTMD0K
  0
LINE
  5
229F
  8
241
  6
HIDDEN2
 10
43.520046003537111
 20
3.000000096962419
 30
0.0
 11
46.020046003537097
 21
3.000000096962419
 31
0.0
1001
GRPNAME
1000
PASTMD0E
  0
LINE
  5
22A0
  8
241
  6
HIDDEN2
 10
43.520046003537111
 20
3.000000096962419
 30
0.0
 11
43.520046003537111
 21
0.0000000000000542
 31
0.0
1001
GRPNAME
1000
PASTMD0E
  0
LINE
  5
22A1
  8
241
  6
HIDDEN2
 10
46.020001370909419
 20
3.000000096962419
 30
0.0
 11
46.020001370909419
 21
0.0000000000000542
 31
0.0
1001
GRPNAME
1000
PASTMD0K
  0
LINE
  5
22A2
  8
241
  6
HIDDEN2
 10
59.02004648037429
 20
5.0000000969624194
 30
0.0
 11
58.77004648037429
 21
5.2500000969624194
 31
0.0
1001
GRPNAME
1000
PASTMD0E
  0
LINE
  5
22A3
  8
242
  6
HIDDEN2
 10
59.520046480374262
 20
4.5000000969624194
 30
0.0
 11
66.02004659958358
 21
4.5000000969624194
 31
0.0
1001
GRPNAME
1000
PASTMD0E
  0
LINE
  5
22A4
  8
241
  6
HIDDEN2
 10
65.520046599583523
 20
5.0000000969624194
 30
0.0
 11
59.02004648037429
 21
5.0000000969624194
 31
0.0
1001
GRPNAME
1000
PASTMD0E
  0
LINE
  5
22A5
  8
241
  6
HIDDEN2
 10
56.876003511624347
 20
2.7000046745990511
 30
0.0
 11
66.557386729154885
 21
3.5470160525208261
 31
0.0
1001
GRPNAME
1000
PASTMD0E
  0
LINE
  5
22A6
  8
241
  6
HIDDEN2
 10
58.520000417235103
 20
2.0000000052425491
 30
0.0
 11
68.500000000002572
 21
2.0000000052425491
 31
0.0
1001
GRPNAME
1000
PASTMD0K
  0
LINE
  5
22A7
  8
242
  6
HIDDEN2
 10
59.520046480374262
 20
4.5000000969624194
 30
0.0
 11
59.02004648037429
 21
5.0000000969624194
 31
0.0
1001
GRPNAME
1000
PASTMD0E
  0
LINE
  5
22A8
  8
241
  6
CONTINUOUS
 10
58.520000417235103
 20
2.0000000052425491
 30
0.0
 11
58.462266881468523
 21
2.100000267502987
 31
0.0
1001
GRPNAME
1000
PASTMD0K
  0
LINE
  5
22A9
  8
241
  6
HIDDEN2
 10
68.100002259018623
 20
3.7000006489727122
 30
0.0
 11
68.500000000002572
 21
3.2999991230938082
 31
0.0
1001
GRPNAME
1000
PASTMD0K
  0
LINE
  5
22AA
  8
241
  6
HIDDEN2
 10
65.520046599583523
 20
5.0000000969624194
 30
0.0
 11
66.02004659958358
 21
4.5000000969624194
 31
0.0
1001
GRPNAME
1000
PASTMD0E
  0
LINE
  5
22AB
  8
241
  6
HIDDEN2
 10
66.02004659958358
 20
3.5000047949801232
 30
0.0
 11
66.02004659958358
 21
4.5000000969624194
 31
0.0
1001
GRPNAME
1000
PASTMD0E
  0
LINE
  5
22AC
  8
241
  6
HIDDEN2
 10
66.557386729154885
 20
3.5470160525208261
 30
0.0
 11
66.700000703337409
 21
3.2999991230938082
 31
0.0
1001
GRPNAME
1000
PASTMD0K
  0
LINE
  5
22AD
  8
241
  6
HIDDEN2
 10
66.700000703337409
 20
3.2999991230938082
 30
0.0
 11
67.299999207260825
 21
3.2999991230938082
 31
0.0
1001
GRPNAME
1000
PASTMD0K
  0
LINE
  5
22AE
  8
241
  6
HIDDEN2
 10
67.70000074804085
 20
3.7000006489727122
 30
0.0
 11
67.299999207260825
 21
3.2999991230938082
 31
0.0
1001
GRPNAME
1000
PASTMD0K
  0
LINE
  5
22AF
  8
241
  6
HIDDEN2
 10
67.70000074804085
 20
3.7000006489727122
 30
0.0
 11
68.100002259018623
 21
3.7000006489727122
 31
0.0
1001
GRPNAME
1000
PASTMD0K
  0
LINE
  5
22B0
  8
241
  6
HIDDEN2
 10
68.500000000002572
 20
3.2999991230938082
 30
0.0
 11
68.500000000002572
 21
0.0000000000000542
 31
0.0
1001
GRPNAME
1000
PASTMD0K
  0
LINE
  5
22B1
  8
241
  6
HIDDEN2
 10
69.500000000002572
 20
2.0500000512476162
 30
0.0
 11
68.500000000002572
 21
2.050000051247622
 31
0.0
1001
GRPNAME
1000
PASTMD0F
  0
LINE
  5
22B2
  8
241
  6
HIDDEN2
 10
69.500000000002572
 20
2.0500000512476162
 30
0.0
 11
70.000000000002544
 21
2.550000051247618
 31
0.0
1001
GRPNAME
1000
PASTMD0F
  0
LINE
  5
22B3
  8
241
 10
53.954020599752759
 20
-3.6499878131000401
 30
0.0
 11
53.954020599752759
 21
-3.0923292192130152
 31
0.0
  0
ARC
  5
22B4
  8
241
 10
43.128703052450618
 20
0.0000000000000542
 30
0.0
 40
11.258330249194501
 50
344.05763139436999
 51
0.0
  0
ARC
  5
22B5
  8
241
 10
51.560163701885351
 20
-5.1541180517820644
 30
0.0
 40
2.827182099261595
 50
327.85765324454508
 51
32.142346755458142
  0
LINE
  5
22B6
  8
241
 10
53.954020599752759
 20
-3.6499878131001551
 30
0.0
 11
48.000000000000107
 21
-3.6499878131001502
 31
0.0
  0
LINE
  5
22B7
  8
241
 10
53.954020599752532
 20
-3.0923292192135809
 30
0.0
 11
48.000000000000497
 21
-3.0923292192135841
 31
0.0
  0
LINE
  5
22B8
  8
241
 10
53.954020599752759
 20
3.6499878131001471
 30
0.0
 11
53.954020599752759
 21
3.0923292192131222
 31
0.0
  0
ARC
  5
22B9
  8
241
 10
43.128703052450618
 20
0.0000000000000542
 30
0.0
 40
11.258330249194501
 50
0.0
 51
15.94236860562981
  0
ARC
  5
22BA
  8
241
 10
51.560163701885351
 20
5.1541180517821719
 30
0.0
 40
2.827182099261595
 50
327.85765324454189
 51
32.142346755455023
  0
LINE
  5
22BB
  8
241
 10
53.954020599752759
 20
3.649987813100263
 30
0.0
 11
48.000000000005073
 21
3.6499878131002572
 31
0.0
  0
LINE
  5
22BC
  8
241
 10
53.954020599752532
 20
3.0923292192136902
 30
0.0
 11
48.000000000004697
 21
3.0923292192136942
 31
0.0
  0
ARC
  5
230C
  8
240
 10
69.000000000000895
 20
5.0000000000000311
 30
0.0
 40
1.0
 50
0.0
 51
90.0
1001
GRPNAME
1000
00000006
1001
GENIUS_GENODEF_13
1002
{
1000
HIER
1070
     0
1002
}
1002
{
1000
MANEDIT
1070
     0
1002
}
1002
{
1000
NOSEL
1070
     0
1002
}
1002
{
1000
BEHIND
1070
     0
1002
}
1002
{
1000
OTHER
1070
     0
1002
}
1002
{
1000
REACTOR
1002
}
1001
GENIUS_GENOBJ-N-FIL_13
1002
{
1000
OWNER
1000
GEN
1002
}
  0
ARC
  5
230F
  8
240
 10
69.000000000000895
 20
-4.99999999999996
 30
0.0
 40
1.0
 50
270.0
 51
0.0
1001
GRPNAME
1000
00000006
1001
GENIUS_GENODEF_13
1002
{
1000
HIER
1070
     0
1002
}
1002
{
1000
MANEDIT
1070
     0
1002
}
1002
{
1000
NOSEL
1070
     0
1002
}
1002
{
1000
BEHIND
1070
     0
1002
}
1002
{
1000
OTHER
1070
     0
1002
}
1002
{
1000
REACTOR
1002
}
1001
GENIUS_GENOBJ-N-FIL_13
1002
{
1000
OWNER
1000
GEN
1002
}
  0
TEXT
  5
2310
  8
250
 10
78.737231943786142
 20
22.000777046257181
 30
0.0
 40
2.799999999999998
  1
NBC4S
  7
YOKO
1001
ITEMNAME
1000
LNSP3
  0
TEXT
  5
2313
  8
250
 10
80.500000000002544
 20
-8.7999999999999652
 30
0.0
 40
3.0
  1
max.\U+03C64
 50
90.0
1001
ITEMNAME
1000
DI010
  0
LINE
  5
2314
  8
250
 10
81.12833333333586
 20
-0.2299999899999703
 30
0.0
 11
81.500000000002515
 21
2.000000010000027
 31
0.0
  0
LINE
  5
2315
  8
250
 10
81.871666666669213
 20
-0.2299999899999703
 30
0.0
 11
81.500000000002515
 21
2.000000010000027
 31
0.0
  0
LINE
  5
2316
  8
250
 10
81.500000000002515
 20
2.000000010000027
 30
0.0
 11
81.500000000002515
 21
-0.2299999899999703
 31
0.0
  0
TEXT
  5
2319
  8
250
 10
52.54145072459643
 20
22.132763881701401
 30
0.0
 40
2.799999999999998
  1
MGT3
  7
YOKO
1001
ITEMNAME
1000
LNSP3
  0
LINE
  5
231A
  8
250
 10
45.135954968599613
 20
11.56538414090199
 30
0.0
 11
43.84727983400483
 21
9.9999999999997797
 31
0.0
  0
LINE
  5
231B
  8
250
 10
44.558604699410012
 20
11.898717474235321
 30
0.0
 11
43.84727983400483
 21
9.9999999999997797
 31
0.0
  0
LINE
  5
231C
  8
250
 10
43.84727983400483
 20
9.9999999999997797
 30
0.0
 11
44.847279834004809
 21
11.73205080756866
 31
0.0
  0
LINE
  5
231D
  8
250
 10
44.847279834004809
 20
11.73205080756866
 30
0.0
 11
50.274784057929722
 21
21.132763881701411
 31
0.0
1001
ACAD
1000
DSTYLE
1002
{
1070
   341
1005
21CA
1070
    41
1040
2.0
1002
}
  0
LINE
  5
231E
  8
250
 10
68.809862640997167
 20
7.7320508588165122
 30
0.0
 11
76.470565277119491
 21
21.000777046257181
 31
0.0
1001
ACAD
1000
DSTYLE
1002
{
1070
   341
1005
21CA
1070
    41
1040
2.0
1070
   140
1040
2.799999999999998
1002
}
  0
LINE
  5
231F
  8
250
 10
69.098537775591979
 20
7.5653841921498426
 30
0.0
 11
67.809862640997153
 21
6.0000000512476337
 31
0.0
  0
LINE
  5
2320
  8
250
 10
68.521187506402356
 20
7.8987175254831774
 30
0.0
 11
67.809862640997153
 21
6.0000000512476337
 31
0.0
  0
LINE
  5
2321
  8
250
 10
67.809862640997153
 20
6.0000000512476337
 30
0.0
 11
68.809862640997167
 21
7.7320508588165104
 31
0.0
  0
VIEWPORT
  5
22
 67
     1
  8
0
 10
261.51769911504419
 20
148.5
 30
0.0
 40
523.0353982300885
 41
297.0
 68
     1
 69
     1
1001
ACAD
1000
MVIEW
1002
{
1070
    16
1010
0.0
1020
0.0
1030
0.0
1010
0.0
1020
0.0
1030
1.0
1040
0.0
1040
297.0
1040
261.51769911504419
1040
148.5
1040
50.0
1040
0.0
1040
0.0
1070
     0
1070
   100
1070
     1
1070
     1
1070
     0
1070
     0
1070
     0
1070
     0
1040
0.0
1040
0.0
1040
0.0
1040
1.0
1040
1.0
1040
10.0
1040
10.0
1070
     0
1002
{
1002
}
1002
}
1001
GENIUS_GENODEF_13
1002
{
1000
HIER
1070
     0
1002
}
1002
{
1000
MANEDIT
1070
     0
1002
}
1002
{
1000
NOSEL
1070
     0
1002
}
1002
{
1000
BEHIND
1070
     0
1002
}
1002
{
1000
OTHER
1070
     0
1002
}
1002
{
1000
REACTOR
1002
}
1001
GENIUS_GENOBJ-N-SDF_13
1002
{
1000
OWNER
1000
GEN
1002
}
1001
GENIUS_GENSCREG_15
1000
PF
1040
1.0
1000
DF
1040
1.0
1000
MIN
1011
0.0
1021
0.0
1031
0.0
1021
0.0
1031
0.0
1000
MAX
1011
523.0353982300885
1021
0.0
1031
0.0
1021
297.0
1031
0.0
1000
FLAGS
1070
     4
  0
ENDSEC
  0
EOF
