  0
SECTION
  2
HEADER
  9
$ACADVER
  1
AC1009
  9
$INSBASE
 10
0.0
 20
0.0
 30
0.0
  9
$EXTMIN
 10
-74.912870829885264
 20
-84.739365584197458
 30
0.0
  9
$EXTMAX
 10
299.23402511311781
 20
97.276270327371165
 30
0.0
  9
$LIMMIN
 10
0.0
 20
0.0
  9
$LIMMAX
 10
420.0
 20
297.0
  9
$ORTHOMODE
 70
     1
  9
$REGENMODE
 70
     1
  9
$FILLMODE
 70
     1
  9
$QTEXTMODE
 70
     0
  9
$MIRRTEXT
 70
     1
  9
$DRAGMODE
 70
     2
  9
$LTSCALE
 40
10.0
  9
$OSMODE
 70
    39
  9
$ATTMODE
 70
     1
  9
$TEXTSIZE
 40
3.0
  9
$TRACEWID
 40
1.0
  9
$TEXTSTYLE
  7
YOKO
  9
$CLAYER
  8
240
  9
$CELTYPE
  6
BYLAYER
  9
$CECOLOR
 62
   256
  9
$DIMSCALE
 40
1.0
  9
$DIMASZ
 40
2.2299999999999991
  9
$DIMEXO
 40
0.5
  9
$DIMDLI
 40
2.5
  9
$DIMRND
 40
0.0
  9
$DIMDLE
 40
0.0
  9
$DIMEXE
 40
1.0
  9
$DIMTP
 40
0.0
  9
$DIMTM
 40
0.0
  9
$DIMTXT
 40
3.0
  9
$DIMCEN
 40
0.0
  9
$DIMTSZ
 40
0.0
  9
$DIMTOL
 70
     0
  9
$DIMLIM
 70
     0
  9
$DIMTIH
 70
     0
  9
$DIMTOH
 70
     0
  9
$DIMSE1
 70
     0
  9
$DIMSE2
 70
     0
  9
$DIMTAD
 70
     3
  9
$DIMZIN
 70
     8
  9
$DIMBLK
  1
OPEN
  9
$DIMASO
 70
     1
  9
$DIMSHO
 70
     1
  9
$DIMPOST
  1

  9
$DIMAPOST
  1

  9
$DIMALT
 70
     0
  9
$DIMALTD
 70
     2
  9
$DIMALTF
 40
25.399999999999999
  9
$DIMLFAC
 40
1.0
  9
$DIMTOFL
 70
     1
  9
$DIMTVP
 40
0.0
  9
$DIMTIX
 70
     0
  9
$DIMSOXD
 70
     0
  9
$DIMSAH
 70
     0
  9
$DIMBLK1
  1

  9
$DIMBLK2
  1

  9
$DIMSTYLE
  2
BIGT
  9
$DIMCLRD
 70
   256
  9
$DIMCLRE
 70
   256
  9
$DIMCLRT
 70
    40
  9
$DIMTFAC
 40
1.0
  9
$DIMGAP
 40
1.0
  9
$LUNITS
 70
     2
  9
$LUPREC
 70
     3
  9
$SKETCHINC
 40
1.0
  9
$FILLETRAD
 40
0.0
  9
$AUNITS
 70
     0
  9
$AUPREC
 70
     3
  9
$MENU
  1
.
  9
$ELEVATION
 40
0.0
  9
$PELEVATION
 40
0.0
  9
$THICKNESS
 40
0.0
  9
$LIMCHECK
 70
     0
  9
$BLIPMODE
 70
     0
  9
$CHAMFERA
 40
10.0
  9
$CHAMFERB
 40
10.0
  9
$SKPOLY
 70
     0
  9
$TDCREATE
 40
2452564.4564453131
  9
$TDUPDATE
 40
2456687.4313284028
  9
$TDINDWG
 40
0.0738465741
  9
$TDUSRTIMER
 40
0.073845706
  9
$USRTIMER
 70
     1
  9
$ANGBASE
 50
0.0
  9
$ANGDIR
 70
     0
  9
$PDMODE
 70
    35
  9
$PDSIZE
 40
2.0
  9
$PLINEWID
 40
0.0
  9
$COORDS
 70
     0
  9
$SPLFRAME
 70
     0
  9
$SPLINETYPE
 70
     6
  9
$SPLINESEGS
 70
     8
  9
$ATTDIA
 70
     1
  9
$ATTREQ
 70
     1
  9
$HANDLING
 70
     1
  9
$HANDSEED
  5
2724
  9
$SURFTAB1
 70
     6
  9
$SURFTAB2
 70
     6
  9
$SURFTYPE
 70
     6
  9
$SURFU
 70
     6
  9
$SURFV
 70
     6
  9
$UCSNAME
  2

  9
$UCSORG
 10
0.0
 20
0.0
 30
0.0
  9
$UCSXDIR
 10
1.0
 20
0.0
 30
0.0
  9
$UCSYDIR
 10
0.0
 20
1.0
 30
0.0
  9
$PUCSNAME
  2

  9
$PUCSORG
 10
0.0
 20
0.0
 30
0.0
  9
$PUCSXDIR
 10
1.0
 20
0.0
 30
0.0
  9
$PUCSYDIR
 10
0.0
 20
1.0
 30
0.0
  9
$USERI1
 70
     1
  9
$USERI2
 70
     0
  9
$USERI3
 70
     0
  9
$USERI4
 70
     0
  9
$USERI5
 70
     0
  9
$USERR1
 40
0.0
  9
$USERR2
 40
0.0
  9
$USERR3
 40
0.0
  9
$USERR4
 40
0.0
  9
$USERR5
 40
0.0
  9
$WORLDVIEW
 70
     1
  9
$SHADEDGE
 70
     3
  9
$SHADEDIF
 70
    70
  9
$TILEMODE
 70
     1
  9
$MAXACTVP
 70
    16
  9
$PLIMCHECK
 70
     0
  9
$PEXTMIN
 10
1.0000000000000000E+020
 20
1.0000000000000000E+020
 30
1.0000000000000000E+020
  9
$PEXTMAX
 10
-1.0000000000000000E+020
 20
-1.0000000000000000E+020
 30
-1.0000000000000000E+020
  9
$PLIMMIN
 10
0.0
 20
0.0
  9
$PLIMMAX
 10
420.0
 20
297.0
  9
$UNITMODE
 70
     0
  9
$VISRETAIN
 70
     0
  9
$PLINEGEN
 70
     0
  9
$PSLTSCALE
 70
     1
  0
ENDSEC
  0
SECTION
  2
TABLES
  0
TABLE
  2
VPORT
 70
     3
  0
VPORT
  2
*ACTIVE
 70
     0
 10
0.0
 20
0.0
 11
1.0
 21
1.0
 12
112.1671557201042
 22
6.2627425571513413
 13
0.0
 23
0.0
 14
7.0
 24
7.0
 15
7.0
 25
7.0
 16
0.0
 26
0.0
 36
1.0
 17
0.0
 27
0.0
 37
0.0
 40
244.82765411585149
 41
1.535147392290249
 42
50.0
 43
0.0
 44
0.0
 50
0.0
 51
0.0
 71
     0
 72
  2000
 73
     1
 74
     0
 75
     0
 76
     0
 77
     0
 78
     0
  0
ENDTAB
  0
TABLE
  2
LTYPE
 70
    16
  0
LTYPE
  2
CONTINUOUS
 70
     0
  3
Solid line
 72
    65
 73
     0
 40
0.0
  0
LTYPE
  2
CENTER2
 70
     0
  3
___ _ ___ _ ___ _ ___ _ ___ _ ___ _ ___ _ ___ _
 72
    65
 73
     4
 40
1.125
 49
0.75
 49
-0.125
 49
0.125
 49
-0.125
  0
LTYPE
  2
HIDDEN2
 70
     0
  3
_ _ _ _ _ _ _ _ _ _ _ _ _ _ _ _ _ _ _ _ _ _ _ _
 72
    65
 73
     2
 40
0.1875
 49
0.125
 49
-0.0625
  0
LTYPE
  2
PHANTOM2
 70
     0
  3
___ _ _ ___ _ _ ___ _ _ ___ _ _ ___ _ _ ___ _ _
 72
    65
 73
     6
 40
1.25
 49
0.625
 49
-0.125
 49
0.125
 49
-0.125
 49
0.125
 49
-0.125
  0
LTYPE
  2
AMCONSTR
 70
     0
  3
_______________________
 72
    65
 73
     2
 40
9999.0
 49
9999.0
 49
0.0
  0
LTYPE
  2
HIDDEN
 70
     0
  3
Hidden __ __ __ __ __ __ __ __ __ __ __ __ __ _
 72
    65
 73
     2
 40
9.5249999999999986
 49
6.349999999999997
 49
-3.174999999999998
  0
LTYPE
  2
CENTER
 70
     0
  3
____ _ ____ _ ____ _ ____ _ ____ _ ____ _ ____ 
 72
    65
 73
     4
 40
2.0
 49
1.25
 49
-0.25
 49
0.25
 49
-0.25
  0
LTYPE
  2
AMZIGZAG2
 70
     0
  3
/\/-/\/-/\/-/\/-/\/-/\/
 72
    65
 73
     2
 40
0.4401
 49
0.0001
 49
-0.4400000000000003
  0
LTYPE
  2
ACANSTGB
 70
     0
  3
__ . . __ . .
 72
    65
 73
     6
 40
0.35433070866
 49
0.15748031496
 49
-0.03937007874
 49
0.03937007874
 49
-0.03937007874
 49
0.03937007874
 49
-0.03937007874
  0
LTYPE
  2
ACANSTGL
 70
     0
  3
_ _ _ _ _
 72
    65
 73
     2
 40
0.11811023622
 49
0.07874015748
 49
-0.03937007874
  0
ENDTAB
  0
TABLE
  2
LAYER
 70
    11
  0
LAYER
  2
0
 70
     0
 62
     7
  6
CONTINUOUS
  0
LAYER
  2
240
 70
     0
 62
     4
  6
CONTINUOUS
  0
LAYER
  2
241
 70
     0
 62
   211
  6
CONTINUOUS
  0
LAYER
  2
242
 70
     0
 62
     3
  6
CONTINUOUS
  0
LAYER
  2
243
 70
     0
 62
   211
  6
HIDDEN2
  0
LAYER
  2
244
 70
     0
 62
     3
  6
HIDDEN2
  0
LAYER
  2
245
 70
     0
 62
     2
  6
CENTER2
  0
LAYER
  2
247
 70
     0
 62
    60
  6
CONTINUOUS
  0
LAYER
  2
250
 70
     0
 62
     3
  6
CONTINUOUS
  0
LAYER
  2
251
 70
     0
 62
    40
  6
CONTINUOUS
  0
LAYER
  2
DEFPOINTS
 70
     0
 62
     7
  6
CONTINUOUS
  0
ENDTAB
  0
TABLE
  2
STYLE
 70
     5
  0
STYLE
  2
STANDARD
 70
     0
 40
0.0
 41
1.0
 50
0.0
 71
     0
 42
3.0
  3
romans.shx
  4
BIGFONT.SHX
  0
STYLE
  2
YOKO
 70
     0
 40
0.0
 41
1.0
 50
0.0
 71
     0
 42
3.0
  3
romans.shx
  4
extfont.shx
  0
STYLE
  2
ACANSTS
 70
     0
 40
1.0
 41
1.0
 50
0.0
 71
     0
 42
3.0
  3
romans.shx
  4
extfont.shx
  0
STYLE
  2
ACANSGDT
 70
     0
 40
0.0
 41
1.0
 50
0.0
 71
     0
 42
3.0
  3
amgdtans.shx
  4

  0
ENDTAB
  0
TABLE
  2
VIEW
 70
     0
  0
ENDTAB
  0
TABLE
  2
UCS
 70
     0
  0
ENDTAB
  0
TABLE
  2
APPID
 70
    31
  0
APPID
  2
ACAD
 70
     0
  0
APPID
  2
GLOBAL
 70
     0
  0
APPID
  2
DETAIL
 70
     0
  0
APPID
  2
GRPNAME
 70
     0
  0
APPID
  2
GPARA
 70
     0
  0
APPID
  2
ITEMNAME
 70
     0
  0
APPID
  2
HATCH_TYPE
 70
     0
  0
APPID
  2
HATCH_DISPLAY
 70
     0
  0
APPID
  2
HATCH_DISTANCE
 70
     0
  0
APPID
  2
MCAD_NO_VIS
 70
     0
  0
APPID
  2
ACAD_TEMP_GRAPHIC
 70
     0
  0
APPID
  2
ACATTRIBSERVICES
 70
     0
  0
APPID
  2
GENIUS_GENSCREG_15
 70
     0
  0
APPID
  2
GENIUS_GENODEF_13
 70
     0
  0
APPID
  2
GENIUS_GENOBJ-N-SDF_13
 70
     0
  0
APPID
  2
GENIUS_GENREC_14
 70
     0
  0
APPID
  2
GENIUS_GENOBJ-N-REC_13
 70
     0
  0
APPID
  2
GENIUS_GENDIMSH_14
 70
     0
  0
APPID
  2
GENIUS_GENOBJ-N-DIM_13
 70
     0
  0
APPID
  2
GENIUS_GENDIM_13
 70
     0
  0
APPID
  2
GENIUS_GENDTOL_13
 70
     0
  0
APPID
  2
GENIUS_GENOLIS_13
 70
     0
  0
APPID
  2
GENIUS_GENOENT_13
 70
     0
  0
APPID
  2
GENIUS_GENOBJ-F-FEM_13
 70
     0
  0
APPID
  2
GENIUS_GENOREF_13
 70
     0
  0
APPID
  2
GENIUS_GEFFEM_13
 70
     0
  0
APPID
  2
GENIUS_GEFFEMP_13
 70
     0
  0
APPID
  2
AD_DRAW
 70
     0
  0
APPID
  2
DESIGNERASSEMBLIES
 70
     0
  0
APPID
  2
ACADM_DIM_EDIT
 70
     0
  0
APPID
  2
AMDT_DM_ADJ
 70
     0
  0
ENDTAB
  0
TABLE
  2
DIMSTYLE
 70
     8
  0
DIMSTYLE
  2
STANDARD
 70
     0
  3

  4

  5

  6

  7

 40
1.0
 41
2.0
 42
2.0
 43
3.75
 44
2.0
 45
0.0
 46
0.0
 47
0.0
 48
0.0
140
4.0
141
0.09
142
0.0
143
25.399999999999999
144
1.0
145
0.0
146
1.0
147
1.0
 71
     0
 72
     0
 73
     1
 74
     1
 75
     0
 76
     0
 77
     0
 78
     8
170
     0
171
     2
172
     0
173
     1
174
     0
175
     0
176
   256
177
   256
178
   256
  0
DIMSTYLE
  2
BIGT
 70
     0
  3

  4

  5

  6

  7

 40
1.0
 41
2.2299999999999991
 42
0.5
 43
7.0
 44
1.0
 45
0.0
 46
0.0
 47
0.0
 48
0.01
140
2.799999999999998
141
0.0
142
0.0
143
25.399999999999999
144
1.0
145
0.0
146
1.0
147
1.0
 71
     0
 72
     0
 73
     0
 74
     0
 75
     0
 76
     0
 77
     3
 78
     9
170
     0
171
     2
172
     1
173
     0
174
     1
175
     0
176
   256
177
   256
178
    40
  0
DIMSTYLE
  2
AM_ANSI
 70
     0
  3

  4
mm
  5

  6

  7

 40
1.0
 41
0.1
 42
0.05
 43
0.5
 44
0.1
 45
0.0
 46
0.0
 47
0.1
 48
0.1
140
0.12
141
0.0
142
0.0
143
25.399999999999999
144
1.0
145
0.0
146
0.71
147
0.06
 71
     0
 72
     0
 73
     1
 74
     1
 75
     0
 76
     0
 77
     0
 78
     7
170
     0
171
     2
172
     0
173
     0
174
     0
175
     0
176
   256
177
   256
178
     2
  0
DIMSTYLE
  2
AM_ANSI$3
 70
     0
  3

  4
mm
  5

  6

  7

 40
1.0
 41
0.1
 42
0.05
 43
0.5
 44
0.1
 45
0.0
 46
0.0
 47
0.1
 48
0.1
140
0.12
141
0.0
142
0.0
143
25.399999999999999
144
1.0
145
0.0
146
0.71
147
0.06
 71
     0
 72
     0
 73
     1
 74
     1
 75
     0
 76
     0
 77
     0
 78
     7
170
     0
171
     2
172
     0
173
     0
174
     0
175
     0
176
   256
177
   256
178
     2
  0
DIMSTYLE
  2
AM_ANSI$4
 70
     0
  3

  4
mm
  5

  6

  7

 40
1.0
 41
0.1
 42
0.05
 43
0.5
 44
0.1
 45
0.0
 46
0.0
 47
0.1
 48
0.1
140
0.12
141
0.0
142
0.0
143
25.399999999999999
144
1.0
145
0.0
146
0.71
147
0.06
 71
     0
 72
     0
 73
     1
 74
     1
 75
     0
 76
     0
 77
     0
 78
     7
170
     0
171
     2
172
     0
173
     0
174
     0
175
     0
176
   256
177
   256
178
     2
  0
DIMSTYLE
  2
AM_ANSI$7
 70
     0
  3

  4
mm
  5

  6

  7

 40
1.0
 41
0.1
 42
0.05
 43
0.5
 44
0.1
 45
0.0
 46
0.0
 47
0.1
 48
0.1
140
0.24
141
0.0
142
0.0
143
25.399999999999999
144
1.0
145
0.0
146
0.71
147
0.06
 71
     0
 72
     0
 73
     1
 74
     1
 75
     0
 76
     0
 77
     0
 78
     7
170
     0
171
     2
172
     0
173
     0
174
     0
175
     0
176
   256
177
   256
178
     2
  0
DIMSTYLE
  2
AM_ANSI$SF
 70
     0
  3

  4
mm
  5

  6

  7

 40
1.0
 41
0.1
 42
0.05
 43
0.5
 44
0.1
 45
0.0
 46
0.0
 47
0.1
 48
0.1
140
0.12
141
0.0
142
0.0
143
25.399999999999999
144
1.0
145
0.0
146
0.71
147
0.06
 71
     0
 72
     0
 73
     1
 74
     1
 75
     1
 76
     1
 77
     0
 78
     7
170
     0
171
     2
172
     0
173
     0
174
     0
175
     0
176
   256
177
   256
178
     2
  0
DIMSTYLE
  2
AM_ANSI$SH
 70
     0
  3

  4
mm
  5

  6

  7

 40
1.0
 41
0.1
 42
0.05
 43
0.5
 44
0.1
 45
0.0
 46
0.0
 47
0.1
 48
0.1
140
0.12
141
0.0
142
0.0
143
25.399999999999999
144
1.0
145
0.0
146
0.71
147
0.06
 71
     0
 72
     0
 73
     1
 74
     1
 75
     1
 76
     1
 77
     0
 78
     7
170
     0
171
     2
172
     0
173
     1
174
     0
175
     0
176
   256
177
   256
178
     2
  0
ENDTAB
  0
ENDSEC
  0
SECTION
  2
BLOCKS
  0
BLOCK
  8
0
  2
$MODEL_SPACE
 70
     0
 10
0.0
 20
0.0
 30
0.0
  3
$MODEL_SPACE
  1

  0
ENDBLK
  5
25C4
  8
0
  0
BLOCK
 67
     1
  8
0
  2
$PAPER_SPACE
 70
     0
 10
0.0
 20
0.0
 30
0.0
  3
$PAPER_SPACE
  1

  0
ENDBLK
  5
25C0
 67
     1
  8
0
  0
BLOCK
  8
0
  2
_OPEN
 70
     0
 10
0.0
 20
0.0
 30
0.0
  3
_OPEN
  1

  0
LINE
  5
17AE
  8
0
  6
BYBLOCK
 62
     0
 10
-1.0
 20
0.1666666666666666
 30
0.0
 11
0.0
 21
0.0
 31
0.0
  0
LINE
  5
17AF
  8
0
  6
BYBLOCK
 62
     0
 10
-1.0
 20
-0.1666666666666666
 30
0.0
 11
0.0
 21
0.0
 31
0.0
  0
LINE
  5
17B0
  8
0
  6
BYBLOCK
 62
     0
 10
0.0
 20
0.0
 30
0.0
 11
-1.0
 21
0.0
 31
0.0
  0
ENDBLK
  5
17B1
  8
0
  0
ENDSEC
  0
SECTION
  2
ENTITIES
  0
LINE
  5
950
  8
244
 10
26.000000000000028
 20
-19.0
 30
0.0
 11
26.000000000000028
 21
-46.200000000000031
 31
0.0
  0
LINE
  5
958
  8
244
 10
-25.146846199910328
 20
-44.729634394471361
 30
0.0
 11
20.000000000000021
 21
-44.729634394471361
 31
0.0
  0
LINE
  5
959
  8
244
 10
-25.146846199910328
 20
-67.500000000000014
 30
0.0
 11
20.00000000000005
 21
-67.500000000000014
 31
0.0
  0
LINE
  5
95A
  8
244
 10
-25.146846199910328
 20
-41.800842886652077
 30
0.0
 11
-25.146846199910311
 21
-73.430248741850789
 31
0.0
  0
LINE
  5
960
  8
244
 10
21.983716857408378
 20
-46.200000000000031
 30
0.0
 11
26.983716857408549
 21
-46.200000000000031
 31
0.0
  0
LINE
  5
962
  8
244
 10
21.983716857408378
 20
-63.79999999999999
 30
0.0
 11
26.983716857408361
 21
-63.800000000000011
 31
0.0
  0
LINE
  5
966
  8
244
 10
18.000000000000139
 20
-48.500000000000007
 30
0.0
 11
21.983716857408549
 21
-46.200000000000031
 31
0.0
  0
LINE
  5
96A
  8
244
 10
15.00000000000002
 20
-61.500000000000021
 30
0.0
 11
9.0000000000000284
 21
-60.442038115749241
 31
0.0
  0
LINE
  5
96B
  8
244
 10
9.0000000000000284
 20
-49.557961884250822
 30
0.0
 11
14.99999999999997
 21
-48.500000000000007
 31
0.0
  0
LINE
  5
970
  8
244
 10
5.2000000000000171
 20
-59.700000000000017
 30
0.0
 11
5.2000000000000171
 21
-50.300000000000011
 31
0.0
  0
LINE
  5
971
  8
244
 10
9.0000000000000284
 20
-60.442038115749241
 30
0.0
 11
9.0000000000000284
 21
-55.0
 31
0.0
  0
LINE
  5
972
  8
244
 10
7.0000000000000258
 20
-60.0
 30
0.0
 11
7.0000000000000258
 21
-55.0
 31
0.0
  0
LINE
  5
973
  8
244
 10
5.5000000000000284
 20
-60.0
 30
0.0
 11
7.0000000000000258
 21
-60.0
 31
0.0
  0
LINE
  5
974
  8
244
 10
5.5000000000000284
 20
-60.0
 30
0.0
 11
5.2000000000000171
 21
-59.700000000000017
 31
0.0
  0
LINE
  5
978
  8
244
 10
5.5000000000000284
 20
-50.0
 30
0.0
 11
7.0000000000000258
 21
-50.0
 31
0.0
  0
LINE
  5
979
  8
244
 10
5.2000000000000171
 20
-50.300000000000011
 30
0.0
 11
5.5000000000000284
 21
-50.0
 31
0.0
  0
LINE
  5
97B
  8
244
 10
7.0000000000000258
 20
-50.0
 30
0.0
 11
7.0000000000000258
 21
-55.0
 31
0.0
  0
LINE
  5
97C
  8
244
 10
9.0000000000000284
 20
-55.0
 30
0.0
 11
9.0000000000000284
 21
-49.557961884250822
 31
0.0
  0
LINE
  5
97D
  8
244
 10
9.0000000000000284
 20
-59.000000000000021
 30
0.0
 11
7.0000000000000258
 21
-59.000000000000021
 31
0.0
  0
LINE
  5
980
  8
244
 10
9.0000000000000284
 20
-51.000000000000007
 30
0.0
 11
7.0000000000000258
 21
-51.000000000000007
 31
0.0
  0
LINE
  5
989
  8
244
 10
21.983716857408378
 20
-63.79999999999999
 30
0.0
 11
18.00000000000005
 21
-61.500000000000021
 31
0.0
  0
LINE
  5
98A
  8
244
 10
20.00000000000005
 20
-61.800000000000033
 30
0.0
 11
20.00000000000005
 21
-67.500000000000014
 31
0.0
  0
LINE
  5
98B
  8
244
 10
15.00000000000002
 20
-61.500000000000021
 30
0.0
 11
18.000000000000021
 21
-61.500000000000021
 31
0.0
  0
LINE
  5
992
  8
244
 10
15.00000000000002
 20
-48.500000000000007
 30
0.0
 11
18.000000000000021
 21
-48.500000000000007
 31
0.0
  0
LINE
  5
996
  8
244
 10
20.000000000000021
 20
-44.729634394471361
 30
0.0
 11
20.000000000000021
 21
-48.200000000000003
 31
0.0
  0
LINE
  5
A2D
  8
244
 10
26.000000000000028
 20
-19.0
 30
0.0
 11
30.000000000000028
 21
-19.0
 31
0.0
  0
LINE
  5
FBF
  8
250
 10
201.6518971781388
 20
-70.859732843872962
 30
0.0
 11
174.0518971781388
 21
-70.859732843872962
 31
0.0
1001
ITEMNAME
1000
LNSP2
  0
LINE
  5
FC7
  8
250
 10
276.83355169645682
 20
-63.46122864854123
 30
0.0
 11
247.6049802678854
 21
-63.46122864854123
 31
0.0
1001
ITEMNAME
1000
LNSP2
  0
LINE
  5
FCF
  8
250
 10
266.0832179265721
 20
66.752436409621069
 30
0.0
 11
286.48321792657219
 21
66.752436409621069
 31
0.0
1001
ITEMNAME
1000
LNSP2
  0
LINE
  5
FDF
  8
250
 10
-20.456839954410409
 20
-80.37381731977429
 30
0.0
 11
-54.685411382981847
 21
-80.37381731977429
 31
0.0
1001
ITEMNAME
1000
LNSP2
  0
TEXT
  5
10B7
  8
251
 62
   211
 10
-63.107690891647792
 20
90.999723871324008
 30
0.0
 40
5.0
  1
BBT30-AG90-13-125
  7
YOKO
 11
-63.107690891647792
 21
90.999723871324008
 31
0.0
 73
     1
  0
LINE
  5
1A26
  8
250
 10
-0.0000000000000711
 20
16.37499999999994
 30
0.0
 11
-0.0000000000000703
 21
29.0
 31
0.0
  0
LINE
  5
1C2F
  8
250
 10
259.0
 20
54.483943079715431
 30
0.0
 11
258.99999999999989
 21
80.346741744197018
 31
0.0
  0
LINE
  5
1C30
  8
250
 10
206.82196581030939
 20
-52.178034189690443
 30
0.0
 11
202.18627406643409
 21
-56.81372593356582
 31
0.0
  0
ARC
  5
1C31
  8
250
 10
259.0
 20
0.0000000000001137
 30
0.0
 40
79.346741744196905
 50
91.610321872031903
 51
223.3896781279681
  0
LINE
  5
1C35
  8
250
 10
-0.0000000000000142
 20
16.374999999999929
 30
0.0
 11
-0.0000000000000104
 21
78.0
 31
0.0
  0
LINE
  5
1C36
  8
250
 10
124.9999999999999
 20
55.181096182113038
 30
0.0
 11
124.9999999999999
 21
78.0
 31
0.0
  0
LINE
  5
1C37
  8
250
 10
2.229999999999988
 20
77.0
 30
0.0
 11
122.7699999999999
 21
77.0
 31
0.0
  0
LINE
  5
1C3B
  8
250
 10
152.69517066010579
 20
-0.0000000000000001
 30
0.0
 11
162.0
 21
-0.0000000000000028
 31
0.0
  0
LINE
  5
1C3C
  8
250
 10
141.46005050633889
 20
51.999999999999879
 30
0.0
 11
162.0
 21
51.999999999999879
 31
0.0
  0
LINE
  5
1C3D
  8
250
 10
161.0
 20
2.2299999999999951
 30
0.0
 11
161.0
 21
49.769999999999882
 31
0.0
  0
LINE
  5
1C41
  8
250
 10
107.5
 20
50.918629148181139
 30
0.0
 11
107.5
 21
71.0
 31
0.0
  0
LINE
  5
1C42
  8
250
 10
142.50000000000011
 20
50.918629150657921
 30
0.0
 11
142.50000000000011
 21
71.0
 31
0.0
  0
LINE
  5
1C43
  8
250
 10
109.73
 20
70.0
 30
0.0
 11
140.2700000000001
 21
70.0
 31
0.0
  0
LINE
  5
1C47
  8
250
 10
118.5
 20
52.499999999999893
 30
0.0
 11
118.5
 21
64.0
 31
0.0
  0
LINE
  5
1C48
  8
250
 10
131.5
 20
52.499999999999893
 30
0.0
 11
131.5
 21
64.0
 31
0.0
  0
LINE
  5
1C49
  8
250
 10
120.73
 20
63.0
 30
0.0
 11
129.2700000000001
 21
63.0
 31
0.0
  0
LINE
  5
1C4D
  8
250
 10
206.82196581030939
 20
-52.178034189690401
 30
0.0
 11
202.18627406643401
 21
-56.813725933565792
 31
0.0
  0
LINE
  5
1C4E
  8
250
 10
281.44152817378563
 20
-38.869866996485193
 30
0.0
 11
299.1733708720983
 21
-69.582319461782092
 31
0.0
  0
ARC
  5
1C4F
  8
250
 10
258.99999999999989
 20
0.0000000000000924
 30
0.0
 40
79.346741744196933
 50
226.6103218720319
 51
298.38967812796801
  0
TEXT
  5
1C55
  8
250
 10
177.0518971781388
 20
-69.859732843872962
 30
0.0
 40
3.0
  1
位置決めピン
  7
YOKO
1001
ITEMNAME
1000
LNSP3
1001
ACAD
1000
MTEXTBEGIN
1070
    73
1070
     1
1070
    44
1040
1.0
1070
    74
1070
     0
1000
MTEXTEND
  0
TEXT
  5
1C58
  8
250
 10
249.20498026788539
 20
-62.461228648541237
 30
0.0
 40
3.0
  1
ドライブキー溝
  7
YOKO
1001
ITEMNAME
1000
LNSP3
1001
ACAD
1000
MTEXTBEGIN
1070
    73
1070
     1
1070
    44
1040
1.0
1070
    74
1070
     0
1000
MTEXTEND
  0
TEXT
  5
1C59
  8
250
 10
269.08321792657199
 20
67.752436409621069
 30
0.0
 40
3.0
  1
刃先方向
  7
YOKO
1001
ITEMNAME
1000
LNSP3
1001
ACAD
1000
MTEXTBEGIN
1070
    73
1070
     1
1070
    44
1040
1.0
1070
    74
1070
     0
1000
MTEXTEND
  0
LINE
  5
1C5C
  8
250
 10
14.00000000000003
 20
-49.05796188425083
 30
0.0
 11
14.00000000000003
 21
-41.0
 31
0.0
  0
LINE
  5
1C5D
  8
250
 10
20.000000000000021
 20
-44.229634394471361
 30
0.0
 11
20.000000000000021
 21
-41.0
 31
0.0
  0
LINE
  5
1C5E
  8
250
 10
11.77000000000003
 20
-42.0
 30
0.0
 11
9.5400000000000311
 21
-42.0
 31
0.0
  0
LINE
  5
1C5F
  8
250
 10
22.230000000000022
 20
-42.0
 30
0.0
 11
24.460000000000012
 21
-42.0
 31
0.0
  0
LINE
  5
1C60
  8
250
 10
14.00000000000003
 20
-42.0
 30
0.0
 11
20.000000000000021
 21
-42.0
 31
0.0
  0
LINE
  5
1C66
  8
250
 10
9.2768679246329082
 20
-55.0
 30
0.0
 11
-15.000000000000011
 21
-55.0
 31
0.0
  0
LINE
  5
1C67
  8
250
 10
-14.000000000000011
 20
-52.77000000000001
 30
0.0
 11
-13.999999999999989
 21
-2.2299999999999951
 31
0.0
  0
TEXT
  5
1C6D
  8
250
 10
-51.685411382981847
 20
-79.37381731977429
 30
0.0
 40
3.0
  1
位置決めブロック
  7
YOKO
1001
ITEMNAME
1000
LNSP3
1001
ACAD
1000
MTEXTBEGIN
1070
    73
1070
     1
1070
    44
1040
1.0
1070
    74
1070
     0
1000
MTEXTEND
  0
LINE
  5
1C6F
  8
250
 10
-0.0000000000000143
 20
-16.875000000000039
 30
0.0
 11
-0.000000000000016
 21
-43.0
 31
0.0
  0
LINE
  5
1C70
  8
250
 10
14.00000000000003
 20
-49.05796188425083
 30
0.0
 11
14.00000000000003
 21
-41.0
 31
0.0
  0
LINE
  5
1C71
  8
250
 10
2.2299999999999822
 20
-42.0
 30
0.0
 11
11.77000000000003
 21
-42.0
 31
0.0
  0
LINE
  5
1C75
  8
250
 10
-0.0000000000000142
 20
-16.375000000000039
 30
0.0
 11
-0.0000000000000151
 21
-36.0
 31
0.0
  0
LINE
  5
1C76
  8
250
 10
20.000000000000021
 20
-44.229634394471361
 30
0.0
 11
20.000000000000021
 21
-34.0
 31
0.0
  0
LINE
  5
1C77
  8
250
 10
2.2299999999999822
 20
-35.0
 30
0.0
 11
17.770000000000021
 21
-35.0
 31
0.0
  0
LINE
  5
1C82
  8
250
 10
161.37166666666661
 20
2.2299999999999951
 30
0.0
 11
161.0
 21
-0.0000000000000025
 31
0.0
  0
LINE
  5
1C83
  8
250
 10
160.6283333333333
 20
2.2299999999999951
 30
0.0
 11
161.0
 21
-0.0000000000000025
 31
0.0
  0
LINE
  5
1C84
  8
250
 10
161.0
 20
-0.0000000000000025
 30
0.0
 11
161.0
 21
2.2299999999999951
 31
0.0
  0
TEXT
  5
1C85
  8
250
 10
159.9999999999998
 20
23.14285714285711
 30
0.0
 40
3.0
  1
52
 50
90.0
1001
ACAD
1000
MTEXTBEGIN
1070
    73
1070
     1
1070
    44
1040
1.0
1070
    74
1070
     0
1000
MTEXTEND
  0
LINE
  5
1C86
  8
250
 10
109.73
 20
69.62833333333333
 30
0.0
 11
107.5
 21
70.0
 31
0.0
  0
LINE
  5
1C87
  8
250
 10
109.73
 20
70.37166666666667
 30
0.0
 11
107.5
 21
70.0
 31
0.0
  0
LINE
  5
1C88
  8
250
 10
107.5
 20
70.0
 30
0.0
 11
109.73
 21
70.0
 31
0.0
  0
TEXT
  5
1C89
  8
250
 10
115.5714285714285
 20
64.0
 30
0.0
 40
3.0
  1
MAX.\U+220513
  0
TEXT
  5
1C8A
  8
250
 10
120.78571428571441
 20
71.0
 30
0.0
 40
3.0
  1
\U+2205
1001
ACAD
1000
MTEXTBEGIN
1070
    73
1070
     1
1070
    44
1040
1.0
1070
    74
1070
     0
1000
MTEXTEND
  0
TEXT
  5
1C8B
  8
250
 10
123.5000000000001
 20
71.0
 30
0.0
 40
3.0
  1
35
1001
ACAD
1000
MTEXTBEGIN
1070
    73
1070
     1
1070
    44
1040
1.0
1070
    74
1070
     0
1000
MTEXTEND
  0
LINE
  5
1C8C
  8
250
 10
120.73
 20
62.62833333333333
 30
0.0
 11
118.5
 21
63.0
 31
0.0
  0
LINE
  5
1C8D
  8
250
 10
120.73
 20
63.37166666666667
 30
0.0
 11
118.5
 21
63.0
 31
0.0
  0
LINE
  5
1C8E
  8
250
 10
118.5
 20
63.0
 30
0.0
 11
120.73
 21
63.0
 31
0.0
  0
LINE
  5
1C8F
  8
250
 10
129.27000000000001
 20
63.37166666666667
 30
0.0
 11
131.5
 21
63.0
 31
0.0
  0
LINE
  5
1C90
  8
250
 10
129.27000000000001
 20
62.62833333333333
 30
0.0
 11
131.5
 21
63.0
 31
0.0
  0
LINE
  5
1C91
  8
250
 10
131.5
 20
63.0
 30
0.0
 11
129.27000000000001
 21
63.0
 31
0.0
  0
LINE
  5
1C92
  8
250
 10
122.7699999999999
 20
77.371666666666655
 30
0.0
 11
124.9999999999999
 21
77.0
 31
0.0
  0
LINE
  5
1C93
  8
250
 10
122.7699999999999
 20
76.62833333333333
 30
0.0
 11
124.9999999999999
 21
77.0
 31
0.0
  0
LINE
  5
1C94
  8
250
 10
124.9999999999999
 20
77.0
 30
0.0
 11
122.7699999999999
 21
77.0
 31
0.0
  0
LINE
  5
1C95
  8
250
 10
140.2700000000001
 20
70.37166666666667
 30
0.0
 11
142.50000000000011
 21
70.0
 31
0.0
  0
LINE
  5
1C96
  8
250
 10
140.2700000000001
 20
69.62833333333333
 30
0.0
 11
142.50000000000011
 21
70.0
 31
0.0
  0
LINE
  5
1C97
  8
250
 10
142.50000000000011
 20
70.0
 30
0.0
 11
140.2700000000001
 21
70.0
 31
0.0
  0
LINE
  5
1C98
  8
250
 10
160.6283333333333
 20
49.769999999999889
 30
0.0
 11
161.0
 21
51.999999999999879
 31
0.0
  0
LINE
  5
1C99
  8
250
 10
161.37166666666661
 20
49.769999999999889
 30
0.0
 11
161.0
 21
51.999999999999879
 31
0.0
  0
LINE
  5
1C9A
  8
250
 10
161.0
 20
51.999999999999879
 30
0.0
 11
161.0
 21
49.769999999999889
 31
0.0
  0
TEXT
  5
1C9B
  8
250
 10
245.9126715273176
 20
-77.29981321011563
 30
0.0
 40
3.0
  1
θ1
 50
352.50000000000011
1001
ACAD
1000
MTEXTBEGIN
1070
    73
1070
     1
1070
    44
1040
1.0
1070
    74
1070
     0
1000
MTEXTEND
  0
LINE
  5
1C9C
  8
250
 10
218.9941270347413
 20
-40.822109615699553
 30
0.0
 11
201.6518971781388
 21
-70.859732843872962
 31
0.0
1001
ACAD
1000
DSTYLE
1002
{
1070
     5
1000
OPEN
1070
    78
1070
     8
1070
   140
1040
3.0
1002
}
  0
LINE
  5
1C9D
  8
250
 10
204.2331425062265
 20
-57.927628435507842
 30
0.0
 11
202.89338084762051
 21
-56.106619152379238
 31
0.0
  0
LINE
  5
1C9E
  8
250
 10
204.75132056245161
 20
-57.394678206601661
 30
0.0
 11
202.89338084762051
 21
-56.106619152379238
 31
0.0
  0
LINE
  5
1C9F
  8
250
 10
202.89338084762051
 20
-56.106619152379238
 30
0.0
 11
204.49223153433911
 21
-57.661153321054741
 31
0.0
  0
LINE
  5
1CA0
  8
250
 10
201.60532179339819
 20
-54.248679437548113
 30
0.0
 11
202.89338084762051
 21
-56.106619152379238
 31
0.0
  0
LINE
  5
1CA1
  8
250
 10
201.07237156449199
 20
-54.766857493773273
 30
0.0
 11
202.89338084762051
 21
-56.106619152379238
 31
0.0
  0
LINE
  5
1CA2
  8
250
 10
202.89338084762051
 20
-56.106619152379238
 30
0.0
 11
201.33884667894509
 21
-54.507768465660703
 31
0.0
  0
LINE
  5
1CA3
  8
250
 10
218.67225425966811
 20
-40.636276282366211
 30
0.0
 11
220.10912703474131
 21
-38.89087296526025
 31
0.0
  0
LINE
  5
1CA4
  8
250
 10
219.31599980981451
 20
-41.007942949032881
 30
0.0
 11
220.10912703474131
 21
-38.89087296526025
 31
0.0
  0
LINE
  5
1CA5
  8
250
 10
220.10912703474131
 20
-38.89087296526025
 30
0.0
 11
218.9941270347413
 21
-40.822109615699553
 31
0.0
  0
LINE
  5
1CA6
  8
250
 10
281.03081477452969
 20
-41.061718839943516
 30
0.0
 11
276.83355169645682
 21
-63.46122864854123
 31
0.0
1001
ACAD
1000
DSTYLE
1002
{
1070
     5
1000
OPEN
1070
    78
1070
     8
1070
   140
1040
3.0
1002
}
  0
LINE
  5
1CA7
  8
250
 10
280.66550613395327
 20
-40.993266606734217
 30
0.0
 11
281.44152817378563
 21
-38.869866996485193
 31
0.0
  0
LINE
  5
1CA8
  8
250
 10
281.3961234151061
 20
-41.13017107315283
 30
0.0
 11
281.44152817378563
 21
-38.869866996485193
 31
0.0
  0
LINE
  5
1CA9
  8
250
 10
281.44152817378563
 20
-38.869866996485193
 30
0.0
 11
281.03081477452969
 21
-41.061718839943516
 31
0.0
  0
LINE
  5
1CAA
  8
250
 10
296.54536470340531
 20
-69.479593381405905
 30
0.0
 11
298.6733708720983
 21
-68.716294057997644
 31
0.0
  0
LINE
  5
1CAB
  8
250
 10
296.90794860119678
 20
-70.128498121338353
 30
0.0
 11
298.6733708720983
 21
-68.716294057997644
 31
0.0
  0
LINE
  5
1CAC
  8
250
 10
298.6733708720983
 20
-68.716294057997644
 30
0.0
 11
296.72665665230107
 21
-69.804045751372115
 31
0.0
  0
TEXT
  5
1CAD
  8
250
 10
183.5009675655848
 20
27.68536617369767
 30
0.0
 40
3.0
  1
θ2
 50
67.5
1001
ACAD
1000
MTEXTBEGIN
1070
    73
1070
     1
1070
    44
1040
1.0
1070
    74
1070
     0
1000
MTEXTEND
  0
LINE
  5
1CAE
  8
250
 10
260.11500000000001
 20
56.415179730154712
 30
0.0
 11
266.0832179265721
 21
66.752436409621069
 31
0.0
1001
ACAD
1000
DSTYLE
1002
{
1070
     5
1000
OPEN
1070
    78
1070
     8
1070
   140
1040
3.0
1002
}
  0
LINE
  5
1CAF
  8
250
 10
260.4368727750732
 20
56.229346396821391
 30
0.0
 11
259.0
 21
54.483943079715431
 31
0.0
  0
LINE
  5
1CB0
  8
250
 10
259.79312722492682
 20
56.601013063488061
 30
0.0
 11
259.0
 21
54.483943079715431
 31
0.0
  0
LINE
  5
1CB1
  8
250
 10
259.0
 20
54.483943079715431
 30
0.0
 11
260.11500000000001
 21
56.415179730154712
 31
0.0
  0
LINE
  5
1CB2
  8
250
 10
256.76499743332209
 20
79.687035202926907
 30
0.0
 11
259.0
 21
79.346741744197047
 31
0.0
  0
LINE
  5
1CB3
  8
250
 10
256.77544293679767
 20
78.943775264613564
 30
0.0
 11
259.0
 21
79.346741744197047
 31
0.0
  0
LINE
  5
1CB4
  8
250
 10
259.0
 20
79.346741744197047
 30
0.0
 11
256.77022018505988
 21
79.315405233770221
 31
0.0
  0
LINE
  5
1CB8
  8
250
 10
-14.139138059340651
 20
-69.431236650439317
 30
0.0
 11
-20.456839954410409
 21
-80.37381731977429
 31
0.0
1001
ACAD
1000
DSTYLE
1002
{
1070
     5
1000
OPEN
1070
    78
1070
     8
1070
   140
1040
3.0
1002
}
  0
LINE
  5
1CBA
  8
250
 10
-14.461010834413861
 20
-69.245403317105982
 30
0.0
 11
-13.02413805934065
 21
-67.500000000000014
 31
0.0
  0
LINE
  5
1CBB
  8
250
 10
-13.81726528426743
 20
-69.617069983772652
 30
0.0
 11
-13.02413805934065
 21
-67.500000000000014
 31
0.0
  0
LINE
  5
1CBC
  8
250
 10
-13.02413805934065
 20
-67.500000000000014
 30
0.0
 11
-14.139138059340651
 21
-69.431236650439317
 31
0.0
  0
LINE
  5
1CBD
  8
250
 10
-13.628333333333339
 20
-52.77000000000001
 30
0.0
 11
-14.000000000000011
 21
-55.0
 31
0.0
  0
LINE
  5
1CBE
  8
250
 10
-14.37166666666667
 20
-52.77000000000001
 30
0.0
 11
-14.000000000000011
 21
-55.0
 31
0.0
  0
LINE
  5
1CBF
  8
250
 10
-14.000000000000011
 20
-55.0
 30
0.0
 11
-14.000000000000011
 21
-52.77000000000001
 31
0.0
  0
TEXT
  5
1CC0
  8
250
 10
-15.0
 20
-30.357142857142861
 30
0.0
 40
3.0
  1
55
 50
90.0
1001
ACAD
1000
MTEXTBEGIN
1070
    73
1070
     1
1070
    44
1040
1.0
1070
    74
1070
     0
1000
MTEXTEND
  0
TEXT
  5
1CC1
  8
250
 10
6.0045843114165676
 20
-34.0
 30
0.0
 40
3.0
  1
20
1001
ACAD
1000
MTEXTBEGIN
1070
    73
1070
     1
1070
    44
1040
1.0
1070
    74
1070
     0
1000
MTEXTEND
  0
LINE
  5
1CC2
  8
250
 10
11.77000000000003
 20
-41.62833333333333
 30
0.0
 11
14.00000000000003
 21
-42.0
 31
0.0
  0
LINE
  5
1CC3
  8
250
 10
11.77000000000003
 20
-42.371666666666663
 30
0.0
 11
14.00000000000003
 21
-42.0
 31
0.0
  0
LINE
  5
1CC4
  8
250
 10
14.00000000000003
 20
-42.0
 30
0.0
 11
11.77000000000003
 21
-42.0
 31
0.0
  0
LINE
  5
1CC5
  8
250
 10
11.77000000000003
 20
-41.62833333333333
 30
0.0
 11
14.00000000000003
 21
-42.0
 31
0.0
  0
LINE
  5
1CC6
  8
250
 10
11.77000000000003
 20
-42.371666666666663
 30
0.0
 11
14.00000000000003
 21
-42.0
 31
0.0
  0
LINE
  5
1CC7
  8
250
 10
14.00000000000003
 20
-42.0
 30
0.0
 11
11.77000000000003
 21
-42.0
 31
0.0
  0
LINE
  5
1CC8
  8
250
 10
2.2299999999999822
 20
-42.371666666666663
 30
0.0
 11
-0.000000000000016
 21
-42.0
 31
0.0
  0
LINE
  5
1CC9
  8
250
 10
2.2299999999999822
 20
-41.62833333333333
 30
0.0
 11
-0.000000000000016
 21
-42.0
 31
0.0
  0
LINE
  5
1CCA
  8
250
 10
-0.000000000000016
 20
-42.0
 30
0.0
 11
2.2299999999999822
 21
-42.0
 31
0.0
  0
TEXT
  5
1CCB
  8
250
 10
4.7188700257022811
 20
-41.0
 30
0.0
 40
3.0
  1
14
1001
ACAD
1000
MTEXTBEGIN
1070
    73
1070
     1
1070
    44
1040
1.0
1070
    74
1070
     0
1000
MTEXTEND
  0
LINE
  5
1CCC
  8
250
 10
2.2299999999999822
 20
-35.37166666666667
 30
0.0
 11
-0.0000000000000151
 21
-35.0
 31
0.0
  0
LINE
  5
1CCD
  8
250
 10
2.2299999999999822
 20
-34.62833333333333
 30
0.0
 11
-0.0000000000000151
 21
-35.0
 31
0.0
  0
LINE
  5
1CCE
  8
250
 10
-0.0000000000000151
 20
-35.0
 30
0.0
 11
2.2299999999999822
 21
-35.0
 31
0.0
  0
TEXT
  5
1CCF
  8
250
 10
15.50000000000002
 20
-41.0
 30
0.0
 40
3.0
  1
6
  0
LINE
  5
1CD0
  8
250
 10
22.230000000000022
 20
-42.371666666666663
 30
0.0
 11
20.000000000000021
 21
-42.0
 31
0.0
  0
LINE
  5
1CD1
  8
250
 10
22.230000000000022
 20
-41.62833333333333
 30
0.0
 11
20.000000000000021
 21
-42.0
 31
0.0
  0
LINE
  5
1CD2
  8
250
 10
20.000000000000021
 20
-42.0
 30
0.0
 11
22.230000000000022
 21
-42.0
 31
0.0
  0
LINE
  5
1CD3
  8
250
 10
17.770000000000021
 20
-34.62833333333333
 30
0.0
 11
20.000000000000021
 21
-35.0
 31
0.0
  0
LINE
  5
1CD4
  8
250
 10
17.770000000000021
 20
-35.37166666666667
 30
0.0
 11
20.000000000000021
 21
-35.0
 31
0.0
  0
LINE
  5
1CD5
  8
250
 10
20.000000000000021
 20
-35.0
 30
0.0
 11
17.770000000000021
 21
-35.0
 31
0.0
  0
LINE
  5
1CD6
  8
250
 10
-14.371666666666661
 20
-2.2299999999999951
 30
0.0
 11
-13.999999999999989
 21
0.000000000000004
 31
0.0
  0
LINE
  5
1CD7
  8
250
 10
-13.62833333333332
 20
-2.2299999999999951
 30
0.0
 11
-13.999999999999989
 21
0.000000000000004
 31
0.0
  0
LINE
  5
1CD8
  8
250
 10
-13.999999999999989
 20
0.000000000000004
 30
0.0
 11
-13.999999999999989
 21
-2.2299999999999951
 31
0.0
  0
LINE
  5
1CD9
  8
250
 10
2.229999999999988
 20
76.62833333333333
 30
0.0
 11
-0.0000000000000105
 21
77.0
 31
0.0
  0
LINE
  5
1CDA
  8
250
 10
2.229999999999988
 20
77.371666666666655
 30
0.0
 11
-0.0000000000000105
 21
77.0
 31
0.0
  0
LINE
  5
1CDB
  8
250
 10
-0.0000000000000105
 20
77.0
 30
0.0
 11
2.229999999999988
 21
77.0
 31
0.0
  0
TEXT
  5
1CDC
  8
250
 10
57.999999999999979
 20
78.0
 30
0.0
 40
3.0
  1
125
1001
ACAD
1000
MTEXTBEGIN
1070
    73
1070
     1
1070
    44
1040
1.0
1070
    74
1070
     0
1000
MTEXTEND
  0
LINE
  5
225D
  8
243
 10
18.99999999999994
 20
16.300000000000061
 30
0.0
 11
0.9999999999999287
 21
16.300000000000061
 31
0.0
1001
GRPNAME
1000
PASTMD0L
  0
LINE
  5
225E
  8
243
 10
18.99999999999994
 20
-16.300000000000061
 30
0.0
 11
0.9999999999999287
 21
-16.300000000000061
 31
0.0
1001
GRPNAME
1000
PASTMD0L
  0
LINE
  5
225F
  8
245
 10
78.499999999999972
 20
0.0
 30
0.0
 11
-74.912870829885264
 21
0.0
 31
0.0
1001
GRPNAME
1000
00000001
  0
LINE
  5
2260
  8
245
 10
9.7768679246329082
 20
-55.0
 30
0.0
 11
93.652781962296359
 21
-55.0
 31
0.0
1001
GRPNAME
1000
PASTMD01
  0
LINE
  5
2261
  8
240
 10
20.000000000000021
 20
-61.500000000000021
 30
0.0
 11
23.00000000000005
 21
-61.500000000000021
 31
0.0
1001
GRPNAME
1000
PASTMD1G
  0
LINE
  5
2262
  8
240
 10
20.000000000000021
 20
-48.500000000000007
 30
0.0
 11
23.000000000000139
 21
-48.500000000000007
 31
0.0
1001
GRPNAME
1000
PASTMD1G
  0
LINE
  5
2263
  8
240
 10
17.76327465612685
 20
-23.00000000000006
 30
0.0
 11
29.000000000000028
 21
-23.0
 31
0.0
1001
GRPNAME
1000
PASTMD01
  0
LINE
  5
2264
  8
240
 10
17.76327465612685
 20
22.999999999999972
 30
0.0
 11
29.000000000000028
 21
22.999999999999972
 31
0.0
1001
GRPNAME
1000
PASTMD01
  0
ARC
  5
2266
  8
247
 10
6.2466575638466111
 20
-14.37802835060927
 30
0.0
 40
1.288295745849606
 50
0.0
 51
194.1274364964118
1001
ACAD
1000
ASC_BOUNDS
1002
{
1070
    19
1005
2265
1002
}
  0
ARC
  5
2267
  8
247
 10
6.2466575638466111
 20
-14.37802835060927
 30
0.0
 40
1.591426849365233
 50
0.0
 51
194.77079396609381
1001
ACAD
1000
ASC_BOUNDS
1002
{
1070
    19
1005
2265
1002
}
  0
LINE
  5
2268
  8
240
 10
-47.97215511479628
 20
-8.8788955190539127
 30
0.0
 11
-0.0000000000000711
 21
-15.875
 31
0.0
1001
GRPNAME
1000
PASTMD0L
  0
LINE
  5
2269
  8
241
 10
17.600000000000058
 20
0.0
 30
0.0
 11
17.600000000000058
 21
-22.90573333333338
 31
0.0
1001
GRPNAME
1000
PASTMD0L
  0
LINE
  5
226A
  8
241
 10
11.900000000000031
 20
-19.0
 30
0.0
 11
11.900000000000031
 21
0.0
 31
0.0
1001
GRPNAME
1000
PASTMD0L
  0
LINE
  5
226B
  8
241
 10
15.299999999999891
 20
-19.0
 30
0.0
 11
15.299999999999891
 21
0.0
 31
0.0
1001
GRPNAME
1000
PASTMD0L
  0
LINE
  5
226C
  8
241
 10
9.6000000000000796
 20
0.0
 30
0.0
 11
9.6000000000000796
 21
-22.90573333333338
 31
0.0
1001
GRPNAME
1000
PASTMD0L
  0
LINE
  5
226D
  8
241
 10
-0.0000000000000711
 20
-15.875
 30
0.0
 11
0.0000000000000711
 21
15.875
 31
0.0
1001
GRPNAME
1000
PASTMD0L
  0
LINE
  5
226E
  8
241
 10
0.9999999999999287
 20
-15.87499999999997
 30
0.0
 11
0.9999999999999287
 21
15.875
 31
0.0
1001
GRPNAME
1000
PASTMD0L
  0
LINE
  5
226F
  8
245
 10
-0.0000000000000142
 20
-15.947918388429789
 30
0.0
 11
-0.0000000000000142
 21
15.947918388429679
 31
0.0
1001
GRPNAME
1000
PASTMD01
  0
LINE
  5
2270
  8
240
 10
11.20000000000001
 20
-59.700000000000017
 30
0.0
 11
11.20000000000001
 21
-50.300000000000011
 31
0.0
1001
GRPNAME
1000
PASTMD1H
  0
LINE
  5
2271
  8
241
 10
13.00000000000002
 20
-59.000000000000021
 30
0.0
 11
13.00000000000002
 21
-55.0
 31
0.0
1001
GRPNAME
1000
PASTMD1H
  0
LINE
  5
2272
  8
241
 10
14.00000000000002
 20
-59.000000000000021
 30
0.0
 11
14.00000000000002
 21
-55.0
 31
0.0
1001
GRPNAME
1000
PASTMD1G
  0
LINE
  5
2273
  8
241
 10
20.000000000000021
 20
-48.500000000000007
 30
0.0
 11
20.000000000000021
 21
-61.500000000000021
 31
0.0
  0
LINE
  5
2274
  8
240
 10
14.00000000000002
 20
-59.000000000000021
 30
0.0
 11
13.00000000000003
 21
-59.0
 31
0.0
  0
LINE
  5
2275
  8
240
 10
13.00000000000002
 20
-60.0
 30
0.0
 11
13.00000000000002
 21
-59.000000000000021
 31
0.0
1001
GRPNAME
1000
PASTMD1H
  0
LINE
  5
2276
  8
240
 10
11.50000000000002
 20
-60.0
 30
0.0
 11
11.20000000000001
 21
-59.700000000000017
 31
0.0
1001
GRPNAME
1000
PASTMD01
  0
LINE
  5
2277
  8
240
 10
11.50000000000002
 20
-60.0
 30
0.0
 11
13.00000000000002
 21
-60.0
 31
0.0
1001
GRPNAME
1000
PASTMD1H
  0
LINE
  5
2278
  8
240
 10
20.000000000000021
 20
-61.500000000000021
 30
0.0
 11
14.00000000000002
 21
-60.442038115749241
 31
0.0
1001
GRPNAME
1000
PASTMD1G
  0
LINE
  5
2279
  8
240
 10
14.00000000000002
 20
-60.442038115749241
 30
0.0
 11
14.00000000000002
 21
-59.000000000000021
 31
0.0
1001
GRPNAME
1000
PASTMD1G
  0
LINE
  5
227A
  8
240
 10
14.00000000000002
 20
-51.000000000000007
 30
0.0
 11
13.00000000000003
 21
-51.0
 31
0.0
  0
LINE
  5
227B
  8
240
 10
13.00000000000002
 20
-50.0
 30
0.0
 11
13.00000000000002
 21
-51.000000000000043
 31
0.0
1001
GRPNAME
1000
PASTMD1H
  0
LINE
  5
227C
  8
241
 10
13.00000000000002
 20
-51.000000000000043
 30
0.0
 11
13.00000000000002
 21
-55.0
 31
0.0
1001
GRPNAME
1000
PASTMD1H
  0
LINE
  5
227D
  8
240
 10
11.20000000000001
 20
-50.300000000000011
 30
0.0
 11
11.50000000000002
 21
-50.0
 31
0.0
1001
GRPNAME
1000
PASTMD01
  0
LINE
  5
227E
  8
240
 10
11.50000000000002
 20
-50.0
 30
0.0
 11
13.00000000000002
 21
-50.0
 31
0.0
1001
GRPNAME
1000
PASTMD1H
  0
LINE
  5
227F
  8
240
 10
14.00000000000003
 20
-51.000000000000043
 30
0.0
 11
14.00000000000003
 21
-49.557961884250822
 31
0.0
1001
GRPNAME
1000
PASTMD1G
  0
LINE
  5
2280
  8
241
 10
14.00000000000002
 20
-55.0
 30
0.0
 11
14.00000000000003
 21
-51.000000000000043
 31
0.0
1001
GRPNAME
1000
PASTMD1G
  0
LINE
  5
2281
  8
240
 10
14.00000000000003
 20
-49.557961884250822
 30
0.0
 11
19.999999999999972
 21
-48.500000000000007
 31
0.0
1001
GRPNAME
1000
PASTMD1G
  0
LINE
  5
2282
  8
240
 10
9.4367253438730874
 20
-23.0
 30
0.0
 11
1.4999999999999281
 21
-23.0
 31
0.0
1001
GRPNAME
1000
PASTMD0L
  0
ARC
  5
2283
  8
247
 10
6.2466575638466111
 20
-20.531550842064341
 30
0.0
 40
1.591426849365233
 50
180.0
 51
0.0
1001
ACAD
1000
ASC_BOUNDS
1002
{
1070
    19
1005
2265
1002
}
  0
ARC
  5
2284
  8
247
 10
6.2466575638466111
 20
-20.531550842064341
 30
0.0
 40
1.288295745849606
 50
180.0
 51
0.0
1001
ACAD
1000
ASC_BOUNDS
1002
{
1070
    19
1005
2265
1002
}
  0
LINE
  5
2285
  8
240
 10
0.9999999999999287
 20
-22.5
 30
0.0
 11
0.9999999999999287
 21
-15.87499999999997
 31
0.0
1001
GRPNAME
1000
PASTMD0L
  0
ARC
  5
2286
  8
240
 10
1.4999999999999281
 20
-22.5
 30
0.0
 40
0.5
 50
180.00000008225581
 51
270.00000008226891
1001
GRPNAME
1000
PASTMD0L
  0
LINE
  5
2287
  8
240
 10
-0.0000000000000711
 20
-15.875
 30
0.0
 11
0.9999999999999287
 21
-15.87499999999997
 31
0.0
  0
POLYLINE
  5
2289
  8
247
 66
     1
 10
0.0
 20
0.0
 30
0.0
 70
     1
  0
VERTEX
  5
228A
  8
247
 10
4.9973175064735633
 20
-14.692477660911999
 30
0.0
  0
VERTEX
  5
228B
  8
247
 10
4.7078163162880147
 20
-14.783767181175669
 30
0.0
  0
VERTEX
  5
228C
  8
247
 10
4.7078163162880147
 20
-14.783767181175669
 30
0.0
  0
VERTEX
  5
228D
  8
247
 10
4.9973175064735633
 20
-14.692477660911999
 30
0.0
  0
SEQEND
  5
228E
  8
247
  0
LINE
  5
228F
  8
247
 10
4.9973175064735633
 20
-14.692477660911999
 30
0.0
 11
4.7078163162880147
 21
-14.783767181175669
 31
0.0
1001
ACAD
1000
ASC_BOUNDS
1002
{
1070
    19
1005
2265
1002
}
  0
LINE
  5
2290
  8
247
 10
7.3833881155662739
 20
-18.196612792747931
 30
0.0
 11
7.3833881155662739
 21
-17.518619018333862
 31
0.0
  0
ARC
  5
2292
  8
247
 10
6.73165817419817
 20
-15.975760894554581
 30
0.0
 40
0.3182872831821442
 50
254.00027305718399
 51
74.00027305718406
1001
ACAD
1000
ASC_BOUNDS
1002
{
1070
    19
1005
2288
1002
}
  0
LINE
  5
2293
  8
247
 10
7.2055812613182271
 20
-15.378653960960831
 30
0.0
 11
7.3833881155662739
 21
-15.20083566262098
 31
0.0
1001
ACAD
1000
ASC_BOUNDS
1002
{
1070
    19
1005
2288
1002
}
  0
ARC
  5
2294
  8
247
 10
5.6403953568153611
 20
-15.7259134824452
 30
0.0
 40
0.9851660728454588
 50
143.4440121970562
 51
254.00018438768541
1001
ACAD
1000
ASC_BOUNDS
1002
{
1070
    19
1005
2288
1002
}
  0
ARC
  5
2295
  8
247
 10
5.3069602982216111
 20
-15.56722970558973
 30
0.0
 40
0.3182875066995621
 50
91.710121382064344
 51
253.9983983544486
1001
ACAD
1000
ASC_BOUNDS
1002
{
1070
    19
1005
2288
1002
}
  0
LINE
  5
2296
  8
247
 10
6.1405593887977821
 20
-15.72742410256239
 30
0.0
 11
6.1405593887977821
 21
-15.475150542992081
 31
0.0
1001
ACAD
1000
ASC_BOUNDS
1002
{
1070
    19
1005
2288
1002
}
  0
ARC
  5
2297
  8
247
 10
5.413047029178637
 20
-18.76687188698622
 30
0.0
 40
0.7578227519989014
 50
17.669577547398148
 51
180.23615984267161
  0
ARC
  5
229B
  8
247
 10
6.4500190750770781
 20
-14.3325037534413
 30
0.0
 40
2.5780792236328121
 50
245.20517736984229
 51
262.79482596205048
1001
ACAD
1000
ASC_BOUNDS
1002
{
1070
    19
1005
2288
1002
}
  0
LINE
  5
229C
  8
247
 10
4.655230714481374
 20
-17.52469583107802
 30
0.0
 11
4.655230714481374
 21
-16.736335235374892
 31
0.0
  0
LINE
  5
229D
  8
247
 10
4.988665773075124
 20
-17.620311218040911
 30
0.0
 11
4.655230714481374
 21
-17.52469583107802
 31
0.0
  0
LINE
  5
229E
  8
247
 10
4.988665773075124
 20
-17.620311218040911
 30
0.0
 11
4.988665773075124
 21
-17.509932952660051
 31
0.0
  0
LINE
  5
229F
  8
247
 10
6.1405593887977821
 20
-15.72742410256239
 30
0.0
 11
5.8374282852821571
 21
-15.640506225365121
 31
0.0
1001
ACAD
1000
ASC_BOUNDS
1002
{
1070
    19
1005
2288
1002
}
  0
ARC
  5
22A0
  8
247
 10
6.3982231156044227
 20
-15.94321389748427
 30
0.0
 40
0.9851760864257813
 50
253.99975070172749
 51
34.963873291630819
1001
ACAD
1000
ASC_BOUNDS
1002
{
1070
    19
1005
2288
1002
}
  0
LINE
  5
22A1
  8
247
 10
6.8193885819130147
 20
-15.669803100365121
 30
0.0
 11
6.1405593887977821
 21
-15.475150542992081
 31
0.0
1001
ACAD
1000
ASC_BOUNDS
1002
{
1070
    19
1005
2288
1002
}
  0
POLYLINE
  5
22A2
  8
247
 66
     1
 10
0.0
 20
0.0
 30
0.0
 70
     1
1001
HATCH_DISTANCE
1040
1.0
1001
HATCH_DISPLAY
1070
     0
1001
HATCH_TYPE
1070
     7
  0
VERTEX
  5
22A3
  8
247
 10
4.655230714481374
 20
-17.52469583107802
 30
0.0
  0
VERTEX
  5
22A4
  8
247
 10
4.988665773075124
 20
-17.620311218040911
 30
0.0
  0
VERTEX
  5
22A5
  8
247
 10
4.988665773075124
 20
-17.509932952660051
 30
0.0
  0
VERTEX
  5
22A6
  8
247
 10
7.3833881155662739
 20
-18.196612792747931
 30
0.0
  0
VERTEX
  5
22A7
  8
247
 10
7.3833881155662739
 20
-17.518619018333862
 30
0.0
  0
VERTEX
  5
22A8
  8
247
 10
4.655230714481374
 20
-16.736335235374892
 30
0.0
  0
SEQEND
  5
22A9
  8
247
  0
POLYLINE
  5
22AA
  8
247
 66
     1
 10
0.0
 20
0.0
 30
0.0
 70
     1
  0
VERTEX
  5
22AB
  8
247
 10
4.655230714481374
 20
-17.52469583107802
 30
0.0
  0
VERTEX
  5
22AC
  8
247
 10
4.988665773075124
 20
-17.620311218040911
 30
0.0
  0
VERTEX
  5
22AD
  8
247
 10
4.988665773075124
 20
-17.509932952660051
 30
0.0
  0
VERTEX
  5
22AE
  8
247
 10
7.3833881155662739
 20
-18.196612792747931
 30
0.0
  0
VERTEX
  5
22AF
  8
247
 10
7.3833881155662739
 20
-17.518619018333862
 30
0.0
  0
VERTEX
  5
22B0
  8
247
 10
4.655230714481374
 20
-16.736335235374892
 30
0.0
  0
SEQEND
  5
22B1
  8
247
  0
LINE
  5
22B2
  8
247
 10
7.3833881155662739
 20
-18.196612792747931
 30
0.0
 11
4.988665773075124
 21
-17.509932952660051
 31
0.0
  0
LINE
  5
22B5
  8
247
 10
6.6439277664833281
 20
-16.281718688744029
 30
0.0
 11
5.219218446414966
 21
-15.87318749977919
 31
0.0
1001
ACAD
1000
ASC_BOUNDS
1002
{
1070
    19
1005
2288
1002
}
  0
LINE
  5
22B6
  8
247
 10
7.3833881155662739
 20
-17.518619018333862
 30
0.0
 11
4.655230714481374
 21
-16.736335235374892
 31
0.0
  0
LINE
  5
22B7
  8
247
 10
5.8374282852821571
 20
-15.640506225365121
 30
0.0
 11
5.8374282852821571
 21
-14.757537322777241
 31
0.0
1001
ACAD
1000
ASC_BOUNDS
1002
{
1070
    19
1005
2288
1002
}
  0
ARC
  5
22B8
  8
247
 10
6.2466575638466111
 20
-14.37802835060927
 30
0.0
 40
1.591427564620969
 50
200.22964506332011
 51
208.57168892371641
1001
ACAD
1000
ASC_BOUNDS
1002
{
1070
    19
1005
2288
1002
}
  0
ARC
  5
22B9
  8
247
 10
6.2466575638466111
 20
-14.37802835060927
 30
0.0
 40
1.288299322128293
 50
200.87218340207721
 51
222.54194893738639
1001
ACAD
1000
ASC_BOUNDS
1002
{
1070
    19
1005
2288
1002
}
  0
LINE
  5
22BA
  8
247
 10
7.3833881155662739
 20
-15.20083566262098
 30
0.0
 11
5.8374282852821571
 21
-14.757537322777241
 31
0.0
1001
ACAD
1000
ASC_BOUNDS
1002
{
1070
    19
1005
2288
1002
}
  0
LINE
  5
22BC
  8
247
 10
7.3833881155662739
 20
-20.372489410179551
 30
0.0
 11
7.3833881155662739
 21
-19.114554839867079
 31
0.0
  0
LINE
  5
22BE
  8
247
 10
4.655230714481374
 20
-20.531550842064341
 30
0.0
 11
4.655230714481374
 21
-19.905547576683489
 31
0.0
1001
ACAD
1000
ASC_BOUNDS
1002
{
1070
    19
1005
2265
1002
}
  0
LINE
  5
22BF
  8
247
 10
4.958361817996999
 20
-20.531550842064341
 30
0.0
 11
4.958361817996999
 21
-19.992465453880751
 31
0.0
1001
ACAD
1000
ASC_BOUNDS
1002
{
1070
    19
1005
2265
1002
}
  0
LINE
  5
22C1
  8
247
 10
4.655230714481374
 20
-19.747882323997761
 30
0.0
 11
4.958361817996999
 21
-19.834800201195531
 31
0.0
  0
LINE
  5
22C2
  8
247
 10
4.958361817996999
 20
-19.834800201195531
 30
0.0
 11
4.958361817997881
 21
-19.677123504418201
 31
0.0
  0
LINE
  5
22C3
  8
247
 10
4.655230714481374
 20
-19.905547576683489
 30
0.0
 11
4.958361817996999
 21
-19.992465453880751
 31
0.0
1001
ACAD
1000
ASC_BOUNDS
1002
{
1070
    19
1005
2265
1002
}
  0
LINE
  5
22C6
  8
247
 10
7.3833881155662739
 20
-20.372489410179551
 30
0.0
 11
4.958361817997881
 21
-19.677123504418201
 31
0.0
  0
LINE
  5
22C7
  8
247
 10
6.1787852511727364
 20
-19.270252453063279
 30
0.0
 11
7.0451477916143981
 21
-19.518669071278321
 31
0.0
  0
LINE
  5
22C8
  8
247
 10
7.838084763038295
 20
-20.531550842064341
 30
0.0
 11
7.838084763038295
 21
-14.37802835060927
 31
0.0
1001
ACAD
1000
ASC_BOUNDS
1002
{
1070
    19
1005
2265
1002
}
  0
LINE
  5
22C9
  8
247
 10
7.5349536673240891
 20
-20.531550842064341
 30
0.0
 11
7.5349536673240891
 21
-14.37802835060927
 31
0.0
1001
ACAD
1000
ASC_BOUNDS
1002
{
1070
    19
1005
2265
1002
}
  0
LINE
  5
22CA
  8
247
 10
4.9662848986554531
 20
-18.922573118107611
 30
0.0
 11
5.8326217426808551
 21
-19.17098564962259
 31
0.0
  0
ARC
  5
22CE
  8
247
 10
5.382743074100512
 20
-19.105056243675669
 30
0.0
 40
0.4546839594841006
 50
351.66260168792923
 51
156.3381550951899
  0
LINE
  5
22CF
  8
247
 10
4.655230714481374
 20
-19.747882323997761
 30
0.0
 11
4.6552307144814851
 21
-18.769995446813191
 31
0.0
  0
ARC
  5
22D0
  8
247
 10
6.5952560440712151
 20
-19.452739196556529
 30
0.0
 40
0.4546969681978227
 50
351.66285421114878
 51
156.33819215911009
  0
ARC
  5
22D3
  8
247
 10
6.6255714432411423
 20
-19.114554839867079
 30
0.0
 40
0.7578163146972659
 50
0.0
 51
130.32984065416761
  0
LINE
  5
22D5
  8
247
 10
5.042899324100512
 20
-14.837027984398331
 30
0.0
 11
4.753398133914966
 21
-14.928317504661999
 31
0.0
1001
ACAD
1000
ASC_BOUNDS
1002
{
1070
    19
1005
2288
1002
}
  0
POLYLINE
  5
22D6
  8
247
 66
     1
 10
0.0
 20
0.0
 30
0.0
 70
     1
1001
HATCH_DISTANCE
1040
1.0
1001
HATCH_DISPLAY
1070
     0
1001
HATCH_TYPE
1070
     7
  0
VERTEX
  5
22D7
  8
247
 10
4.9973175064735633
 20
-14.692477660911999
 30
0.0
  0
VERTEX
  5
22D8
  8
247
 10
4.7078163162880147
 20
-14.783767181175669
 30
0.0
  0
VERTEX
  5
22D9
  8
247
 10
4.7078163162880147
 20
-14.783767181175669
 30
0.0
  0
VERTEX
  5
22DA
  8
247
 10
4.9973175064735633
 20
-14.692477660911999
 30
0.0
  0
SEQEND
  5
22DB
  8
247
  0
POLYLINE
  5
22DC
  8
247
 66
     1
 10
0.0
 20
0.0
 30
0.0
 70
     1
  0
VERTEX
  5
22DD
  8
247
 10
4.9973175064735633
 20
-14.692477660911999
 30
0.0
  0
VERTEX
  5
22DE
  8
247
 10
4.7078163162880147
 20
-14.783767181175669
 30
0.0
  0
VERTEX
  5
22DF
  8
247
 10
4.7078163162880147
 20
-14.783767181175669
 30
0.0
  0
VERTEX
  5
22E0
  8
247
 10
4.9973175064735633
 20
-14.692477660911999
 30
0.0
  0
SEQEND
  5
22E1
  8
247
  0
POLYLINE
  5
22E2
  8
247
 66
     1
 10
0.0
 20
0.0
 30
0.0
 70
     1
1001
HATCH_DISTANCE
1040
1.0
1001
HATCH_DISPLAY
1070
     0
1001
HATCH_TYPE
1070
     7
  0
VERTEX
  5
22E3
  8
247
 10
4.9973175064735633
 20
-14.692477660911999
 30
0.0
  0
VERTEX
  5
22E4
  8
247
 10
4.7078163162880147
 20
-14.783767181175669
 30
0.0
  0
VERTEX
  5
22E5
  8
247
 10
4.7078163162880147
 20
-14.783767181175669
 30
0.0
  0
VERTEX
  5
22E6
  8
247
 10
4.9973175064735633
 20
-14.692477660911999
 30
0.0
  0
SEQEND
  5
22E7
  8
247
  0
LINE
  5
22E8
  8
240
 10
11.900000000000031
 20
-19.016283142591519
 30
0.0
 11
9.6816373280634593
 21
-22.85859999999991
 31
0.0
1001
GRPNAME
1000
PASTMD0L
  0
LINE
  5
22E9
  8
240
 10
15.299999999999891
 20
-19.016283142591519
 30
0.0
 11
17.518362671936458
 21
-22.85860000000002
 31
0.0
1001
GRPNAME
1000
PASTMD0L
  0
LINE
  5
22EA
  8
240
 10
9.4367253438730874
 20
-23.0
 30
0.0
 11
9.6816373280634593
 21
-22.85859999999991
 31
0.0
1001
GRPNAME
1000
PASTMD0L
  0
LINE
  5
22EB
  8
240
 10
17.518362671936458
 20
-22.85860000000002
 30
0.0
 11
17.763274656126828
 21
-23.0
 31
0.0
1001
GRPNAME
1000
PASTMD0L
  0
LINE
  5
22EC
  8
240
 10
17.5183626719366
 20
-22.85860000000002
 30
0.0
 11
17.76327465612685
 21
-23.00000000000006
 31
0.0
1001
GRPNAME
1000
PASTMD01
  0
LINE
  5
22ED
  8
240
 10
11.900000000000031
 20
-19.0
 30
0.0
 11
15.299999999999891
 21
-19.0
 31
0.0
1001
GRPNAME
1000
PASTMD0L
  0
LINE
  5
22EE
  8
240
 10
-55.399999999999821
 20
3.5
 30
0.0
 11
-64.399999999999821
 21
3.5
 31
0.0
1001
GRPNAME
1000
PASTMD0L
  0
LINE
  5
22EF
  8
240
 10
-55.399999999999821
 20
-3.5
 30
0.0
 11
-64.399999999999821
 21
-3.5
 31
0.0
1001
GRPNAME
1000
PASTMD0L
  0
LINE
  5
22F0
  8
240
 10
-71.399999999999807
 20
3.479274057836391
 30
0.0
 11
-71.399999999999807
 21
-0.0000000000001137
 31
0.0
1001
GRPNAME
1000
PASTMD0L
  0
LINE
  5
22F1
  8
241
 10
-64.399999999999821
 20
3.5
 30
0.0
 11
-64.399999999999821
 21
-3.5
 31
0.0
1001
GRPNAME
1000
PASTMD0L
  0
LINE
  5
22F2
  8
241
 10
-66.399999999999821
 20
5.5
 30
0.0
 11
-66.399999999999821
 21
-5.5
 31
0.0
1001
GRPNAME
1000
PASTMD0L
  0
LINE
  5
22F3
  8
241
 10
-68.899999999999821
 20
5.4634330440022723
 30
0.0
 11
-68.899999999999821
 21
-5.4634330440022723
 31
0.0
1001
GRPNAME
1000
PASTMD0L
  0
ARC
  5
22F4
  8
240
 10
-68.632050807568874
 20
-4.5
 30
0.0
 40
0.9999999999998902
 50
239.99999983544569
 51
269.99999983543762
1001
GRPNAME
1000
PASTMD0L
  0
LINE
  5
22F5
  8
240
 10
-71.399999999999807
 20
-3.479274057836391
 30
0.0
 11
-71.399999999999807
 21
0.0
 31
0.0
1001
GRPNAME
1000
PASTMD0L
  0
ARC
  5
22F6
  8
240
 10
-70.399999999999807
 20
-3.479274057836391
 30
0.0
 40
1.0
 50
180.00000008225581
 51
240.0000000822603
1001
GRPNAME
1000
PASTMD0L
  0
LINE
  5
22F7
  8
240
 10
-70.899999999999807
 20
-4.345299461620808
 30
0.0
 11
-69.13205080756866
 21
-5.3660254037844171
 31
0.0
1001
GRPNAME
1000
PASTMD0L
  0
LINE
  5
22F8
  8
240
 10
-66.399999999999821
 20
-5.5
 30
0.0
 11
-68.632050807568874
 21
-5.5
 31
0.0
1001
GRPNAME
1000
PASTMD0L
  0
LINE
  5
22F9
  8
240
 10
-64.399999999999821
 20
-3.5
 30
0.0
 11
-66.399999999999821
 21
-5.5
 31
0.0
1001
GRPNAME
1000
PASTMD0L
  0
ARC
  5
22FA
  8
240
 10
-68.632050807568874
 20
4.5
 30
0.0
 40
1.0
 50
90.000000023130383
 51
120.00000002312061
1001
GRPNAME
1000
PASTMD0L
  0
LINE
  5
22FB
  8
240
 10
-70.899999999999807
 20
4.345299461620808
 30
0.0
 11
-69.13205080756866
 21
5.3660254037844171
 31
0.0
1001
GRPNAME
1000
PASTMD0L
  0
ARC
  5
22FC
  8
240
 10
-70.399999999999807
 20
3.479274057836391
 30
0.0
 40
1.0000000000000751
 50
120.0000001234062
 51
180.0000001234034
1001
GRPNAME
1000
PASTMD0L
  0
LINE
  5
22FD
  8
240
 10
-66.399999999999821
 20
5.5
 30
0.0
 11
-68.632050807568874
 21
5.5
 31
0.0
1001
GRPNAME
1000
PASTMD0L
  0
LINE
  5
22FE
  8
240
 10
-64.399999999999821
 20
3.5
 30
0.0
 11
-66.399999999999821
 21
5.5
 31
0.0
1001
GRPNAME
1000
PASTMD0L
  0
LINE
  5
22FF
  8
240
 10
-47.97215511479628
 20
8.8788955190539127
 30
0.0
 11
0.0000000000001563
 21
15.875
 31
0.0
1001
GRPNAME
1000
PASTMD0L
  0
LINE
  5
2300
  8
241
 10
-48.399999999999821
 20
8.3841292718132063
 30
0.0
 11
-48.399999999999821
 21
0.0
 31
0.0
1001
GRPNAME
1000
PASTMD0L
  0
LINE
  5
2301
  8
241
 10
-49.899999999999821
 20
5.080600358225408
 30
0.0
 11
-49.899999999999821
 21
-0.0000000000001137
 31
0.0
1001
GRPNAME
1000
PASTMD0L
  0
LINE
  5
2302
  8
241
 10
-53.399999999999821
 20
5.5
 30
0.0
 11
-53.399999999999821
 21
-5.5
 31
0.0
1001
GRPNAME
1000
PASTMD0L
  0
LINE
  5
2303
  8
242
 10
-49.899999999999821
 20
-5.080600358225408
 30
0.0
 11
-53.399999999999821
 21
5.080600358225408
 31
0.0
1001
GRPNAME
1000
PASTMD0L
  0
LINE
  5
2304
  8
242
 10
-49.899999999999821
 20
5.080600358225408
 30
0.0
 11
-53.399999999999821
 21
-5.080600358225408
 31
0.0
1001
GRPNAME
1000
PASTMD0L
  0
LINE
  5
2305
  8
240
 10
-52.399999999999821
 20
-8.25
 30
0.0
 11
-48.399999999999821
 21
-8.25
 31
0.0
1001
GRPNAME
1000
PASTMD0L
  0
LINE
  5
2306
  8
240
 10
-53.399999999999821
 20
-7.25
 30
0.0
 11
-53.399999999999821
 21
-5.5
 31
0.0
1001
GRPNAME
1000
PASTMD0L
  0
LINE
  5
2307
  8
241
 10
-52.399999999999821
 20
-5.080600358225408
 30
0.0
 11
-52.399999999999821
 21
-8.25
 31
0.0
1001
GRPNAME
1000
PASTMD0L
  0
LINE
  5
2308
  8
240
 10
-52.399999999999821
 20
-8.25
 30
0.0
 11
-53.399999999999821
 21
-7.25
 31
0.0
1001
GRPNAME
1000
PASTMD0L
  0
ARC
  5
2309
  8
240
 10
-55.399999999999821
 20
-5.5
 30
0.0
 40
2.0
 50
0.0000000899780446
 51
90.000000089981285
1001
GRPNAME
1000
PASTMD0L
  0
LINE
  5
230A
  8
241
 10
-49.899999999999821
 20
-5.080600358225408
 30
0.0
 11
-49.899999999999821
 21
0.0
 31
0.0
1001
GRPNAME
1000
PASTMD0L
  0
LINE
  5
230B
  8
241
 10
-53.399999999999821
 20
-5.080600358225408
 30
0.0
 11
-49.899999999999821
 21
-5.080600358225408
 31
0.0
1001
GRPNAME
1000
PASTMD0L
  0
LINE
  5
230C
  8
241
 10
-48.399999999999821
 20
-8.3841292718130909
 30
0.0
 11
-48.399999999999821
 21
0.0
 31
0.0
1001
GRPNAME
1000
PASTMD0L
  0
ARC
  5
230D
  8
240
 10
-47.899999999999821
 20
-8.3841292718130909
 30
0.0
 40
0.5
 50
180.00000008226891
 51
261.70266192163967
1001
GRPNAME
1000
PASTMD0L
  0
LINE
  5
230E
  8
240
 10
-52.399999999999821
 20
8.25
 30
0.0
 11
-48.399999999999821
 21
8.25
 31
0.0
1001
GRPNAME
1000
PASTMD0L
  0
ARC
  5
230F
  8
240
 10
-55.399999999999821
 20
5.5
 30
0.0
 40
2.0
 50
269.99999996912959
 51
359.99999996913118
1001
GRPNAME
1000
PASTMD0L
  0
LINE
  5
2310
  8
241
 10
-52.399999999999821
 20
5.080600358225408
 30
0.0
 11
-52.399999999999821
 21
8.25
 31
0.0
1001
GRPNAME
1000
PASTMD0L
  0
LINE
  5
2311
  8
240
 10
-52.399999999999821
 20
8.25
 30
0.0
 11
-53.399999999999821
 21
7.25
 31
0.0
1001
GRPNAME
1000
PASTMD0L
  0
LINE
  5
2312
  8
240
 10
-53.399999999999821
 20
7.25
 30
0.0
 11
-53.399999999999821
 21
5.5
 31
0.0
1001
GRPNAME
1000
PASTMD0L
  0
LINE
  5
2313
  8
241
 10
-53.399999999999821
 20
5.080600358225408
 30
0.0
 11
-49.899999999999821
 21
5.080600358225408
 31
0.0
1001
GRPNAME
1000
PASTMD0L
  0
ARC
  5
2314
  8
240
 10
-47.899999999999821
 20
8.3841292718132063
 30
0.0
 40
0.4999999999999336
 50
98.297338175487582
 51
180.00000001486441
1001
GRPNAME
1000
PASTMD0L
  0
TEXT
  5
2315
  8
247
 10
7.4058892194597901
 20
-11.77930222570148
 30
0.0
 40
2.5
  1
BBT30-AG90-13-125
 50
90.0
 41
0.8
  7
YOKO
 11
7.4058892194597901
 21
-11.77930222570148
 31
0.0
 73
     1
  0
LINE
  5
2316
  8
241
 10
11.900000000000031
 20
19.0
 30
0.0
 11
11.900000000000031
 21
0.0
 31
0.0
1001
GRPNAME
1000
PASTMD0L
  0
LINE
  5
2317
  8
241
 10
15.299999999999891
 20
19.0
 30
0.0
 11
15.299999999999891
 21
0.0
 31
0.0
1001
GRPNAME
1000
PASTMD0L
  0
LINE
  5
2318
  8
241
 10
17.600000000000058
 20
0.0
 30
0.0
 11
17.600000000000058
 21
22.90573333333338
 31
0.0
1001
GRPNAME
1000
PASTMD0L
  0
LINE
  5
2319
  8
241
 10
9.6000000000000796
 20
0.0
 30
0.0
 11
9.6000000000000796
 21
22.90573333333338
 31
0.0
1001
GRPNAME
1000
PASTMD0L
  0
LINE
  5
231A
  8
240
 10
0.9999999999999287
 20
15.875
 30
0.0
 11
0.9999999999999287
 21
22.5
 31
0.0
1001
GRPNAME
1000
PASTMD0L
  0
LINE
  5
231B
  8
240
 10
0.0000000000001563
 20
15.875
 30
0.0
 11
0.9999999999999287
 21
15.875
 31
0.0
  0
LINE
  5
231C
  8
240
 10
1.4999999999999281
 20
23.0
 30
0.0
 11
9.4367253438730874
 21
23.0
 31
0.0
1001
GRPNAME
1000
PASTMD0L
  0
ARC
  5
231D
  8
240
 10
1.4999999999999281
 20
22.5
 30
0.0
 40
0.5
 50
89.999999989714752
 51
179.99999998972109
1001
GRPNAME
1000
PASTMD0L
  0
LINE
  5
231E
  8
240
 10
11.900000000000031
 20
19.0
 30
0.0
 11
15.299999999999891
 21
19.0
 31
0.0
1001
GRPNAME
1000
PASTMD0L
  0
LINE
  5
231F
  8
240
 10
9.4367253438730874
 20
23.0
 30
0.0
 11
9.6816373280634593
 21
22.85860000000002
 31
0.0
1001
GRPNAME
1000
PASTMD0L
  0
LINE
  5
2320
  8
240
 10
11.900000000000031
 20
19.016283142591639
 30
0.0
 11
9.6816373280634593
 21
22.85860000000002
 31
0.0
1001
GRPNAME
1000
PASTMD0L
  0
LINE
  5
2321
  8
240
 10
17.518362671936458
 20
22.85860000000002
 30
0.0
 11
17.763274656126828
 21
23.0
 31
0.0
1001
GRPNAME
1000
PASTMD0L
  0
LINE
  5
2322
  8
240
 10
15.299999999999891
 20
19.016283142591639
 30
0.0
 11
17.49999999999994
 21
22.826794919243181
 31
0.0
1001
GRPNAME
1000
PASTMD0L
  0
LINE
  5
2323
  8
240
 10
17.5183626719366
 20
22.858599999999932
 30
0.0
 11
17.76327465612685
 21
22.999999999999972
 31
0.0
1001
GRPNAME
1000
PASTMD01
  0
LINE
  5
2324
  8
245
 10
124.9999999999999
 20
-47.999998312274741
 30
0.0
 11
124.9999999999999
 21
54.681096182113038
 31
0.0
1001
GRPNAME
1000
0000000M
  0
LINE
  5
2325
  8
241
 10
140.00000000000011
 20
23.999999962249959
 30
0.0
 11
140.00000000000011
 21
-32.0
 31
0.0
1001
GRPNAME
1000
PASTMD0T
  0
LINE
  5
2326
  8
241
 10
78.499999999999972
 20
-71.000000000000014
 30
0.0
 11
78.499999999999972
 21
38.999999999999972
 31
0.0
  0
LINE
  5
2327
  8
241
 10
63.499999999999972
 20
-62.359999999999971
 30
0.0
 11
63.499999999999972
 21
0.0
 31
0.0
1001
GRPNAME
1000
PASTMD01
  0
LINE
  5
2328
  8
241
 10
91.799999999999926
 20
0.0
 30
0.0
 11
91.799999999999926
 21
-39.000000000000043
 31
0.0
1001
GRPNAME
1000
PASTMD0T
  0
LINE
  5
2329
  8
241
 10
101.4999999999998
 20
0.0
 30
0.0
 11
101.4999999999998
 21
-32.0
 31
0.0
1001
GRPNAME
1000
PASTMD0T
  0
LINE
  5
232A
  8
241
 10
42.5
 20
0.0
 30
0.0
 11
42.5
 21
-27.5
 31
0.0
1001
GRPNAME
1000
PASTMD01
  0
LINE
  5
232B
  8
241
 10
22.000000000000021
 20
-23.000000000000028
 30
0.0
 11
22.000000000000021
 21
22.999999999999961
 31
0.0
1001
GRPNAME
1000
PASTMD01
  0
LINE
  5
232C
  8
241
 10
22.000000000000011
 20
-22.50000000000005
 30
0.0
 11
22.000000000000011
 21
22.499999999999972
 31
0.0
1001
GRPNAME
1000
PASTMD01
  0
LINE
  5
232D
  8
241
 10
29.500000000000021
 20
0.0
 30
0.0
 11
29.500000000000021
 21
-18.0
 31
0.0
1001
GRPNAME
1000
PASTMD01
  0
LINE
  5
232E
  8
241
 10
36.500000000000043
 20
-18.0
 30
0.0
 11
36.500000000000043
 21
0.0
 31
0.0
1001
GRPNAME
1000
PASTMD01
  0
LINE
  5
232F
  8
240
 10
149.9999999999998
 20
23.999999962249941
 30
0.0
 11
149.9999999999998
 21
-29.5
 31
0.0
1001
GRPNAME
1000
PASTMD0T
  0
LINE
  5
2330
  8
240
 10
100.4999999999998
 20
-39.0
 30
0.0
 11
89.600000000000065
 21
-39.0
 31
0.0
1001
GRPNAME
1000
PASTMD0T
  0
LINE
  5
2331
  8
240
 10
81.499999999999957
 20
-71.000000000000014
 30
0.0
 11
36.500000000000043
 21
-71.000000000000014
 31
0.0
1001
GRPNAME
1000
PASTMD01
  0
LINE
  5
2332
  8
241
 10
58.999999999999972
 20
-27.499999999999972
 30
0.0
 11
42.5
 21
-27.499999999999972
 31
0.0
  0
LINE
  5
2333
  8
240
 10
31.000000000000021
 20
-37.0
 30
0.0
 11
31.000000000000021
 21
-46.200000000000031
 31
0.0
1001
GRPNAME
1000
PASTMD01
  0
LINE
  5
2334
  8
240
 10
36.500000000000043
 20
-47.00000000000005
 30
0.0
 11
36.500000000000043
 21
-37.0
 31
0.0
1001
GRPNAME
1000
PASTMD01
  0
LINE
  5
2335
  8
240
 10
35.000000000000028
 20
-37.0
 30
0.0
 11
35.000000000000028
 21
-47.000000000000007
 31
0.0
1001
GRPNAME
1000
PASTMD01
  0
LINE
  5
2336
  8
241
 10
36.500000000000043
 20
-62.999999999999922
 30
0.0
 11
36.500000000000043
 21
-47.00000000000005
 31
0.0
1001
GRPNAME
1000
PASTMD01
  0
LINE
  5
2337
  8
241
 10
31.000000000000028
 20
-63.79999999999999
 30
0.0
 11
31.000000000000028
 21
-55.0
 31
0.0
1001
GRPNAME
1000
PASTMD01
  0
LINE
  5
2338
  8
241
 10
35.000000000000028
 20
-55.0
 30
0.0
 11
35.000000000000028
 21
-63.000000000000043
 31
0.0
1001
GRPNAME
1000
PASTMD01
  0
LINE
  5
2339
  8
241
 10
23.000000000000139
 20
-48.500000000000007
 30
0.0
 11
23.00000000000005
 21
-61.500000000000021
 31
0.0
  0
LINE
  5
233A
  8
241
 10
26.983716857408378
 20
-46.200000000000031
 30
0.0
 11
26.983716857408378
 21
-63.79999999999999
 31
0.0
  0
LINE
  5
233B
  8
240
 10
26.983716857408378
 20
-63.79999999999999
 30
0.0
 11
31.000000000000082
 21
-63.79999999999999
 31
0.0
1001
GRPNAME
1000
PASTMD1Q
  0
LINE
  5
233C
  8
240
 10
26.983716857408378
 20
-63.79999999999999
 30
0.0
 11
23.00000000000005
 21
-61.500000000000021
 31
0.0
1001
GRPNAME
1000
PASTMD1Q
  0
LINE
  5
233D
  8
240
 10
36.500000000000043
 20
-71.000000000000014
 30
0.0
 11
36.500000000000043
 21
-62.999999999999922
 31
0.0
1001
GRPNAME
1000
PASTMD01
  0
LINE
  5
233E
  8
240
 10
31.000000000000082
 20
-64.000000000000014
 30
0.0
 11
35.000000000000028
 21
-64.000000000000014
 31
0.0
1001
GRPNAME
1000
PASTMD1T
  0
LINE
  5
233F
  8
240
 10
31.000000000000028
 20
-64.000000000000014
 30
0.0
 11
31.000000000000028
 21
-63.79999999999999
 31
0.0
1001
GRPNAME
1000
PASTMD01
  0
LINE
  5
2340
  8
240
 10
35.000000000000028
 20
-63.000000000000043
 30
0.0
 11
35.000000000000028
 21
-64.000000000000014
 31
0.0
1001
GRPNAME
1000
PASTMD01
  0
LINE
  5
2341
  8
240
 10
36.500000000000043
 20
-63.0
 30
0.0
 11
35.000000000000021
 21
-63.000000000000142
 31
0.0
1001
GRPNAME
1000
PASTMD01
  0
LINE
  5
2342
  8
240
 10
26.983716857408378
 20
-46.200000000000031
 30
0.0
 11
31.000000000000082
 21
-46.200000000000031
 31
0.0
1001
GRPNAME
1000
PASTMD1Q
  0
LINE
  5
2343
  8
240
 10
23.000000000000139
 20
-48.500000000000007
 30
0.0
 11
26.983716857408549
 21
-46.200000000000031
 31
0.0
1001
GRPNAME
1000
PASTMD1Q
  0
LINE
  5
2344
  8
241
 10
31.000000000000021
 20
-46.200000000000031
 30
0.0
 11
31.000000000000028
 21
-55.0
 31
0.0
1001
GRPNAME
1000
PASTMD01
  0
LINE
  5
2345
  8
241
 10
35.000000000000028
 20
-47.000000000000007
 30
0.0
 11
35.000000000000028
 21
-55.0
 31
0.0
1001
GRPNAME
1000
PASTMD01
  0
LINE
  5
2346
  8
240
 10
36.500000000000043
 20
-47.0
 30
0.0
 11
35.000000000000021
 21
-46.999999999999929
 31
0.0
1001
GRPNAME
1000
PASTMD01
  0
LINE
  5
2347
  8
240
 10
42.5
 20
-28.0
 30
0.0
 11
37.000000000000007
 21
-28.0
 31
0.0
1001
GRPNAME
1000
PASTMD01
  0
LINE
  5
2348
  8
240
 10
42.5
 20
-27.5
 30
0.0
 11
37.000000000000007
 21
-27.5
 31
0.0
1001
GRPNAME
1000
PASTMD01
  0
LINE
  5
2349
  8
240
 10
31.000000000000028
 20
-19.0
 30
0.0
 11
31.000000000000028
 21
-31.0
 31
0.0
1001
GRPNAME
1000
PASTMD01
  0
LINE
  5
234A
  8
240
 10
35.000000000000028
 20
-19.0
 30
0.0
 11
35.000000000000028
 21
-31.0
 31
0.0
1001
GRPNAME
1000
PASTMD01
  0
LINE
  5
234B
  8
240
 10
37.000000000000007
 20
-28.0
 30
0.0
 11
36.500000000000043
 21
-28.5
 31
0.0
  0
LINE
  5
234C
  8
240
 10
26.000000000000028
 20
-37.0
 30
0.0
 11
31.000000000000028
 21
-37.0
 31
0.0
1001
GRPNAME
1000
PASTMD01
  0
LINE
  5
234D
  8
240
 10
26.000000000000028
 20
-31.0
 30
0.0
 11
31.000000000000028
 21
-31.0
 31
0.0
1001
GRPNAME
1000
PASTMD01
  0
LINE
  5
234E
  8
240
 10
26.000000000000028
 20
-31.0
 30
0.0
 11
26.000000000000028
 21
-37.0
 31
0.0
1001
GRPNAME
1000
PASTMD01
  0
LINE
  5
234F
  8
241
 10
31.000000000000028
 20
-31.0
 30
0.0
 11
31.000000000000021
 21
-37.0
 31
0.0
1001
GRPNAME
1000
PASTMD01
  0
LINE
  5
2350
  8
241
 10
36.500000000000043
 20
-37.0
 30
0.0
 11
36.500000000000043
 21
-31.0
 31
0.0
1001
GRPNAME
1000
PASTMD01
  0
LINE
  5
2351
  8
241
 10
35.000000000000028
 20
-31.0
 30
0.0
 11
35.000000000000028
 21
-37.0
 31
0.0
1001
GRPNAME
1000
PASTMD01
  0
LINE
  5
2352
  8
240
 10
35.000000000000028
 20
-37.0
 30
0.0
 11
36.500000000000043
 21
-37.0
 31
0.0
1001
GRPNAME
1000
PASTMD01
  0
LINE
  5
2353
  8
240
 10
36.500000000000043
 20
-31.0
 30
0.0
 11
36.500000000000043
 21
-28.5
 31
0.0
1001
GRPNAME
1000
PASTMD01
  0
LINE
  5
2354
  8
240
 10
35.000000000000028
 20
-31.0
 30
0.0
 11
36.500000000000043
 21
-31.0
 31
0.0
1001
GRPNAME
1000
PASTMD01
  0
LINE
  5
2355
  8
243
 10
26.000000000000028
 20
-18.0
 30
0.0
 11
29.500000000000021
 21
-18.0
 31
0.0
1001
GRPNAME
1000
PASTMD01
  0
LINE
  5
2356
  8
243
 10
18.99999999999994
 20
-16.300000000000061
 30
0.0
 11
18.99999999999994
 21
-23.0
 31
0.0
1001
GRPNAME
1000
PASTMD0L
  0
LINE
  5
2357
  8
243
 10
26.000000000000028
 20
-18.0
 30
0.0
 11
26.000000000000028
 21
-23.0
 31
0.0
1001
GRPNAME
1000
PASTMD01
  0
LINE
  5
2358
  8
240
 10
36.500000000000043
 20
-27.0
 30
0.0
 11
36.500000000000043
 21
-18.0
 31
0.0
1001
GRPNAME
1000
PASTMD01
  0
LINE
  5
2359
  8
240
 10
29.500000000000021
 20
-18.0
 30
0.0
 11
29.500000000000021
 21
-22.5
 31
0.0
1001
GRPNAME
1000
PASTMD01
  0
LINE
  5
235A
  8
240
 10
29.500000000000021
 20
-18.0
 30
0.0
 11
29.500000000000021
 21
-22.0
 31
0.0
1001
GRPNAME
1000
PASTMD01
  0
LINE
  5
235B
  8
240
 10
36.500000000000043
 20
-20.75
 30
0.0
 11
36.500000000000043
 21
-18.0
 31
0.0
1001
GRPNAME
1000
PASTMD01
  0
LINE
  5
235C
  8
241
 10
31.000000000000028
 20
-23.50000000000005
 30
0.0
 11
35.000000000000028
 21
-23.50000000000005
 31
0.0
1001
GRPNAME
1000
PASTMD01
  0
ARC
  5
235D
  8
240
 10
29.000000000000028
 20
-22.5
 30
0.0
 40
0.5
 50
269.99999998970821
 51
359.9999999897081
1001
GRPNAME
1000
PASTMD01
  0
LINE
  5
235E
  8
240
 10
36.500000000000043
 20
-27.0
 30
0.0
 11
37.000000000000007
 21
-27.5
 31
0.0
  0
LINE
  5
235F
  8
240
 10
31.000000000000028
 20
-19.0
 30
0.0
 11
35.000000000000028
 21
-19.0
 31
0.0
1001
GRPNAME
1000
PASTMD01
  0
LINE
  5
2360
  8
240
 10
29.500000000000021
 20
-18.0
 30
0.0
 11
36.500000000000043
 21
-18.0
 31
0.0
1001
GRPNAME
1000
PASTMD01
  0
LINE
  5
2361
  8
240
 10
42.5
 20
-27.5
 30
0.0
 11
42.5
 21
-28.0
 31
0.0
1001
GRPNAME
1000
PASTMD01
  0
LINE
  5
2362
  8
241
 10
81.499999999999957
 20
-64.0
 30
0.0
 11
81.499999999999957
 21
-39.5
 31
0.0
  0
LINE
  5
2363
  8
240
 10
89.599999999999994
 20
-39.0
 30
0.0
 11
89.600000000000776
 21
-45.999999999999957
 31
0.0
  0
LINE
  5
2364
  8
241
 10
81.800000000000054
 20
-39.0
 30
0.0
 11
81.799999999999955
 21
-45.999999999999957
 31
0.0
  0
LINE
  5
2365
  8
240
 10
91.499999999999957
 20
-63.0
 30
0.0
 11
91.499999999999957
 21
-45.999999999999957
 31
0.0
  0
LINE
  5
2366
  8
240
 10
90.499999999999943
 20
-64.0
 30
0.0
 11
81.499999999999957
 21
-64.0
 31
0.0
  0
LINE
  5
2367
  8
241
 10
81.499999999999957
 20
-70.75
 30
0.0
 11
81.499999999999957
 21
-65.25
 31
0.0
  0
ARC
  5
2368
  8
240
 10
80.701042119171817
 20
-68.0
 30
0.0
 40
2.9999999999999569
 50
21.094838681034169
 51
66.443535690898642
  0
LINE
  5
2369
  8
240
 10
83.499999999999972
 20
-69.079738292990442
 30
0.0
 11
83.499999999999972
 21
-66.920261707009615
 31
0.0
  0
LINE
  5
236A
  8
240
 10
81.900000000000034
 20
-70.75
 30
0.0
 11
81.499999999999957
 21
-70.75
 31
0.0
  0
LINE
  5
236B
  8
240
 10
81.499999999999957
 20
-71.000000000000014
 30
0.0
 11
81.499999999999957
 21
-70.75
 31
0.0
  0
ARC
  5
236C
  8
240
 10
80.701042119171817
 20
-68.0
 30
0.0
 40
2.999999999999996
 50
293.55646430910127
 51
338.90516131896572
  0
LINE
  5
236D
  8
240
 10
81.900000000000034
 20
-65.25
 30
0.0
 11
81.499999999999957
 21
-65.25
 31
0.0
  0
LINE
  5
236E
  8
240
 10
81.499999999999957
 20
-65.25
 30
0.0
 11
81.499999999999957
 21
-64.0
 31
0.0
  0
ARC
  5
236F
  8
240
 10
90.499999999999943
 20
-63.0
 30
0.0
 40
1.0
 50
270.0
 51
0.0
  0
LINE
  5
2370
  8
241
 10
81.499999999999957
 20
-46.0
 30
0.0
 11
89.600000000000819
 21
-45.999999999999957
 31
0.0
  0
LINE
  5
2371
  8
240
 10
89.600000000000819
 20
-45.999999999999957
 30
0.0
 11
91.499999999999957
 21
-45.999999999999957
 31
0.0
  0
ARC
  5
2372
  8
241
 10
60.499999999999972
 20
-30.499999999999972
 30
0.0
 40
3.0
 50
0.0
 51
72.423807804776828
  0
LINE
  5
2373
  8
241
 10
58.999999999999972
 20
-19.384523779156119
 30
0.0
 11
58.999999999999972
 21
-27.28452377915611
 31
0.0
  0
LINE
  5
2374
  8
241
 10
59.299999999999983
 20
-27.584523779156111
 30
0.0
 11
63.499999999999972
 21
-27.584523779156111
 31
0.0
  0
LINE
  5
2375
  8
241
 10
58.999999999999972
 20
-27.28452377915611
 30
0.0
 11
59.299999999999983
 21
-27.584523779156111
 31
0.0
  0
LINE
  5
2376
  8
241
 10
59.299999999999983
 20
-19.084523779156111
 30
0.0
 11
63.499999999999972
 21
-19.084523779156111
 31
0.0
  0
LINE
  5
2377
  8
241
 10
59.299999999999983
 20
-19.084523779156111
 30
0.0
 11
58.999999999999972
 21
-19.384523779156119
 31
0.0
  0
LINE
  5
2378
  8
241
 10
89.600000000000065
 20
-39.0
 30
0.0
 11
78.499999999999972
 21
-39.0
 31
0.0
1001
GRPNAME
1000
PASTMD0T
  0
LINE
  5
2379
  8
241
 10
78.499999999999972
 20
-39.5
 30
0.0
 11
81.499999999999957
 21
-39.5
 31
0.0
  0
LINE
  5
237A
  8
241
 10
135.0
 20
-40.799999999999919
 30
0.0
 11
124.9999999999999
 21
-40.799999999999919
 31
0.0
1001
GRPNAME
1000
PASTMD0U
  0
LINE
  5
237B
  8
241
 10
138.34999999999991
 20
-39.5
 30
0.0
 11
124.9999999999999
 21
-39.5
 31
0.0
1001
GRPNAME
1000
PASTMD0U
  0
LINE
  5
237C
  8
241
 10
138.34999999999991
 20
-39.0
 30
0.0
 11
124.9999999999999
 21
-39.0
 31
0.0
1001
GRPNAME
1000
PASTMD0U
  0
LINE
  5
237D
  8
241
 10
139.9999999999998
 20
-36.5
 30
0.0
 11
124.9999999999999
 21
-36.5
 31
0.0
1001
GRPNAME
1000
PASTMD0U
  0
LINE
  5
237E
  8
241
 10
124.9999999999999
 20
-32.0
 30
0.0
 11
147.0
 21
-32.0
 31
0.0
1001
GRPNAME
1000
PASTMD0U
  0
LINE
  5
237F
  8
240
 10
132.99999999999969
 20
-44.999999999999837
 30
0.0
 11
134.99999999999969
 21
-44.272059531467953
 31
0.0
1001
GRPNAME
1000
PASTMD0U
  0
LINE
  5
2380
  8
240
 10
114.9999999999999
 20
-44.27205953146747
 30
0.0
 11
114.9999999999999
 21
-40.799999999999919
 31
0.0
1001
GRPNAME
1000
PASTMD0U
  0
LINE
  5
2381
  8
240
 10
116.99999999999871
 20
-44.999999999999837
 30
0.0
 11
132.99999999999969
 21
-44.999999999999837
 31
0.0
1001
GRPNAME
1000
PASTMD0U
  0
LINE
  5
2382
  8
240
 10
116.99999999999871
 20
-44.999999999999837
 30
0.0
 11
114.9999999999999
 21
-44.27205953146747
 31
0.0
1001
GRPNAME
1000
PASTMD0U
  0
LINE
  5
2383
  8
241
 10
111.64999999999991
 20
-39.5
 30
0.0
 11
124.9999999999999
 21
-39.5
 31
0.0
1001
GRPNAME
1000
PASTMD0U
  0
LINE
  5
2384
  8
241
 10
109.9999999999999
 20
-36.5
 30
0.0
 11
124.9999999999999
 21
-36.5
 31
0.0
1001
GRPNAME
1000
PASTMD0U
  0
LINE
  5
2385
  8
241
 10
124.9999999999999
 20
-32.0
 30
0.0
 11
102.9999999999999
 21
-32.0
 31
0.0
1001
GRPNAME
1000
PASTMD0U
  0
LINE
  5
2386
  8
240
 10
110.9999999999999
 20
-40.799999999999919
 30
0.0
 11
115.0
 21
-40.799999999999919
 31
0.0
1001
GRPNAME
1000
PASTMD0U
  0
LINE
  5
2387
  8
241
 10
111.64999999999991
 20
-39.0
 30
0.0
 11
124.9999999999999
 21
-39.0
 31
0.0
1001
GRPNAME
1000
PASTMD0U
  0
LINE
  5
2388
  8
240
 10
103.4999999999999
 20
-36.5
 30
0.0
 11
109.9999999999999
 21
-36.5
 31
0.0
1001
GRPNAME
1000
PASTMD0U
  0
LINE
  5
2389
  8
240
 10
101.4999999999998
 20
-32.0
 30
0.0
 11
101.4999999999998
 21
-38.0
 31
0.0
1001
GRPNAME
1000
PASTMD0T
  0
LINE
  5
238A
  8
240
 10
102.9999999999999
 20
-36.0
 30
0.0
 11
102.9999999999999
 21
-32.0
 31
0.0
1001
GRPNAME
1000
PASTMD0U
  0
LINE
  5
238B
  8
240
 10
100.4999999999998
 20
-39.0
 30
0.0
 11
101.4999999999998
 21
-38.0
 31
0.0
1001
GRPNAME
1000
PASTMD0T
  0
LINE
  5
238C
  8
240
 10
102.9999999999999
 20
-36.0
 30
0.0
 11
103.4999999999999
 21
-36.5
 31
0.0
1001
GRPNAME
1000
PASTMD0U
  0
LINE
  5
238D
  8
240
 10
102.9999999999999
 20
-32.0
 30
0.0
 11
101.4999999999998
 21
-32.0
 31
0.0
1001
GRPNAME
1000
PASTMD0U
  0
LINE
  5
238E
  8
240
 10
109.9999999999999
 20
-36.5
 30
0.0
 11
109.9999999999999
 21
-39.0
 31
0.0
1001
GRPNAME
1000
PASTMD0U
  0
ARC
  5
238F
  8
240
 10
110.9999999999999
 20
-39.799999999999947
 30
0.0
 40
1.0
 50
180.00000008225919
 51
270.00000008226237
1001
GRPNAME
1000
PASTMD0U
  0
LINE
  5
2390
  8
240
 10
109.9999999999999
 20
-39.5
 30
0.0
 11
111.64999999999991
 21
-39.5
 31
0.0
1001
GRPNAME
1000
PASTMD0U
  0
LINE
  5
2391
  8
240
 10
109.9999999999999
 20
-39.0
 30
0.0
 11
111.64999999999991
 21
-39.0
 31
0.0
1001
GRPNAME
1000
PASTMD0U
  0
LINE
  5
2392
  8
240
 10
109.9999999999999
 20
-39.499999999999879
 30
0.0
 11
109.9999999999999
 21
-39.799999999999947
 31
0.0
1001
GRPNAME
1000
PASTMD0U
  0
LINE
  5
2393
  8
240
 10
111.64999999999991
 20
-39.0
 30
0.0
 11
111.64999999999991
 21
-39.5
 31
0.0
1001
GRPNAME
1000
PASTMD0U
  0
LINE
  5
2394
  8
241
 10
115.0
 20
-40.799999999999919
 30
0.0
 11
124.9999999999999
 21
-40.799999999999919
 31
0.0
1001
GRPNAME
1000
PASTMD0U
  0
LINE
  5
2395
  8
241
 10
128.59999999999999
 20
-39.0
 30
0.0
 11
125.0
 21
-39.0
 31
0.0
1001
GRPNAME
1000
PASTMD0B
  0
LINE
  5
2396
  8
240
 10
134.99999999999969
 20
-44.272059531467953
 30
0.0
 11
135.0
 21
-40.799999999999919
 31
0.0
1001
GRPNAME
1000
PASTMD0U
  0
LINE
  5
2397
  8
240
 10
146.5
 20
-36.5
 30
0.0
 11
139.9999999999998
 21
-36.5
 31
0.0
1001
GRPNAME
1000
PASTMD0U
  0
LINE
  5
2398
  8
240
 10
139.0
 20
-40.799999999999919
 30
0.0
 11
135.0
 21
-40.799999999999919
 31
0.0
1001
GRPNAME
1000
PASTMD0U
  0
LINE
  5
2399
  8
240
 10
139.9999999999998
 20
-39.0
 30
0.0
 11
138.34999999999991
 21
-39.0
 31
0.0
1001
GRPNAME
1000
PASTMD0U
  0
LINE
  5
239A
  8
240
 10
139.9999999999998
 20
-39.5
 30
0.0
 11
138.34999999999991
 21
-39.5
 31
0.0
1001
GRPNAME
1000
PASTMD0U
  0
LINE
  5
239B
  8
240
 10
138.34999999999991
 20
-39.0
 30
0.0
 11
138.34999999999991
 21
-39.5
 31
0.0
1001
GRPNAME
1000
PASTMD0U
  0
LINE
  5
239C
  8
240
 10
139.9999999999998
 20
-39.0
 30
0.0
 11
139.9999999999998
 21
-36.5
 31
0.0
1001
GRPNAME
1000
PASTMD0T
  0
ARC
  5
239D
  8
240
 10
139.0
 20
-39.799999999999947
 30
0.0
 40
1.0
 50
269.99999996655498
 51
359.99999996655822
1001
GRPNAME
1000
PASTMD0U
  0
LINE
  5
239E
  8
240
 10
140.0
 20
-39.499999999999879
 30
0.0
 11
140.0
 21
-39.799999999999947
 31
0.0
1001
GRPNAME
1000
PASTMD0U
  0
LINE
  5
239F
  8
240
 10
147.0
 20
-36.0
 30
0.0
 11
147.0
 21
-32.0
 31
0.0
1001
GRPNAME
1000
PASTMD0U
  0
LINE
  5
23A0
  8
240
 10
147.0
 20
-36.0
 30
0.0
 11
146.5
 21
-36.5
 31
0.0
1001
GRPNAME
1000
PASTMD0U
  0
LINE
  5
23A1
  8
240
 10
147.4999999999998
 20
-32.0
 30
0.0
 11
149.9999999999998
 21
-29.5
 31
0.0
1001
GRPNAME
1000
PASTMD0T
  0
LINE
  5
23A2
  8
240
 10
147.0
 20
-32.0
 30
0.0
 11
147.4999999999998
 21
-32.0
 31
0.0
1001
GRPNAME
1000
PASTMD0U
  0
LINE
  5
23A3
  8
245
 10
78.699999999999903
 20
0.0
 30
0.0
 11
152.19517066010579
 21
0.0
 31
0.0
1001
GRPNAME
1000
PASTMD0X
  0
ARC
  5
23A4
  8
241
 10
97.499999999999844
 20
35.537999999999897
 30
0.0
 40
3.0
 50
180.0
 51
270.0
  0
LINE
  5
23A5
  8
240
 10
94.499999999999844
 20
35.999999999999879
 30
0.0
 11
95.710986158980603
 21
35.999999999999879
 31
0.0
1001
GRPNAME
1000
PASTMD0T
  0
LINE
  5
23A6
  8
240
 10
42.5
 20
27.499999999999972
 30
0.0
 11
59.215476220843932
 21
27.499999999999972
 31
0.0
1001
GRPNAME
1000
00000001
  0
LINE
  5
23A7
  8
243
 10
18.99999999999994
 20
16.300000000000061
 30
0.0
 11
18.99999999999994
 21
23.0
 31
0.0
1001
GRPNAME
1000
PASTMD0L
  0
LINE
  5
23A8
  8
241
 10
36.500000000000043
 20
17.999999999999972
 30
0.0
 11
36.500000000000043
 21
0.0
 31
0.0
1001
GRPNAME
1000
PASTMD01
  0
LINE
  5
23A9
  8
241
 10
29.500000000000021
 20
0.0
 30
0.0
 11
29.500000000000021
 21
17.999999999999972
 31
0.0
1001
GRPNAME
1000
PASTMD01
  0
LINE
  5
23AA
  8
241
 10
42.5
 20
0.0
 30
0.0
 11
42.5
 21
27.499999999999972
 31
0.0
1001
GRPNAME
1000
PASTMD01
  0
LINE
  5
23AB
  8
240
 10
37.000000000000007
 20
27.499999999999972
 30
0.0
 11
42.5
 21
27.499999999999972
 31
0.0
  0
LINE
  5
23AC
  8
240
 10
36.500000000000043
 20
26.999999999999972
 30
0.0
 11
36.500000000000043
 21
17.999999999999972
 31
0.0
1001
GRPNAME
1000
PASTMD01
  0
LINE
  5
23AD
  8
240
 10
29.500000000000021
 20
17.999999999999972
 30
0.0
 11
36.500000000000043
 21
17.999999999999972
 31
0.0
1001
GRPNAME
1000
PASTMD01
  0
ARC
  5
23AE
  8
240
 10
29.000000000000028
 20
22.499999999999972
 30
0.0
 40
0.5
 50
359.99999998713849
 51
89.999999987141805
1001
GRPNAME
1000
PASTMD01
  0
LINE
  5
23AF
  8
240
 10
29.500000000000021
 20
17.999999999999972
 30
0.0
 11
29.500000000000021
 21
22.499999999999972
 31
0.0
1001
GRPNAME
1000
PASTMD01
  0
LINE
  5
23B0
  8
240
 10
37.000000000000007
 20
27.499999999999972
 30
0.0
 11
36.500000000000043
 21
26.999999999999972
 31
0.0
  0
LINE
  5
23B1
  8
241
 10
63.499999999999972
 20
30.499999999999972
 30
0.0
 11
63.499999999999972
 21
0.0
 31
0.0
1001
GRPNAME
1000
PASTMD01
  0
LINE
  5
23B2
  8
241
 10
91.799999999999926
 20
0.0
 30
0.0
 11
91.799999999999926
 21
38.999999999999972
 31
0.0
1001
GRPNAME
1000
00000009
  0
LINE
  5
23B3
  8
240
 10
63.79999999999999
 20
38.999999999999879
 30
0.0
 11
94.499999999999844
 21
38.999999999999972
 31
0.0
1001
GRPNAME
1000
00000001
  0
LINE
  5
23B4
  8
240
 10
63.499999999999972
 20
38.69999999999996
 30
0.0
 11
63.499999999999972
 21
30.499999999999972
 31
0.0
1001
GRPNAME
1000
PASTMD01
  0
LINE
  5
23B5
  8
241
 10
58.999999999999972
 20
19.384523779156119
 30
0.0
 11
58.999999999999972
 21
27.28452377915611
 31
0.0
1001
GRPNAME
1000
0000000O
  0
LINE
  5
23B6
  8
241
 10
59.299999999999983
 20
19.084523779156111
 30
0.0
 11
63.499999999999972
 21
19.084523779156111
 31
0.0
1001
GRPNAME
1000
0000000O
  0
LINE
  5
23B7
  8
241
 10
59.299999999999983
 20
19.084523779156111
 30
0.0
 11
58.999999999999972
 21
19.384523779156119
 31
0.0
1001
GRPNAME
1000
0000000O
  0
LINE
  5
23B8
  8
241
 10
61.207105653841083
 20
27.584523779156111
 30
0.0
 11
63.499999999999972
 21
27.584523779156111
 31
0.0
1001
GRPNAME
1000
0000000O
  0
ARC
  5
23B9
  8
240
 10
60.499999999999972
 20
30.499999999999972
 30
0.0
 40
2.9999999999999871
 50
283.63298247035391
 51
0.0
1001
GRPNAME
1000
PASTMD01
  0
LINE
  5
23BA
  8
240
 10
59.21547622084389
 20
27.500000000000028
 30
0.0
 11
59.299999999999983
 21
27.584523779156111
 31
0.0
1001
GRPNAME
1000
0000000O
  0
LINE
  5
23BB
  8
241
 10
58.999999999999972
 20
27.28452377915611
 30
0.0
 11
59.21547622084389
 21
27.500000000000028
 31
0.0
1001
GRPNAME
1000
0000000O
  0
LINE
  5
23BC
  8
240
 10
59.299999999999983
 20
27.584523779156111
 30
0.0
 11
61.207105653841083
 21
27.584523779156111
 31
0.0
1001
GRPNAME
1000
0000000O
  0
LINE
  5
23BD
  8
240
 10
63.79999999999999
 20
38.999999999999972
 30
0.0
 11
63.499999999999972
 21
38.69999999999996
 31
0.0
1001
GRPNAME
1000
PASTMD01
  0
LINE
  5
23BE
  8
240
 10
94.499999999999844
 20
35.999999999999879
 30
0.0
 11
94.499999999999844
 21
38.999999999999879
 31
0.0
1001
GRPNAME
1000
PASTMD0T
  0
LINE
  5
23BF
  8
241
 10
94.499999999999844
 20
35.537999999999897
 30
0.0
 11
94.499999999999844
 21
35.999999999999879
 31
0.0
1001
GRPNAME
1000
PASTMD0T
  0
LINE
  5
23C0
  8
243
 10
131.5
 20
20.999999999999879
 30
0.0
 11
131.5
 21
51.999999999999879
 31
0.0
1001
GRPNAME
1000
PASTMD0T
  0
LINE
  5
23C1
  8
243
 10
118.4999999999999
 20
20.999999999999879
 30
0.0
 11
118.5
 21
51.999999999999879
 31
0.0
1001
GRPNAME
1000
PASTMD0T
  0
LINE
  5
23C2
  8
240
 10
142.50000000000011
 20
37.299999999999841
 30
0.0
 11
142.50000000000011
 21
50.41862915010153
 31
0.0
1001
GRPNAME
1000
PASTMD0T
  0
LINE
  5
23C3
  8
240
 10
107.5
 20
37.299999999999841
 30
0.0
 11
107.5
 21
50.41862915010153
 31
0.0
1001
GRPNAME
1000
PASTMD0T
  0
LINE
  5
23C4
  8
241
 10
124.9999999999999
 20
23.999999962249941
 30
0.0
 11
149.4999999999998
 21
23.999999962249941
 31
0.0
1001
GRPNAME
1000
PASTMD0T
  0
LINE
  5
23C5
  8
241
 10
137.9999999999998
 20
35.999999999999879
 30
0.0
 11
125.0
 21
35.999999999999879
 31
0.0
1001
GRPNAME
1000
PASTMD0T
  0
LINE
  5
23C6
  8
241
 10
146.2499999999996
 20
28.999999999999879
 30
0.0
 11
124.9999999999999
 21
28.999999999999879
 31
0.0
1001
GRPNAME
1000
PASTMD0T
  0
LINE
  5
23C7
  8
241
 10
137.2499999999998
 20
32.499999999999879
 30
0.0
 11
124.9999999999999
 21
32.499999999999879
 31
0.0
1001
GRPNAME
1000
PASTMD0T
  0
LINE
  5
23C8
  8
241
 10
140.0
 20
36.499999999999879
 30
0.0
 11
125.0
 21
36.499999999999879
 31
0.0
1001
GRPNAME
1000
PASTMD0T
  0
LINE
  5
23C9
  8
241
 10
124.9999999999999
 20
29.499999999999879
 30
0.0
 11
146.2499999999996
 21
29.499999999999879
 31
0.0
1001
GRPNAME
1000
PASTMD0T
  0
LINE
  5
23CA
  8
242
 10
109.4739999999999
 20
23.999999962249941
 30
0.0
 11
140.5259999999999
 21
28.999999999999879
 31
0.0
1001
GRPNAME
1000
PASTMD0X
  0
LINE
  5
23CB
  8
242
 10
109.4739999999999
 20
28.999999999999879
 30
0.0
 11
140.5259999999999
 21
23.999999962249941
 31
0.0
1001
GRPNAME
1000
PASTMD0X
  0
LINE
  5
23CC
  8
241
 10
112.7499999999999
 20
34.750000000000107
 30
0.0
 11
137.2499999999998
 21
34.750000000000107
 31
0.0
1001
GRPNAME
1000
PASTMD0T
  0
LINE
  5
23CD
  8
241
 10
101.4999999999998
 20
0.0
 30
0.0
 11
101.4999999999998
 21
23.999999962249941
 31
0.0
1001
GRPNAME
1000
PASTMD0T
  0
LINE
  5
23CE
  8
241
 10
124.9999999999999
 20
23.999999962249941
 30
0.0
 11
102.0
 21
23.999999962249941
 31
0.0
1001
GRPNAME
1000
PASTMD0T
  0
LINE
  5
23CF
  8
241
 10
112.7499999999999
 20
32.499999999999879
 30
0.0
 11
124.9999999999999
 21
32.499999999999879
 31
0.0
1001
GRPNAME
1000
PASTMD0T
  0
LINE
  5
23D0
  8
241
 10
112.0
 20
35.999999999999879
 30
0.0
 11
125.0
 21
35.999999999999879
 31
0.0
1001
GRPNAME
1000
PASTMD0T
  0
LINE
  5
23D1
  8
241
 10
103.7500000000002
 20
28.999999999999879
 30
0.0
 11
124.9999999999999
 21
28.999999999999879
 31
0.0
1001
GRPNAME
1000
PASTMD0T
  0
LINE
  5
23D2
  8
241
 10
124.9999999999999
 20
29.499999999999879
 30
0.0
 11
103.7500000000002
 21
29.499999999999879
 31
0.0
1001
GRPNAME
1000
PASTMD0T
  0
LINE
  5
23D3
  8
241
 10
110.0
 20
36.499999999999879
 30
0.0
 11
125.0
 21
36.499999999999879
 31
0.0
1001
GRPNAME
1000
PASTMD0T
  0
ARC
  5
23D4
  8
240
 10
103.0
 20
31.50000000000011
 30
0.0
 40
1.0
 50
89.999999989711455
 51
179.99999998970819
1001
GRPNAME
1000
PASTMD0T
  0
LINE
  5
23D5
  8
240
 10
101.4999999999998
 20
23.999999962249941
 30
0.0
 11
101.4999999999998
 21
33.300538512767503
 31
0.0
1001
GRPNAME
1000
PASTMD0T
  0
LINE
  5
23D6
  8
240
 10
102.0
 20
28.999999999999879
 30
0.0
 11
102.0
 21
23.999999999999879
 31
0.0
1001
GRPNAME
1000
PASTMD0T
  0
LINE
  5
23D7
  8
240
 10
102.0
 20
23.999999962249941
 30
0.0
 11
101.4999999999998
 21
23.999999962249941
 31
0.0
1001
GRPNAME
1000
PASTMD0T
  0
LINE
  5
23D8
  8
240
 10
103.7500000000002
 20
29.499999999999879
 30
0.0
 11
102.0
 21
29.499999999999879
 31
0.0
1001
GRPNAME
1000
PASTMD0T
  0
LINE
  5
23D9
  8
240
 10
102.0
 20
28.999999999999879
 30
0.0
 11
103.7500000000002
 21
28.999999999999879
 31
0.0
1001
GRPNAME
1000
PASTMD0T
  0
LINE
  5
23DA
  8
240
 10
102.0
 20
31.50000000000011
 30
0.0
 11
102.0
 21
29.499999999999879
 31
0.0
1001
GRPNAME
1000
PASTMD0T
  0
LINE
  5
23DB
  8
240
 10
103.7500000000002
 20
29.499999999999879
 30
0.0
 11
103.7500000000002
 21
28.999999999999879
 31
0.0
1001
GRPNAME
1000
PASTMD0T
  0
LINE
  5
23DC
  8
241
 10
109.4739999999999
 20
23.999999962249941
 30
0.0
 11
109.4739999999999
 21
28.999999999999879
 31
0.0
1001
GRPNAME
1000
PASTMD0X
  0
LINE
  5
23DD
  8
240
 10
103.0
 20
32.499999999999879
 30
0.0
 11
112.7499999999999
 21
32.499999999999879
 31
0.0
1001
GRPNAME
1000
PASTMD0T
  0
LINE
  5
23DE
  8
240
 10
101.4999999999998
 20
33.300538512767503
 30
0.0
 11
95.710986158980603
 21
35.999999999999879
 31
0.0
1001
GRPNAME
1000
PASTMD0T
  0
LINE
  5
23DF
  8
241
 10
97.499999999999844
 20
32.53799999999989
 30
0.0
 11
101.4999999999998
 21
32.53799999999989
 31
0.0
  0
LINE
  5
23E0
  8
241
 10
110.9438550750864
 20
45.499999999999893
 30
0.0
 11
110.9438550750864
 21
36.499999999999879
 31
0.0
1001
GRPNAME
1000
PASTMD0T
  0
LINE
  5
23E1
  8
241
 10
108.9438550750864
 20
45.500000000000099
 30
0.0
 11
108.9438550750864
 21
36.499999999999879
 31
0.0
1001
GRPNAME
1000
PASTMD0T
  0
LINE
  5
23E2
  8
240
 10
108.3
 20
36.499999999999879
 30
0.0
 11
110.0
 21
36.499999999999879
 31
0.0
1001
GRPNAME
1000
PASTMD0T
  0
ARC
  5
23E3
  8
240
 10
108.3
 20
37.299999999999841
 30
0.0
 40
0.7999999999999548
 50
180.00000007967969
 51
270.00000007969192
1001
GRPNAME
1000
PASTMD0T
  0
LINE
  5
23E4
  8
240
 10
112.7499999999999
 20
34.750000000000107
 30
0.0
 11
112.0
 21
35.499999999999879
 31
0.0
1001
GRPNAME
1000
PASTMD0T
  0
LINE
  5
23E5
  8
240
 10
112.7499999999999
 20
32.499999999999879
 30
0.0
 11
112.7499999999999
 21
34.750000000000107
 31
0.0
1001
GRPNAME
1000
PASTMD0T
  0
LINE
  5
23E6
  8
240
 10
110.5
 20
35.999999999999879
 30
0.0
 11
112.0
 21
35.999999999999879
 31
0.0
1001
GRPNAME
1000
PASTMD0T
  0
LINE
  5
23E7
  8
240
 10
110.5
 20
35.999999999999879
 30
0.0
 11
110.0
 21
36.499999999999879
 31
0.0
1001
GRPNAME
1000
PASTMD0T
  0
LINE
  5
23E8
  8
240
 10
112.0
 20
35.999999999999879
 30
0.0
 11
112.0
 21
35.499999999999879
 31
0.0
1001
GRPNAME
1000
PASTMD0T
  0
LINE
  5
23E9
  8
241
 10
108.9438550750864
 20
45.500000000000099
 30
0.0
 11
110.9438550750864
 21
45.499999999999893
 31
0.0
1001
GRPNAME
1000
PASTMD0T
  0
LINE
  5
23EA
  8
241
 10
123.0
 20
45.499999999999893
 30
0.0
 11
125.0
 21
45.499999999999893
 31
0.0
1001
GRPNAME
1000
PASTMD0T
  0
LINE
  5
23EB
  8
241
 10
123.0
 20
45.499999999999893
 30
0.0
 11
123.0
 21
36.499999999999879
 31
0.0
1001
GRPNAME
1000
PASTMD0T
  0
LINE
  5
23EC
  8
241
 10
127.0
 20
45.499999999999893
 30
0.0
 11
126.9999999999999
 21
36.499999999999879
 31
0.0
1001
GRPNAME
1000
PASTMD0T
  0
LINE
  5
23ED
  8
241
 10
127.0
 20
45.499999999999893
 30
0.0
 11
125.0
 21
45.499999999999893
 31
0.0
1001
GRPNAME
1000
PASTMD0T
  0
ARC
  5
23EE
  8
240
 10
146.99999999999969
 20
31.50000000000011
 30
0.0
 40
1.0
 50
359.99999989972679
 51
89.999999899733425
1001
GRPNAME
1000
PASTMD0T
  0
LINE
  5
23EF
  8
241
 10
140.5259999999999
 20
23.999999962249941
 30
0.0
 11
140.5259999999999
 21
28.999999999999879
 31
0.0
1001
GRPNAME
1000
PASTMD0X
  0
LINE
  5
23F0
  8
240
 10
149.4999999999998
 20
28.999999999999879
 30
0.0
 11
149.4999999999998
 21
23.999999999999879
 31
0.0
1001
GRPNAME
1000
PASTMD0T
  0
LINE
  5
23F1
  8
240
 10
149.4999999999998
 20
23.999999962249941
 30
0.0
 11
149.9999999999998
 21
23.999999962249941
 31
0.0
1001
GRPNAME
1000
PASTMD0T
  0
LINE
  5
23F2
  8
240
 10
149.4999999999998
 20
28.999999999999879
 30
0.0
 11
146.2499999999996
 21
28.999999999999879
 31
0.0
1001
GRPNAME
1000
PASTMD0T
  0
LINE
  5
23F3
  8
240
 10
147.99999999999969
 20
31.50000000000011
 30
0.0
 11
147.99999999999969
 21
29.499999999999879
 31
0.0
1001
GRPNAME
1000
PASTMD0T
  0
LINE
  5
23F4
  8
240
 10
146.2499999999996
 20
29.499999999999879
 30
0.0
 11
147.99999999999969
 21
29.499999999999879
 31
0.0
1001
GRPNAME
1000
PASTMD0T
  0
LINE
  5
23F5
  8
240
 10
146.2499999999996
 20
29.499999999999879
 30
0.0
 11
146.2499999999996
 21
28.999999999999879
 31
0.0
1001
GRPNAME
1000
PASTMD0T
  0
LINE
  5
23F6
  8
240
 10
146.99999999999969
 20
32.499999999999879
 30
0.0
 11
137.2499999999998
 21
32.499999999999879
 31
0.0
1001
GRPNAME
1000
PASTMD0T
  0
LINE
  5
23F7
  8
241
 10
139.0561449249137
 20
45.499999999999893
 30
0.0
 11
139.05614492491361
 21
36.499999999999879
 31
0.0
1001
GRPNAME
1000
PASTMD0T
  0
LINE
  5
23F8
  8
241
 10
141.05614492491361
 20
45.499999999999893
 30
0.0
 11
141.05614492491361
 21
36.499999999999879
 31
0.0
1001
GRPNAME
1000
PASTMD0T
  0
LINE
  5
23F9
  8
240
 10
139.5
 20
35.999999999999879
 30
0.0
 11
137.9999999999998
 21
35.999999999999879
 31
0.0
1001
GRPNAME
1000
PASTMD0T
  0
LINE
  5
23FA
  8
240
 10
137.2499999999998
 20
34.750000000000107
 30
0.0
 11
137.9999999999998
 21
35.499999999999879
 31
0.0
1001
GRPNAME
1000
PASTMD0T
  0
LINE
  5
23FB
  8
240
 10
137.2499999999998
 20
32.499999999999879
 30
0.0
 11
137.2499999999998
 21
34.750000000000107
 31
0.0
1001
GRPNAME
1000
PASTMD0T
  0
LINE
  5
23FC
  8
240
 10
137.9999999999998
 20
35.999999999999879
 30
0.0
 11
137.9999999999998
 21
35.499999999999879
 31
0.0
1001
GRPNAME
1000
PASTMD0T
  0
LINE
  5
23FD
  8
240
 10
139.5
 20
35.999999999999879
 30
0.0
 11
140.0
 21
36.499999999999879
 31
0.0
1001
GRPNAME
1000
PASTMD0T
  0
ARC
  5
23FE
  8
240
 10
141.6999999999999
 20
37.299999999999841
 30
0.0
 40
0.7999999999999548
 50
269.99999996655572
 51
359.99999996655168
1001
GRPNAME
1000
PASTMD0T
  0
LINE
  5
23FF
  8
240
 10
141.6999999999999
 20
36.499999999999879
 30
0.0
 11
140.0
 21
36.499999999999879
 31
0.0
1001
GRPNAME
1000
PASTMD0T
  0
LINE
  5
2400
  8
241
 10
139.0561449249137
 20
45.499999999999893
 30
0.0
 11
141.05614492491361
 21
45.499999999999893
 31
0.0
1001
GRPNAME
1000
PASTMD0T
  0
LINE
  5
2401
  8
240
 10
109.0399494936612
 20
52.000000000000099
 30
0.0
 11
140.96005050633889
 21
51.999999999999879
 31
0.0
1001
GRPNAME
1000
PASTMD0T
  0
LINE
  5
2402
  8
240
 10
108.5449747468306
 20
51.794974746830682
 30
0.0
 11
107.7343145750507
 21
50.984314575050689
 31
0.0
1001
GRPNAME
1000
PASTMD0T
  0
ARC
  5
2403
  8
240
 10
108.3
 20
50.41862915010153
 30
0.0
 40
0.7999999999999582
 50
135.0000001375395
 51
180.00000013753839
1001
GRPNAME
1000
PASTMD0T
  0
ARC
  5
2404
  8
240
 10
109.0399494936612
 20
51.300000000000061
 30
0.0
 40
0.6999999999998181
 50
90.000000039850462
 51
135.00000003985451
1001
GRPNAME
1000
PASTMD0T
  0
LINE
  5
2405
  8
240
 10
142.2656854249494
 20
50.984314575050689
 30
0.0
 11
141.45502525316951
 21
51.794974746830462
 31
0.0
1001
GRPNAME
1000
PASTMD0T
  0
ARC
  5
2406
  8
240
 10
141.7000000000001
 20
50.41862915010131
 30
0.0
 40
0.7999999999999548
 50
0.000000039864309
 51
45.000000039852843
1001
GRPNAME
1000
PASTMD0T
  0
ARC
  5
2407
  8
240
 10
140.96005050633889
 20
51.300000000000061
 30
0.0
 40
0.6999999999998932
 50
44.999999829014449
 51
89.999999829022357
1001
GRPNAME
1000
PASTMD0T
  0
ARC
  5
2408
  8
241
 10
259.0
 20
0.0000000000000924
 30
0.0
 40
38.999999990948609
 50
159.71985117375581
 51
235.6600050562989
  0
LINE
  5
2409
  8
245
 10
238.53530860429649
 20
35.445885258576261
 30
0.0
 11
281.19152817378568
 21
-38.436854294592983
 31
0.0
  0
LINE
  5
240A
  8
245
 10
232.56417440903439
 20
-51.345920339552791
 30
0.0
 11
206.48787943914189
 21
-25.2696253696603
 31
0.0
1001
GRPNAME
1000
PASTMD02
  0
LINE
  5
240B
  8
240
 10
205.10098174714491
 20
-33.345102054717429
 30
0.0
 11
222.41764586753229
 21
13.517816592213171
 31
0.0
  0
ARC
  5
240C
  8
241
 10
220.10912703474131
 20
-38.89087296526025
 30
0.0
 40
15.99999999893206
 50
59.107974651277011
 51
159.71985117375581
1001
GRPNAME
1000
PASTMD02
  0
LINE
  5
240D
  8
241
 10
228.80335136483799
 20
-24.68121574190689
 30
0.0
 11
222.65471144701201
 21
-30.829855659732189
 31
0.0
  0
LINE
  5
240E
  8
245
 10
287.88935883477512
 20
28.88935883477518
 30
0.0
 11
207.17551920090281
 21
-51.824480799097159
 31
0.0
  0
LINE
  5
240F
  8
240
 10
234.5
 20
22.99999996225003
 30
0.0
 11
234.5
 21
-29.499999999999901
 31
0.0
  0
LINE
  5
2410
  8
241
 10
244.5
 20
23.99999996225004
 30
0.0
 11
244.50000000000011
 21
-31.999999999999901
 31
0.0
  0
LINE
  5
2411
  8
245
 10
259.0
 20
-45.985113412470369
 30
0.0
 11
259.0
 21
53.983943079715431
 31
0.0
  0
LINE
  5
2412
  8
240
 10
283.5
 20
22.99999996225003
 30
0.0
 11
283.5
 21
-29.499999999999901
 31
0.0
  0
LINE
  5
2413
  8
241
 10
273.5
 20
23.99999996225004
 30
0.0
 11
273.5
 21
-31.999999999999901
 31
0.0
  0
ARC
  5
2414
  8
240
 10
259.0
 20
0.0000000000000924
 30
0.0
 40
38.999999994868212
 50
304.33999494759399
 51
53.861185331363288
  0
LINE
  5
2415
  8
241
 10
237.0
 20
-31.999999999999901
 30
0.0
 11
281.0
 21
-31.999999999999901
 31
0.0
  0
LINE
  5
2416
  8
240
 10
237.50000000000011
 20
-36.499999999999908
 30
0.0
 11
243.99999999999989
 21
-36.499999999999908
 31
0.0
  0
LINE
  5
2417
  8
240
 10
225.65489794373039
 20
-53.89901825343081
 30
0.0
 11
250.3640818516121
 21
-44.768544722554267
 31
0.0
  0
ARC
  5
2418
  8
240
 10
220.10912703474131
 20
-38.89087296526025
 30
0.0
 40
15.99999999893206
 50
159.71985117375581
 51
290.28014882031061
1001
GRPNAME
1000
PASTMD02
  0
ARC
  5
2419
  8
241
 10
220.10912703474131
 20
-38.89087296526025
 30
0.0
 40
9.0000000000000142
 50
70.679288619465794
 51
19.320711380550861
  0
ARC
  5
241A
  8
241
 10
220.10912703474131
 20
-38.89087296526025
 30
0.0
 40
15.99999999893206
 50
290.28014882031061
 51
30.892025348731568
1001
GRPNAME
1000
PASTMD02
  0
LINE
  5
241B
  8
241
 10
234.3187842580931
 20
-30.196648635161971
 30
0.0
 11
228.17014434026689
 21
-36.345288552987142
 31
0.0
  0
LINE
  5
241C
  8
241
 10
221.89461607377359
 20
-30.06976028649375
 30
0.0
 11
228.9302397135078
 21
-37.10538392622793
 31
0.0
  0
LINE
  5
241D
  8
240
 10
237.00000000000011
 20
-35.999999999999901
 30
0.0
 11
237.00000000000011
 21
-31.999999999999901
 31
0.0
  0
LINE
  5
241E
  8
240
 10
237.00000000000011
 20
-35.999999999999901
 30
0.0
 11
237.50000000000011
 21
-36.499999999999908
 31
0.0
  0
LINE
  5
241F
  8
240
 10
236.99999999999989
 20
-31.999999999999851
 30
0.0
 11
234.5
 21
-29.499999999999901
 31
0.0
  0
LINE
  5
2420
  8
241
 10
272.35000000000002
 20
-38.999999999999908
 30
0.0
 11
259.0
 21
-38.999999999999908
 31
0.0
  0
LINE
  5
2421
  8
241
 10
272.35000000000002
 20
-39.499999999999908
 30
0.0
 11
259.0
 21
-39.499999999999908
 31
0.0
  0
LINE
  5
2422
  8
241
 10
269.0
 20
-40.799999999999848
 30
0.0
 11
259.0
 21
-40.799999999999848
 31
0.0
  0
LINE
  5
2423
  8
241
 10
273.99999999999972
 20
-36.499999999999908
 30
0.0
 11
259.0
 21
-36.499999999999908
 31
0.0
  0
LINE
  5
2424
  8
240
 10
267.00000000000159
 20
-44.999999999999879
 30
0.0
 11
250.9999999999994
 21
-44.999999999999837
 31
0.0
  0
LINE
  5
2425
  8
240
 10
249.0
 20
-44.272059531467107
 30
0.0
 11
249.00000000000011
 21
-40.799999999999848
 31
0.0
  0
LINE
  5
2426
  8
240
 10
250.9999999999994
 20
-44.999999999999837
 30
0.0
 11
249.0
 21
-44.272059531467107
 31
0.0
  0
LINE
  5
2427
  8
241
 10
249.00000000000011
 20
-40.799999999999848
 30
0.0
 11
259.0
 21
-40.799999999999848
 31
0.0
  0
LINE
  5
2428
  8
241
 10
245.65000000000009
 20
-39.499999999999908
 30
0.0
 11
259.0
 21
-39.499999999999908
 31
0.0
  0
LINE
  5
2429
  8
241
 10
245.65000000000009
 20
-38.999999999999908
 30
0.0
 11
259.0
 21
-38.999999999999908
 31
0.0
  0
LINE
  5
242A
  8
241
 10
243.99999999999989
 20
-36.499999999999908
 30
0.0
 11
259.0
 21
-36.499999999999908
 31
0.0
  0
LINE
  5
242B
  8
240
 10
245.00000000000011
 20
-40.799999999999848
 30
0.0
 11
249.00000000000011
 21
-40.799999999999848
 31
0.0
  0
LINE
  5
242C
  8
240
 10
244.00000000000011
 20
-38.999999999999851
 30
0.0
 11
243.99999999999969
 21
-36.499999999999972
 31
0.0
  0
ARC
  5
242D
  8
240
 10
245.00000000000011
 20
-39.799999999999862
 30
0.0
 40
1.0
 50
180.00000009254771
 51
270.00000009255098
  0
LINE
  5
242E
  8
240
 10
244.00000000000011
 20
-39.499999999999908
 30
0.0
 11
245.65000000000009
 21
-39.499999999999908
 31
0.0
  0
LINE
  5
242F
  8
240
 10
244.00000000000011
 20
-38.999999999999908
 30
0.0
 11
245.65000000000009
 21
-38.999999999999908
 31
0.0
  0
LINE
  5
2430
  8
240
 10
244.00000000000011
 20
-39.499999999999851
 30
0.0
 11
244.00000000000011
 21
-39.799999999999862
 31
0.0
  0
LINE
  5
2431
  8
240
 10
245.65000000000009
 20
-38.999999999999908
 30
0.0
 11
245.65000000000009
 21
-39.499999999999908
 31
0.0
  0
LINE
  5
2432
  8
240
 10
269.0000000000004
 20
-44.2720595314672
 30
0.0
 11
269.00000000000011
 21
-40.799999999999848
 31
0.0
  0
LINE
  5
2433
  8
240
 10
267.00000000000159
 20
-44.999999999999879
 30
0.0
 11
269.0000000000004
 21
-44.2720595314672
 31
0.0
  0
LINE
  5
2434
  8
240
 10
280.50000000000011
 20
-36.499999999999908
 30
0.0
 11
273.99999999999972
 21
-36.499999999999908
 31
0.0
  0
LINE
  5
2435
  8
240
 10
273.0
 20
-40.799999999999848
 30
0.0
 11
269.0
 21
-40.799999999999848
 31
0.0
  0
LINE
  5
2436
  8
240
 10
274.00000000000011
 20
-38.999999999999851
 30
0.0
 11
273.99999999999972
 21
-36.499999999999879
 31
0.0
  0
LINE
  5
2437
  8
240
 10
274.0
 20
-39.499999999999908
 30
0.0
 11
272.35000000000002
 21
-39.499999999999908
 31
0.0
  0
LINE
  5
2438
  8
240
 10
274.0
 20
-38.999999999999908
 30
0.0
 11
272.35000000000002
 21
-38.999999999999908
 31
0.0
  0
ARC
  5
2439
  8
240
 10
273.0
 20
-39.799999999999862
 30
0.0
 40
1.0
 50
269.99999998199269
 51
359.99999998199593
  0
LINE
  5
243A
  8
240
 10
272.35000000000002
 20
-38.999999999999908
 30
0.0
 11
272.35000000000002
 21
-39.499999999999908
 31
0.0
  0
LINE
  5
243B
  8
240
 10
274.00000000000011
 20
-39.499999999999851
 30
0.0
 11
274.00000000000011
 21
-39.799999999999862
 31
0.0
  0
LINE
  5
243C
  8
240
 10
281.0
 20
-35.999999999999901
 30
0.0
 11
281.0
 21
-31.999999999999901
 31
0.0
  0
LINE
  5
243D
  8
240
 10
281.0
 20
-35.999999999999901
 30
0.0
 11
280.50000000000011
 21
-36.499999999999908
 31
0.0
  0
LINE
  5
243E
  8
240
 10
281.0
 20
-31.999999999999901
 30
0.0
 11
283.5
 21
-29.499999999999901
 31
0.0
  0
LINE
  5
243F
  8
241
 10
236.00000000000011
 20
23.99999996225004
 30
0.0
 11
281.99999999999989
 21
23.99999996225004
 31
0.0
  0
LINE
  5
2440
  8
241
 10
237.75000000000031
 20
29.000000000000089
 30
0.0
 11
259.0
 21
29.000000000000089
 31
0.0
  0
LINE
  5
2441
  8
241
 10
241.0
 20
33.000000000000099
 30
0.0
 11
244.0
 21
36.000000000000092
 31
0.0
  0
ARC
  5
2442
  8
240
 10
259.0
 20
0.0000000000000924
 30
0.0
 40
38.999999991054388
 50
112.05699411936899
 51
123.5573097421081
  0
LINE
  5
2443
  8
240
 10
237.00000000000011
 20
32.500000000000092
 30
0.0
 11
246.75
 21
32.500000000000092
 31
0.0
  0
LINE
  5
2444
  8
241
 10
259.0
 20
29.500000000000089
 30
0.0
 11
237.75000000000031
 21
29.500000000000089
 31
0.0
  0
LINE
  5
2445
  8
243
 10
243.87849549953529
 20
10.09121408168645
 30
0.0
 11
241.2558739522982
 21
14.63372785052599
 31
0.0
  0
CIRCLE
  5
2446
  8
243
 10
259.0
 20
0.0000000000000924
 30
0.0
 40
23.0
  0
LINE
  5
2447
  8
245
 10
299.23402511311781
 20
0.0000000000000924
 30
0.0
 11
213.93651148629749
 21
0.0000000000000924
 31
0.0
  0
ARC
  5
2448
  8
240
 10
259.0
 20
0.0000000000000924
 30
0.0
 40
38.999999990948609
 50
126.1388146727946
 51
159.71985117375581
  0
LINE
  5
2449
  8
240
 10
236.0000000000002
 20
31.500000000000089
 30
0.0
 11
236.0000000000002
 21
29.500000000000089
 31
0.0
  0
LINE
  5
244A
  8
240
 10
235.5
 20
23.99999996225004
 30
0.0
 11
236.00000000000011
 21
23.99999996225004
 31
0.0
  0
LINE
  5
244B
  8
240
 10
234.5
 20
22.99999996225003
 30
0.0
 11
235.5
 21
23.99999996225004
 31
0.0
  0
LINE
  5
244C
  8
240
 10
236.0000000000002
 20
29.000000000000089
 30
0.0
 11
236.0000000000002
 21
23.999999999999979
 31
0.0
  0
LINE
  5
244D
  8
240
 10
237.75000000000031
 20
29.500000000000089
 30
0.0
 11
236.0000000000002
 21
29.500000000000089
 31
0.0
  0
LINE
  5
244E
  8
240
 10
237.75000000000031
 20
29.500000000000089
 30
0.0
 11
237.75000000000031
 21
29.000000000000089
 31
0.0
  0
LINE
  5
244F
  8
240
 10
236.0000000000002
 20
29.000000000000089
 30
0.0
 11
237.75000000000031
 21
29.000000000000089
 31
0.0
  0
ARC
  5
2450
  8
240
 10
237.00000000000011
 20
31.500000000000089
 30
0.0
 40
1.0
 50
89.999999994854079
 51
179.99999999485399
  0
LINE
  5
2451
  8
241
 10
241.0
 20
33.000000000000099
 30
0.0
 11
241.0
 21
32.500000000000092
 31
0.0
  0
LINE
  5
2452
  8
241
 10
265.96061851778819
 20
36.500000000000092
 30
0.0
 11
265.96061851778819
 21
45.500000000000092
 31
0.0
  0
LINE
  5
2453
  8
241
 10
269.42472013292581
 20
36.500000000000092
 30
0.0
 11
269.42472013292581
 21
45.500000000000092
 31
0.0
  0
LINE
  5
2454
  8
240
 10
276.50000000000028
 20
37.30000000000004
 30
0.0
 11
276.50000000000028
 21
50.41862915010153
 31
0.0
  0
LINE
  5
2455
  8
241
 10
252.03938148221201
 20
36.500000000000092
 30
0.0
 11
252.03938148221201
 21
45.500000000000092
 31
0.0
  0
LINE
  5
2456
  8
241
 10
248.5752798670743
 20
36.500000000000092
 30
0.0
 11
248.5752798670743
 21
45.500000000000092
 31
0.0
  0
LINE
  5
2457
  8
240
 10
241.5000000000002
 20
37.30000000000004
 30
0.0
 11
241.5000000000002
 21
50.418629150101737
 31
0.0
  0
LINE
  5
2458
  8
243
 10
260.1784954995353
 20
-18.14121408168625
 30
0.0
 11
274.12150450046471
 21
-10.09121408168626
 31
0.0
  0
LINE
  5
2459
  8
243
 10
262.8011170467725
 20
-22.683727850525869
 30
0.0
 11
260.1784954995353
 21
-18.14121408168625
 31
0.0
  0
LINE
  5
245A
  8
243
 10
276.74412604770191
 20
-14.63372785052597
 30
0.0
 11
274.12150450046471
 21
-10.09121408168626
 31
0.0
  0
LINE
  5
245B
  8
241
 10
280.24999999999972
 20
29.000000000000089
 30
0.0
 11
259.0
 21
29.000000000000089
 31
0.0
  0
LINE
  5
245C
  8
241
 10
271.25
 20
32.500000000000092
 30
0.0
 11
259.0
 21
32.500000000000092
 31
0.0
  0
LINE
  5
245D
  8
241
 10
271.99999999999989
 20
36.000000000000092
 30
0.0
 11
259.00000000000028
 21
36.000000000000092
 31
0.0
  0
LINE
  5
245E
  8
241
 10
259.0
 20
29.500000000000089
 30
0.0
 11
280.24999999999972
 21
29.500000000000089
 31
0.0
  0
LINE
  5
245F
  8
241
 10
273.99999999999989
 20
36.500000000000092
 30
0.0
 11
258.99999999999989
 21
36.500000000000092
 31
0.0
  0
LINE
  5
2460
  8
242
 10
272.03100000000012
 20
29.000000000000089
 30
0.0
 11
245.96899999999999
 21
23.99999996225004
 31
0.0
  0
LINE
  5
2461
  8
242
 10
245.96899999999999
 20
29.000000000000089
 30
0.0
 11
272.03100000000012
 21
23.99999996225004
 31
0.0
  0
LINE
  5
2462
  8
241
 10
246.75
 20
34.75000000000032
 30
0.0
 11
271.25
 21
34.75000000000032
 31
0.0
  0
LINE
  5
2463
  8
243
 10
243.87849549953529
 20
10.09121408168645
 30
0.0
 11
257.8215045004647
 21
18.141214081686432
 31
0.0
  0
LINE
  5
2464
  8
243
 10
257.8215045004647
 20
18.141214081686432
 30
0.0
 11
255.1988829532275
 21
22.683727850526122
 31
0.0
  0
LINE
  5
2465
  8
241
 10
246.75
 20
32.500000000000092
 30
0.0
 11
259.0
 21
32.500000000000092
 31
0.0
  0
LINE
  5
2466
  8
241
 10
246.0000000000002
 20
36.000000000000092
 30
0.0
 11
259.00000000000028
 21
36.000000000000092
 31
0.0
  0
LINE
  5
2467
  8
241
 10
244.0000000000002
 20
36.500000000000092
 30
0.0
 11
259.00000000000028
 21
36.500000000000092
 31
0.0
  0
LINE
  5
2468
  8
240
 10
245.96899999999999
 20
29.000000000000089
 30
0.0
 11
245.96899999999999
 21
23.99999996225004
 31
0.0
  0
LINE
  5
2469
  8
240
 10
246.75
 20
34.75000000000032
 30
0.0
 11
246.0000000000002
 21
35.500000000000099
 31
0.0
  0
LINE
  5
246A
  8
240
 10
246.75
 20
32.500000000000092
 30
0.0
 11
246.75
 21
34.75000000000032
 31
0.0
  0
LINE
  5
246B
  8
240
 10
244.5000000000002
 20
36.000000000000092
 30
0.0
 11
244.0000000000002
 21
36.500000000000092
 31
0.0
  0
ARC
  5
246C
  8
240
 10
242.3000000000001
 20
37.30000000000004
 30
0.0
 40
0.7999999999999548
 50
180.00000008997151
 51
270.00000008997802
  0
LINE
  5
246D
  8
240
 10
242.3000000000001
 20
36.500000000000092
 30
0.0
 11
244.0000000000002
 21
36.500000000000092
 31
0.0
  0
LINE
  5
246E
  8
240
 10
246.0000000000002
 20
36.000000000000092
 30
0.0
 11
246.0000000000002
 21
35.500000000000099
 31
0.0
  0
LINE
  5
246F
  8
240
 10
244.5000000000002
 20
36.000000000000092
 30
0.0
 11
246.0000000000002
 21
36.000000000000092
 31
0.0
  0
ARC
  5
2470
  8
240
 10
275.7000000000001
 20
37.30000000000004
 30
0.0
 40
0.7999999999999548
 50
269.99999998199269
 51
359.99999998198922
  0
ARC
  5
2471
  8
240
 10
259.0
 20
0.0000000000000924
 30
0.0
 40
38.999999991179642
 50
56.442690249446017
 51
67.943005880588856
  0
LINE
  5
2472
  8
241
 10
277.0
 20
33.000000000000099
 30
0.0
 11
274.0
 21
36.000000000000092
 31
0.0
  0
LINE
  5
2473
  8
240
 10
280.99999999999989
 20
32.500000000000092
 30
0.0
 11
271.25
 21
32.500000000000092
 31
0.0
  0
LINE
  5
2474
  8
240
 10
272.03100000000012
 20
29.000000000000089
 30
0.0
 11
272.03100000000012
 21
23.99999996225004
 31
0.0
  0
LINE
  5
2475
  8
240
 10
271.25
 20
34.75000000000032
 30
0.0
 11
271.99999999999989
 21
35.500000000000099
 31
0.0
  0
LINE
  5
2476
  8
240
 10
271.25
 20
32.500000000000092
 30
0.0
 11
271.25
 21
34.75000000000032
 31
0.0
  0
LINE
  5
2477
  8
240
 10
273.50000000000011
 20
36.000000000000092
 30
0.0
 11
271.99999999999989
 21
36.000000000000092
 31
0.0
  0
LINE
  5
2478
  8
240
 10
271.99999999999989
 20
36.000000000000092
 30
0.0
 11
271.99999999999989
 21
35.500000000000099
 31
0.0
  0
LINE
  5
2479
  8
240
 10
273.50000000000011
 20
36.000000000000092
 30
0.0
 11
274.00000000000011
 21
36.500000000000092
 31
0.0
  0
LINE
  5
247A
  8
240
 10
275.7000000000001
 20
36.500000000000092
 30
0.0
 11
274.00000000000011
 21
36.500000000000092
 31
0.0
  0
LINE
  5
247B
  8
240
 10
281.99999999999989
 20
31.500000000000089
 30
0.0
 11
281.99999999999989
 21
29.500000000000089
 31
0.0
  0
LINE
  5
247C
  8
240
 10
280.24999999999972
 20
29.500000000000089
 30
0.0
 11
281.99999999999989
 21
29.500000000000089
 31
0.0
  0
LINE
  5
247D
  8
240
 10
281.99999999999989
 20
29.000000000000089
 30
0.0
 11
280.24999999999972
 21
29.000000000000089
 31
0.0
  0
LINE
  5
247E
  8
240
 10
280.24999999999972
 20
29.500000000000089
 30
0.0
 11
280.24999999999972
 21
29.000000000000089
 31
0.0
  0
LINE
  5
247F
  8
240
 10
281.99999999999989
 20
29.000000000000089
 30
0.0
 11
281.99999999999989
 21
23.999999999999979
 31
0.0
  0
LINE
  5
2480
  8
240
 10
281.99999999999989
 20
23.99999996225004
 30
0.0
 11
282.5
 21
23.99999996225004
 31
0.0
  0
LINE
  5
2481
  8
240
 10
282.5
 20
23.99999996225004
 30
0.0
 11
283.5
 21
22.99999996225003
 31
0.0
  0
ARC
  5
2482
  8
240
 10
280.99999999999989
 20
31.500000000000089
 30
0.0
 40
1.0
 50
0.000000005145883
 51
90.000000005145864
  0
LINE
  5
2483
  8
241
 10
277.0
 20
33.000000000000099
 30
0.0
 11
277.0
 21
32.500000000000092
 31
0.0
  0
LINE
  5
2484
  8
240
 10
243.0399494936614
 20
52.000000000000092
 30
0.0
 11
274.96005050633897
 21
52.000000000000092
 31
0.0
  0
LINE
  5
2485
  8
241
 10
248.5752798670743
 20
45.500000000000092
 30
0.0
 11
252.03938148221201
 21
45.500000000000092
 31
0.0
  0
LINE
  5
2486
  8
240
 10
242.5449747468308
 20
51.79497474683064
 30
0.0
 11
241.73431457505089
 21
50.984314575050888
 31
0.0
  0
ARC
  5
2487
  8
240
 10
242.3000000000001
 20
50.418629150101737
 30
0.0
 40
0.7999999999999181
 50
135.00000004242159
 51
180.00000004242091
  0
ARC
  5
2488
  8
240
 10
243.0399494936614
 20
51.30000000000026
 30
0.0
 40
0.6999999999998181
 50
90.000000044997165
 51
135.00000004499611
  0
LINE
  5
2489
  8
240
 10
276.26568542494948
 20
50.984314575050888
 30
0.0
 11
275.45502525316959
 21
51.79497474683064
 31
0.0
  0
LINE
  5
248A
  8
241
 10
269.42472013292581
 20
45.500000000000092
 30
0.0
 11
265.96061851778819
 21
45.500000000000092
 31
0.0
  0
ARC
  5
248B
  8
240
 10
274.96005050633897
 20
51.300000000000047
 30
0.0
 40
0.700000000000054
 50
44.999999934438307
 51
89.999999934429056
  0
ARC
  5
248C
  8
240
 10
275.70000000000027
 20
50.41862915010153
 30
0.0
 40
0.7999999999999548
 50
0.0000000398480246
 51
45.000000039854228
  0
VIEWPORT
  5
22
 67
     1
  8
0
 10
261.51769911504419
 20
148.5
 30
0.0
 40
523.0353982300885
 41
297.0
 68
     1
 69
     1
1001
ACAD
1000
MVIEW
1002
{
1070
    16
1010
0.0
1020
0.0
1030
0.0
1010
0.0
1020
0.0
1030
1.0
1040
0.0
1040
297.0
1040
261.51769911504419
1040
148.5
1040
50.0
1040
0.0
1040
0.0
1070
     0
1070
   100
1070
     1
1070
     1
1070
     0
1070
     0
1070
     0
1070
     0
1040
0.0
1040
0.0
1040
0.0
1040
1.0
1040
1.0
1040
10.0
1040
10.0
1070
     0
1002
{
1002
}
1002
}
1001
GENIUS_GENOBJ-N-SDF_13
1002
{
1000
OWNER
1000
GEN
1002
}
1001
GENIUS_GENODEF_13
1002
{
1000
HIER
1070
     0
1002
}
1002
{
1000
MANEDIT
1070
     0
1002
}
1002
{
1000
NOSEL
1070
     0
1002
}
1002
{
1000
BEHIND
1070
     0
1002
}
1002
{
1000
OTHER
1070
     0
1002
}
1002
{
1000
REACTOR
1002
}
1001
GENIUS_GENSCREG_15
1000
PF
1040
1.0
1000
DF
1040
1.0
1000
MIN
1011
0.0
1021
0.0
1031
0.0
1021
0.0
1031
0.0
1000
MAX
1011
523.0353982300885
1021
0.0
1031
0.0
1021
297.0
1031
0.0
1000
FLAGS
1070
     2
  0
ENDSEC
  0
EOF
