  0
SECTION
  2
HEADER
  9
$ACADVER
  1
AC1009
  9
$INSBASE
 10
0.0
 20
0.0
 30
0.0
  9
$EXTMIN
 10
-3.963542289496047
 20
-20.00000000000006
 30
0.0
  9
$EXTMAX
 10
59.62685280485406
 20
50.0
 30
0.0
  9
$LIMMIN
 10
0.0
 20
0.0
  9
$LIMMAX
 10
297.0
 20
210.0
  9
$ORTHOMODE
 70
     0
  9
$REGENMODE
 70
     1
  9
$FILLMODE
 70
     1
  9
$QTEXTMODE
 70
     0
  9
$MIRRTEXT
 70
     1
  9
$DRAGMODE
 70
     2
  9
$LTSCALE
 40
10.0
  9
$OSMODE
 70
   103
  9
$ATTMODE
 70
     1
  9
$TEXTSIZE
 40
3.0
  9
$TRACEWID
 40
1.0
  9
$TEXTSTYLE
  7
YOKO
  9
$CLAYER
  8
240
  9
$CELTYPE
  6
BYLAYER
  9
$CECOLOR
 62
   256
  9
$DIMSCALE
 40
1.0
  9
$DIMASZ
 40
2.2299999999999991
  9
$DIMEXO
 40
0.5
  9
$DIMDLI
 40
7.0
  9
$DIMRND
 40
0.0
  9
$DIMDLE
 40
0.0
  9
$DIMEXE
 40
1.0
  9
$DIMTP
 40
0.0
  9
$DIMTM
 40
0.01
  9
$DIMTXT
 40
2.799999999999998
  9
$DIMCEN
 40
0.0
  9
$DIMTSZ
 40
0.0
  9
$DIMTOL
 70
     0
  9
$DIMLIM
 70
     0
  9
$DIMTIH
 70
     0
  9
$DIMTOH
 70
     0
  9
$DIMSE1
 70
     0
  9
$DIMSE2
 70
     0
  9
$DIMTAD
 70
     3
  9
$DIMZIN
 70
     9
  9
$DIMBLK
  1
OPEN
  9
$DIMASO
 70
     1
  9
$DIMSHO
 70
     1
  9
$DIMPOST
  1

  9
$DIMAPOST
  1

  9
$DIMALT
 70
     0
  9
$DIMALTD
 70
     2
  9
$DIMALTF
 40
25.399999999999999
  9
$DIMLFAC
 40
1.0
  9
$DIMTOFL
 70
     1
  9
$DIMTVP
 40
0.0
  9
$DIMTIX
 70
     1
  9
$DIMSOXD
 70
     0
  9
$DIMSAH
 70
     0
  9
$DIMBLK1
  1

  9
$DIMBLK2
  1

  9
$DIMSTYLE
  2
BIGT
  9
$DIMCLRD
 70
   256
  9
$DIMCLRE
 70
   256
  9
$DIMCLRT
 70
    40
  9
$DIMTFAC
 40
1.0
  9
$DIMGAP
 40
1.0
  9
$LUNITS
 70
     2
  9
$LUPREC
 70
     6
  9
$SKETCHINC
 40
1.0
  9
$FILLETRAD
 40
8.0
  9
$AUNITS
 70
     0
  9
$AUPREC
 70
     6
  9
$MENU
  1
.
  9
$ELEVATION
 40
0.0
  9
$PELEVATION
 40
0.0
  9
$THICKNESS
 40
0.0
  9
$LIMCHECK
 70
     0
  9
$BLIPMODE
 70
     0
  9
$CHAMFERA
 40
0.2
  9
$CHAMFERB
 40
0.2
  9
$SKPOLY
 70
     0
  9
$TDCREATE
 40
2458914.5488113998
  9
$TDUPDATE
 40
2458914.5583969788
  9
$TDINDWG
 40
0.0082305903
  9
$TDUSRTIMER
 40
0.0082303704
  9
$USRTIMER
 70
     1
  9
$ANGBASE
 50
0.0
  9
$ANGDIR
 70
     0
  9
$PDMODE
 70
     1
  9
$PDSIZE
 40
0.0
  9
$PLINEWID
 40
0.0
  9
$COORDS
 70
     1
  9
$SPLFRAME
 70
     0
  9
$SPLINETYPE
 70
     6
  9
$SPLINESEGS
 70
     4
  9
$ATTDIA
 70
     1
  9
$ATTREQ
 70
     1
  9
$HANDLING
 70
     1
  9
$HANDSEED
  5
47A1
  9
$SURFTAB1
 70
     6
  9
$SURFTAB2
 70
     6
  9
$SURFTYPE
 70
     6
  9
$SURFU
 70
     6
  9
$SURFV
 70
     6
  9
$UCSNAME
  2

  9
$UCSORG
 10
0.0
 20
0.0
 30
0.0
  9
$UCSXDIR
 10
1.0
 20
0.0
 30
0.0
  9
$UCSYDIR
 10
0.0
 20
1.0
 30
0.0
  9
$PUCSNAME
  2

  9
$PUCSORG
 10
0.0
 20
0.0
 30
0.0
  9
$PUCSXDIR
 10
1.0
 20
0.0
 30
0.0
  9
$PUCSYDIR
 10
0.0
 20
1.0
 30
0.0
  9
$USERI1
 70
     1
  9
$USERI2
 70
     0
  9
$USERI3
 70
     0
  9
$USERI4
 70
     0
  9
$USERI5
 70
     0
  9
$USERR1
 40
0.0
  9
$USERR2
 40
0.0
  9
$USERR3
 40
0.0
  9
$USERR4
 40
0.0
  9
$USERR5
 40
0.0
  9
$WORLDVIEW
 70
     1
  9
$SHADEDGE
 70
     3
  9
$SHADEDIF
 70
    70
  9
$TILEMODE
 70
     1
  9
$MAXACTVP
 70
    16
  9
$PLIMCHECK
 70
     0
  9
$PEXTMIN
 10
1.0000000000000000E+020
 20
1.0000000000000000E+020
 30
1.0000000000000000E+020
  9
$PEXTMAX
 10
-1.0000000000000000E+020
 20
-1.0000000000000000E+020
 30
-1.0000000000000000E+020
  9
$PLIMMIN
 10
0.0
 20
0.0
  9
$PLIMMAX
 10
420.0
 20
297.0
  9
$UNITMODE
 70
     0
  9
$VISRETAIN
 70
     1
  9
$PLINEGEN
 70
     0
  9
$PSLTSCALE
 70
     1
  0
ENDSEC
  0
SECTION
  2
TABLES
  0
TABLE
  2
VPORT
 70
     1
  0
VPORT
  2
*ACTIVE
 70
     0
 10
0.0
 20
0.0
 11
1.0
 21
1.0
 12
19.617414508609102
 22
16.271642890027248
 13
0.0
 23
0.0
 14
7.0
 24
7.0
 15
7.0
 25
7.0
 16
0.0
 26
0.0
 36
1.0
 17
0.0
 27
0.0
 37
0.0
 40
103.1570688915311
 41
1.806861499364675
 42
50.0
 43
0.0
 44
0.0
 50
0.0
 51
0.0
 71
     0
 72
  2000
 73
     1
 74
     0
 75
     0
 76
     1
 77
     0
 78
     0
  0
ENDTAB
  0
TABLE
  2
LTYPE
 70
    21
  0
LTYPE
  2
CONTINUOUS
 70
     0
  3
Solid line
 72
    65
 73
     0
 40
0.0
  0
LTYPE
  2
CENTER2
 70
     0
  3
___ _ ___ _ ___ _ ___ _ ___ _ ___ _ ___ _ ___ _
 72
    65
 73
     4
 40
1.125
 49
0.75
 49
-0.125
 49
0.125
 49
-0.125
  0
LTYPE
  2
HIDDEN2
 70
     0
  3
_ _ _ _ _ _ _ _ _ _ _ _ _ _ _ _ _ _ _ _ _ _ _ _
 72
    65
 73
     2
 40
0.1875
 49
0.125
 49
-0.0625
  0
LTYPE
  2
PHANTOM2
 70
     0
  3
___ _ _ ___ _ _ ___ _ _ ___ _ _ ___ _ _ ___ _ _
 72
    65
 73
     6
 40
1.25
 49
0.625
 49
-0.125
 49
0.125
 49
-0.125
 49
0.125
 49
-0.125
  0
LTYPE
  2
AMCONSTR
 70
     0
  3
_______________________
 72
    65
 73
     2
 40
9999.0
 49
9999.0
 49
0.0
  0
LTYPE
  2
HIDDEN
 70
     0
  3
Hidden __ __ __ __ __ __ __ __ __ __ __ __ __ _
 72
    65
 73
     2
 40
0.375
 49
0.25
 49
-0.125
  0
LTYPE
  2
CENTER
 70
     0
  3
Center ____ _ ____ _ ____ _ ____ _ ____ _ ____
 72
    65
 73
     4
 40
2.0
 49
1.25
 49
-0.25
 49
0.25
 49
-0.25
  0
LTYPE
  2
AMZIGZAG2
 70
     0
  3
/\/-/\/-/\/-/\/-/\/-/\/
 72
    65
 73
     2
 40
0.4401
 49
0.0001
 49
-0.4400000000000001
  0
LTYPE
  2
ACANSTGB
 70
     0
  3
__ . . __ . .
 72
    65
 73
     6
 40
0.35433070866
 49
0.15748031496
 49
-0.03937007874
 49
0.03937007874
 49
-0.03937007874
 49
0.03937007874
 49
-0.03937007874
  0
LTYPE
  2
ACANSTGL
 70
     0
  3
_ _ _ _ _
 72
    65
 73
     2
 40
0.11811023622
 49
0.07874015748
 49
-0.03937007874
  0
ENDTAB
  0
TABLE
  2
LAYER
 70
     9
  0
LAYER
  2
0
 70
     0
 62
     7
  6
CONTINUOUS
  0
LAYER
  2
240
 70
     0
 62
     4
  6
CONTINUOUS
  0
LAYER
  2
DEFPOINTS
 70
     0
 62
     7
  6
CONTINUOUS
  0
LAYER
  2
245
 70
     0
 62
     2
  6
CENTER2
  0
LAYER
  2
241
 70
     0
 62
   211
  6
CONTINUOUS
  0
LAYER
  2
242
 70
     0
 62
     3
  6
CONTINUOUS
  0
LAYER
  2
243
 70
     0
 62
   211
  6
HIDDEN2
  0
LAYER
  2
246
 70
     0
 62
     3
  6
PHANTOM2
  0
LAYER
  2
250
 70
     0
 62
     3
  6
CONTINUOUS
  0
ENDTAB
  0
TABLE
  2
STYLE
 70
    10
  0
STYLE
  2
STANDARD
 70
     0
 40
0.0
 41
1.0
 50
0.0
 71
     0
 42
3.0
  3
romans.shx
  4
extfont.shx
  0
STYLE
  2
YOKO
 70
     0
 40
0.0
 41
1.0
 50
0.0
 71
     0
 42
3.0
  3
romans.shx
  4
extfont.shx
  0
STYLE
  2
ACJISTS
 70
     0
 40
1.0
 41
1.0
 50
0.0
 71
     0
 42
3.0
  3
amgdt.shx
  4
extfont.shx
  0
STYLE
  2

 70
     1
 40
0.0
 41
1.0
 50
0.0
 71
     0
 42
3.0
  3
genltshp.shx
  4

  0
STYLE
  2
ACANSGDT
 70
     0
 40
0.0
 41
1.0
 50
0.0
 71
     0
 42
3.0
  3
amgdt.shx
  4

  0
ENDTAB
  0
TABLE
  2
VIEW
 70
     0
  0
ENDTAB
  0
TABLE
  2
UCS
 70
     0
  0
ENDTAB
  0
TABLE
  2
APPID
 70
    41
  0
APPID
  2
ACAD
 70
     0
  0
APPID
  2
ACADANNOTATIVE
 70
     0
  0
APPID
  2
GLOBAL
 70
     0
  0
APPID
  2
DETAIL
 70
     0
  0
APPID
  2
GRPNAME
 70
     0
  0
APPID
  2
GPARA
 70
     0
  0
APPID
  2
MCAD_NO_VIS
 70
     0
  0
APPID
  2
ACAD_TEMP_GRAPHIC
 70
     0
  0
APPID
  2
ACATTRIBSERVICES
 70
     0
  0
APPID
  2
GENIUS_GENSCREG_15
 70
     0
  0
APPID
  2
GENIUS_GENODEF_13
 70
     0
  0
APPID
  2
GENIUS_GENOBJ-N-SDF_13
 70
     0
  0
APPID
  2
GENIUS_GENREC_14
 70
     0
  0
APPID
  2
GENIUS_GENOBJ-N-REC_13
 70
     0
  0
APPID
  2
GENIUS_GENDIMSH_14
 70
     0
  0
APPID
  2
GENIUS_GENOBJ-N-DIM_13
 70
     0
  0
APPID
  2
GENIUS_GENDIM_13
 70
     0
  0
APPID
  2
GENIUS_GENDTOL_13
 70
     0
  0
APPID
  2
GENIUS_GENOLIS_13
 70
     0
  0
APPID
  2
GENIUS_GENOENT_13
 70
     0
  0
APPID
  2
GENIUS_GENOBJ-F-FEM_13
 70
     0
  0
APPID
  2
GENIUS_GENOREF_13
 70
     0
  0
APPID
  2
GENIUS_GEFFEM_13
 70
     0
  0
APPID
  2
GENIUS_GEFFEMP_13
 70
     0
  0
APPID
  2
AD_DRAW
 70
     0
  0
APPID
  2
DESIGNERASSEMBLIES
 70
     0
  0
APPID
  2
ACADM_DIM_EDIT
 70
     0
  0
APPID
  2
AMDT_DM_ADJ
 70
     0
  0
APPID
  2
ITEMNAME
 70
     0
  0
APPID
  2
GENIUS_GENOBJ-N-FIL_13
 70
     0
  0
APPID
  2
GENIUS_GENFIL_13
 70
     0
  0
APPID
  2
GENIUS_GENOBJ-N-CHA_13
 70
     0
  0
APPID
  2
ACAD_NAV_VCDISPLAY
 70
     0
  0
APPID
  2
ACAD_PSEXT
 70
     0
  0
APPID
  2
ACAD_DSTYLE_DIMJAG
 70
     0
  0
APPID
  2
ACAD_DSTYLE_DIMTALN
 70
     0
  0
APPID
  2
ACAD_EXEMPT_FROM_CAD_STANDARDS
 70
     0
  0
APPID
  2
ACAECLAYERSTANDARD
 70
     0
  0
APPID
  2
ACAD_DSTYLE_DIMINSPECT
 70
     0
  0
APPID
  2
ACAD_MLEADERVER
 70
     0
  0
APPID
  2
ACAD_DSTYLE_DIMBREAK
 70
     0
  0
ENDTAB
  0
TABLE
  2
DIMSTYLE
 70
    31
  0
DIMSTYLE
  2
STANDARD
 70
     0
  3

  4

  5

  6

  7

 40
1.0
 41
0.18
 42
0.0625
 43
0.38
 44
0.18
 45
0.0
 46
0.0
 47
0.0
 48
0.0
140
0.18
141
0.09
142
0.0
143
25.399999999999999
144
1.0
145
0.0
146
1.0
147
0.09
 71
     0
 72
     0
 73
     1
 74
     1
 75
     0
 76
     0
 77
     0
 78
     0
170
     0
171
     2
172
     0
173
     0
174
     0
175
     0
176
     0
177
     0
178
     0
  0
DIMSTYLE
  2
BIGT
 70
     0
  3

  4

  5

  6

  7

 40
1.0
 41
2.2299999999999991
 42
0.5
 43
7.0
 44
1.0
 45
0.0
 46
0.0
 47
0.0
 48
0.01
140
2.799999999999998
141
0.0
142
0.0
143
25.399999999999999
144
1.0
145
0.0
146
1.0
147
1.0
 71
     0
 72
     0
 73
     0
 74
     0
 75
     0
 76
     0
 77
     3
 78
     9
170
     0
171
     2
172
     1
173
     0
174
     1
175
     0
176
   256
177
   256
178
    40
  0
DIMSTYLE
  2
AM_ANSI
 70
     0
  3

  4
mm
  5

  6

  7

 40
1.0
 41
0.12
 42
0.05
 43
0.5
 44
0.1
 45
0.0
 46
0.0
 47
0.1
 48
0.1
140
0.12
141
0.0
142
0.0
143
25.399999999999999
144
1.0
145
0.0
146
0.71
147
0.06
 71
     0
 72
     0
 73
     1
 74
     1
 75
     0
 76
     0
 77
     0
 78
     7
170
     0
171
     2
172
     0
173
     0
174
     0
175
     0
176
   256
177
   256
178
     2
  0
DIMSTYLE
  2
AM_ANSI$3
 70
     0
  3

  4
mm
  5

  6

  7

 40
1.0
 41
0.12
 42
0.05
 43
0.5
 44
0.1
 45
0.0
 46
0.0
 47
0.1
 48
0.1
140
0.12
141
0.0
142
0.0
143
25.399999999999999
144
1.0
145
0.0
146
0.71
147
0.06
 71
     0
 72
     0
 73
     1
 74
     1
 75
     0
 76
     0
 77
     0
 78
     7
170
     0
171
     2
172
     0
173
     0
174
     0
175
     0
176
   256
177
   256
178
     2
  0
DIMSTYLE
  2
AM_ANSI$4
 70
     0
  3

  4
mm
  5

  6

  7

 40
1.0
 41
0.12
 42
0.05
 43
0.5
 44
0.1
 45
0.0
 46
0.0
 47
0.1
 48
0.1
140
0.12
141
0.0
142
0.0
143
25.399999999999999
144
1.0
145
0.0
146
0.71
147
0.06
 71
     0
 72
     0
 73
     1
 74
     1
 75
     0
 76
     0
 77
     0
 78
     7
170
     0
171
     2
172
     0
173
     0
174
     0
175
     0
176
   256
177
   256
178
     2
  0
DIMSTYLE
  2
AM_ANSI$7
 70
     0
  3

  4
mm
  5

  6

  7

 40
1.0
 41
0.12
 42
0.05
 43
0.5
 44
0.1
 45
0.0
 46
0.0
 47
0.1
 48
0.1
140
0.12
141
0.0
142
0.0
143
25.399999999999999
144
1.0
145
0.0
146
0.71
147
0.06
 71
     0
 72
     0
 73
     1
 74
     1
 75
     0
 76
     0
 77
     0
 78
     7
170
     0
171
     2
172
     0
173
     0
174
     0
175
     0
176
   256
177
   256
178
     2
  0
DIMSTYLE
  2
AM_ANSI$SF
 70
     0
  3

  4
mm
  5

  6

  7

 40
1.0
 41
0.12
 42
0.05
 43
0.5
 44
0.1
 45
0.0
 46
0.0
 47
0.1
 48
0.1
140
0.12
141
0.0
142
0.0
143
25.399999999999999
144
1.0
145
0.0
146
0.71
147
0.06
 71
     0
 72
     0
 73
     1
 74
     1
 75
     1
 76
     1
 77
     0
 78
     7
170
     0
171
     2
172
     0
173
     0
174
     0
175
     0
176
   256
177
   256
178
     2
  0
DIMSTYLE
  2
AM_ANSI$SH
 70
     0
  3

  4
mm
  5

  6
GENAXEH
  7

 40
1.0
 41
0.12
 42
0.05
 43
0.5
 44
0.1
 45
0.0
 46
0.0
 47
0.1
 48
0.1
140
0.12
141
0.0
142
0.0
143
25.399999999999999
144
1.0
145
0.0
146
0.71
147
0.06
 71
     0
 72
     0
 73
     1
 74
     1
 75
     1
 76
     1
 77
     0
 78
     7
170
     0
171
     2
172
     0
173
     1
174
     0
175
     0
176
   256
177
   256
178
     2
  0
ENDTAB
  0
ENDSEC
  0
SECTION
  2
BLOCKS
  0
BLOCK
  8
0
  2
$MODEL_SPACE
 70
     0
 10
0.0
 20
0.0
 30
0.0
  3
$MODEL_SPACE
  1

  0
ENDBLK
  5
465F
  8
0
  0
BLOCK
 67
     1
  8
0
  2
$PAPER_SPACE
 70
     0
 10
0.0
 20
0.0
 30
0.0
  3
$PAPER_SPACE
  1

  0
ENDBLK
  5
465B
 67
     1
  8
0
  0
BLOCK
  8
0
  2
_OPEN
 70
     0
 10
0.0
 20
0.0
 30
0.0
  3
_OPEN
  1

  0
LINE
  5
43EA
  8
0
  6
BYBLOCK
 62
     0
 10
-1.0
 20
0.1666666666666666
 30
0.0
 11
0.0
 21
0.0
 31
0.0
  0
LINE
  5
43EB
  8
0
  6
BYBLOCK
 62
     0
 10
-1.0
 20
-0.1666666666666666
 30
0.0
 11
0.0
 21
0.0
 31
0.0
  0
LINE
  5
43EC
  8
0
  6
BYBLOCK
 62
     0
 10
0.0
 20
0.0
 30
0.0
 11
-1.0
 21
0.0
 31
0.0
  0
ENDBLK
  5
43ED
  8
0
  0
BLOCK
  8
0
  2
GENAXEH
 70
     0
 10
0.0
 20
0.0
 30
0.0
  3
GENAXEH
  1

  0
LINE
  5
4425
  8
0
 10
-1.0
 20
0.0
 30
0.0
 11
1.0
 21
0.0
 31
0.0
  0
ENDBLK
  5
4426
  8
0
  0
BLOCK
  8
0
  2
*U5
 70
     1
 10
0.0
 20
0.0
 30
0.0
  3
*U5
  1

  0
TEXT
  5
41FF
  8
250
 10
44.293519471520689
 20
30.715611504234651
 30
0.0
 40
2.799999999999998
  1
TP1604
  7
ACJISTS
  0
ENDBLK
  5
4200
  8
0
  0
BLOCK
  8
0
  2
_ACMFILLEDHALF
 70
     0
 10
0.0
 20
0.0
 30
0.0
  3
_ACMFILLEDHALF
  1

  0
TRACE
  5
4729
  8
240
 62
     0
 10
-0.8
 20
0.0
 30
0.0
 11
-1.0
 21
0.166666666
 31
0.0
 12
0.0
 22
0.0
 32
0.0
 13
0.0
 23
0.0
 33
0.0
  0
LINE
  5
472A
  8
240
 62
     0
 10
-1.0
 20
0.0
 30
0.0
 11
-0.8
 21
0.0
 31
0.0
  0
ENDBLK
  5
4728
  8
0
  0
ENDSEC
  0
SECTION
  2
ENTITIES
  0
LINE
  5
41CF
  8
245
 10
33.413877470371922
 20
0.0
 30
0.0
 11
-3.963542289496047
 21
0.0
 31
0.0
  0
LINE
  5
41D0
  8
240
  6
CONTINUOUS
 10
10.19615242270646
 20
19.99999999999994
 30
0.0
 11
0.0000000000000568
 21
19.99999999999994
 31
0.0
  0
LINE
  5
41D1
  8
240
  6
CONTINUOUS
 10
-0.0000000000000577
 20
-20.0
 30
0.0
 11
9.9999999999999432
 21
-20.00000000000006
 31
0.0
  0
ARC
  5
41D2
  8
240
  6
CONTINUOUS
 10
10.19615242270646
 20
22.99999999999994
 30
0.0
 40
3.000000000000028
 50
270.0
 51
299.99999999999972
  0
LINE
  5
41D3
  8
240
  6
CONTINUOUS
 10
19.937822173508881
 20
25.13436086457062
 30
0.0
 11
11.69615242270646
 21
20.401923788646631
 31
0.0
  0
LINE
  5
41D5
  8
240
  6
CONTINUOUS
 10
9.9999999999999432
 20
-14.00000000000005
 30
0.0
 11
9.9999999999999432
 21
-20.00000000000006
 31
0.0
  0
LINE
  5
41D6
  8
240
  6
CONTINUOUS
 10
0.0000000000000577
 20
19.99999999999994
 30
0.0
 11
-0.0000000000000577
 21
-20.0
 31
0.0
  0
LINE
  5
41D9
  8
240
  6
CONTINUOUS
 10
17.99999999999994
 20
-6.000000000000056
 30
0.0
 11
20.237078037090608
 21
-6.000000000000056
 31
0.0
  0
LINE
  5
41DF
  8
240
  6
CONTINUOUS
 10
30.223373384636201
 20
3.4766404375704951
 30
0.0
 11
30.654934151185351
 21
11.71131041315356
 31
0.0
  0
ARC
  5
41E0
  8
240
  6
CONTINUOUS
 10
20.237078037090608
 20
3.9999999999999432
 30
0.0
 40
9.9999999999999716
 50
270.0
 51
357.00000000000091
  0
POLYLINE
  5
41E3
  8
240
  6
CONTINUOUS
 66
     1
 10
0.0
 20
0.0
 30
0.0
 70
     8
  0
VERTEX
  5
44EB
  8
240
 10
30.0229
 20
26.498100000000001
 30
0.0
 70
    32
  0
VERTEX
  5
44EC
  8
240
 10
29.982099999999999
 20
26.498000000000001
 30
0.0
 70
    32
  0
VERTEX
  5
44ED
  8
240
 10
29.941299999999998
 20
26.498000000000001
 30
0.0
 70
    32
  0
VERTEX
  5
44EE
  8
240
 10
29.900600000000001
 20
26.498000000000001
 30
0.0
 70
    32
  0
VERTEX
  5
44EF
  8
240
 10
29.8598
 20
26.497900000000001
 30
0.0
 70
    32
  0
VERTEX
  5
44F0
  8
240
 10
29.818999999999999
 20
26.497900000000001
 30
0.0
 70
    32
  0
VERTEX
  5
44F1
  8
240
 10
29.778300000000002
 20
26.497800000000002
 30
0.0
 70
    32
  0
VERTEX
  5
44F2
  8
240
 10
29.737500000000001
 20
26.497800000000002
 30
0.0
 70
    32
  0
VERTEX
  5
44F3
  8
240
 10
29.6967
 20
26.497699999999998
 30
0.0
 70
    32
  0
VERTEX
  5
44F4
  8
240
 10
29.655999999999999
 20
26.497699999999998
 30
0.0
 70
    32
  0
VERTEX
  5
44F5
  8
240
 10
29.615200000000002
 20
26.497599999999998
 30
0.0
 70
    32
  0
VERTEX
  5
44F6
  8
240
 10
29.574400000000001
 20
26.497599999999998
 30
0.0
 70
    32
  0
VERTEX
  5
44F7
  8
240
 10
29.5337
 20
26.497499999999999
 30
0.0
 70
    32
  0
VERTEX
  5
44F8
  8
240
 10
29.492899999999999
 20
26.497499999999999
 30
0.0
 70
    32
  0
VERTEX
  5
44F9
  8
240
 10
29.452100000000002
 20
26.497399999999999
 30
0.0
 70
    32
  0
VERTEX
  5
44FA
  8
240
 10
29.4114
 20
26.497399999999999
 30
0.0
 70
    32
  0
VERTEX
  5
44FB
  8
240
 10
29.3706
 20
26.497299999999999
 30
0.0
 70
    32
  0
VERTEX
  5
44FC
  8
240
 10
29.329799999999999
 20
26.497299999999999
 30
0.0
 70
    32
  0
VERTEX
  5
44FD
  8
240
 10
29.289100000000001
 20
26.497199999999999
 30
0.0
 70
    32
  0
VERTEX
  5
44FE
  8
240
 10
29.2483
 20
26.4971
 30
0.0
 70
    32
  0
VERTEX
  5
44FF
  8
240
 10
29.2075
 20
26.4971
 30
0.0
 70
    32
  0
VERTEX
  5
4500
  8
240
 10
29.166799999999999
 20
26.497
 30
0.0
 70
    32
  0
VERTEX
  5
4501
  8
240
 10
29.126000000000001
 20
26.497
 30
0.0
 70
    32
  0
VERTEX
  5
4502
  8
240
 10
29.0852
 20
26.4969
 30
0.0
 70
    32
  0
VERTEX
  5
4503
  8
240
 10
29.044499999999999
 20
26.4969
 30
0.0
 70
    32
  0
VERTEX
  5
4504
  8
240
 10
29.003699999999998
 20
26.4968
 30
0.0
 70
    32
  0
VERTEX
  5
4505
  8
240
 10
28.962900000000001
 20
26.4968
 30
0.0
 70
    32
  0
VERTEX
  5
4506
  8
240
 10
28.9221
 20
26.496700000000001
 30
0.0
 70
    32
  0
VERTEX
  5
4507
  8
240
 10
28.881399999999999
 20
26.496600000000001
 30
0.0
 70
    32
  0
VERTEX
  5
4508
  8
240
 10
28.840599999999998
 20
26.496600000000001
 30
0.0
 70
    32
  0
VERTEX
  5
4509
  8
240
 10
28.799800000000001
 20
26.496500000000001
 30
0.0
 70
    32
  0
VERTEX
  5
450A
  8
240
 10
28.7591
 20
26.496500000000001
 30
0.0
 70
    32
  0
VERTEX
  5
450B
  8
240
 10
28.718299999999999
 20
26.496400000000001
 30
0.0
 70
    32
  0
VERTEX
  5
450C
  8
240
 10
28.677499999999998
 20
26.496300000000002
 30
0.0
 70
    32
  0
VERTEX
  5
450D
  8
240
 10
28.636800000000001
 20
26.496300000000002
 30
0.0
 70
    32
  0
VERTEX
  5
450E
  8
240
 10
28.596
 20
26.496200000000002
 30
0.0
 70
    32
  0
VERTEX
  5
450F
  8
240
 10
28.555199999999999
 20
26.496099999999998
 30
0.0
 70
    32
  0
VERTEX
  5
4510
  8
240
 10
28.514399999999998
 20
26.496099999999998
 30
0.0
 70
    32
  0
VERTEX
  5
4511
  8
240
 10
28.473700000000001
 20
26.495999999999999
 30
0.0
 70
    32
  0
VERTEX
  5
4512
  8
240
 10
28.4329
 20
26.495999999999999
 30
0.0
 70
    32
  0
VERTEX
  5
4513
  8
240
 10
28.392099999999999
 20
26.495899999999999
 30
0.0
 70
    32
  0
VERTEX
  5
4514
  8
240
 10
28.351400000000002
 20
26.495799999999999
 30
0.0
 70
    32
  0
VERTEX
  5
4515
  8
240
 10
28.310600000000001
 20
26.495799999999999
 30
0.0
 70
    32
  0
VERTEX
  5
4516
  8
240
 10
28.2698
 20
26.495699999999999
 30
0.0
 70
    32
  0
VERTEX
  5
4517
  8
240
 10
28.228999999999999
 20
26.4956
 30
0.0
 70
    32
  0
VERTEX
  5
4518
  8
240
 10
28.188300000000002
 20
26.4956
 30
0.0
 70
    32
  0
VERTEX
  5
4519
  8
240
 10
28.147500000000001
 20
26.4955
 30
0.0
 70
    32
  0
VERTEX
  5
451A
  8
240
 10
28.1067
 20
26.4954
 30
0.0
 70
    32
  0
VERTEX
  5
451B
  8
240
 10
28.065999999999999
 20
26.4954
 30
0.0
 70
    32
  0
VERTEX
  5
451C
  8
240
 10
28.025200000000002
 20
26.4953
 30
0.0
 70
    32
  0
VERTEX
  5
451D
  8
240
 10
27.984400000000001
 20
26.495200000000001
 30
0.0
 70
    32
  0
VERTEX
  5
451E
  8
240
 10
27.9436
 20
26.495100000000001
 30
0.0
 70
    32
  0
VERTEX
  5
451F
  8
240
 10
27.902899999999999
 20
26.495100000000001
 30
0.0
 70
    32
  0
VERTEX
  5
4520
  8
240
 10
27.862100000000002
 20
26.495000000000001
 30
0.0
 70
    32
  0
VERTEX
  5
4521
  8
240
 10
27.821300000000001
 20
26.494900000000001
 30
0.0
 70
    32
  0
VERTEX
  5
4522
  8
240
 10
27.7805
 20
26.494900000000001
 30
0.0
 70
    32
  0
VERTEX
  5
4523
  8
240
 10
27.739799999999999
 20
26.494800000000001
 30
0.0
 70
    32
  0
VERTEX
  5
4524
  8
240
 10
27.699000000000002
 20
26.494700000000002
 30
0.0
 70
    32
  0
VERTEX
  5
4525
  8
240
 10
27.658200000000001
 20
26.494599999999998
 30
0.0
 70
    32
  0
VERTEX
  5
4526
  8
240
 10
27.6175
 20
26.494599999999998
 30
0.0
 70
    32
  0
VERTEX
  5
4527
  8
240
 10
27.576699999999999
 20
26.494499999999999
 30
0.0
 70
    32
  0
VERTEX
  5
4528
  8
240
 10
27.535900000000002
 20
26.494399999999999
 30
0.0
 70
    32
  0
VERTEX
  5
4529
  8
240
 10
27.495100000000001
 20
26.494299999999999
 30
0.0
 70
    32
  0
VERTEX
  5
452A
  8
240
 10
27.4544
 20
26.494299999999999
 30
0.0
 70
    32
  0
VERTEX
  5
452B
  8
240
 10
27.413599999999999
 20
26.494199999999999
 30
0.0
 70
    32
  0
VERTEX
  5
452C
  8
240
 10
27.372800000000002
 20
26.4941
 30
0.0
 70
    32
  0
VERTEX
  5
452D
  8
240
 10
27.332000000000001
 20
26.494
 30
0.0
 70
    32
  0
VERTEX
  5
452E
  8
240
 10
27.2913
 20
26.4939
 30
0.0
 70
    32
  0
VERTEX
  5
452F
  8
240
 10
27.250499999999999
 20
26.4939
 30
0.0
 70
    32
  0
VERTEX
  5
4530
  8
240
 10
27.209700000000002
 20
26.4938
 30
0.0
 70
    32
  0
VERTEX
  5
4531
  8
240
 10
27.169
 20
26.4937
 30
0.0
 70
    32
  0
VERTEX
  5
4532
  8
240
 10
27.1282
 20
26.493600000000001
 30
0.0
 70
    32
  0
VERTEX
  5
4533
  8
240
 10
27.087399999999999
 20
26.493500000000001
 30
0.0
 70
    32
  0
VERTEX
  5
4534
  8
240
 10
27.046600000000002
 20
26.493500000000001
 30
0.0
 70
    32
  0
VERTEX
  5
4535
  8
240
 10
27.0059
 20
26.493400000000001
 30
0.0
 70
    32
  0
VERTEX
  5
4536
  8
240
 10
26.9651
 20
26.493300000000001
 30
0.0
 70
    32
  0
VERTEX
  5
4537
  8
240
 10
26.924299999999999
 20
26.493200000000002
 30
0.0
 70
    32
  0
VERTEX
  5
4538
  8
240
 10
26.883500000000002
 20
26.493099999999998
 30
0.0
 70
    32
  0
VERTEX
  5
4539
  8
240
 10
26.8428
 20
26.492999999999999
 30
0.0
 70
    32
  0
VERTEX
  5
453A
  8
240
 10
26.802
 20
26.492899999999999
 30
0.0
 70
    32
  0
VERTEX
  5
453B
  8
240
 10
26.761199999999999
 20
26.492899999999999
 30
0.0
 70
    32
  0
VERTEX
  5
453C
  8
240
 10
26.720400000000001
 20
26.492799999999999
 30
0.0
 70
    32
  0
VERTEX
  5
453D
  8
240
 10
26.6797
 20
26.492699999999999
 30
0.0
 70
    32
  0
VERTEX
  5
453E
  8
240
 10
26.6389
 20
26.492599999999999
 30
0.0
 70
    32
  0
VERTEX
  5
453F
  8
240
 10
26.598099999999999
 20
26.4925
 30
0.0
 70
    32
  0
VERTEX
  5
4540
  8
240
 10
26.557300000000001
 20
26.4924
 30
0.0
 70
    32
  0
VERTEX
  5
4541
  8
240
 10
26.5166
 20
26.4923
 30
0.0
 70
    32
  0
VERTEX
  5
4542
  8
240
 10
26.4758
 20
26.4922
 30
0.0
 70
    32
  0
VERTEX
  5
4543
  8
240
 10
26.434999999999999
 20
26.4922
 30
0.0
 70
    32
  0
VERTEX
  5
4544
  8
240
 10
26.394200000000001
 20
26.492100000000001
 30
0.0
 70
    32
  0
VERTEX
  5
4545
  8
240
 10
26.3535
 20
26.492000000000001
 30
0.0
 70
    32
  0
VERTEX
  5
4546
  8
240
 10
26.3127
 20
26.491900000000001
 30
0.0
 70
    32
  0
VERTEX
  5
4547
  8
240
 10
26.271899999999999
 20
26.491800000000001
 30
0.0
 70
    32
  0
VERTEX
  5
4548
  8
240
 10
26.231100000000001
 20
26.491700000000002
 30
0.0
 70
    32
  0
VERTEX
  5
4549
  8
240
 10
26.1904
 20
26.491599999999998
 30
0.0
 70
    32
  0
VERTEX
  5
454A
  8
240
 10
26.1496
 20
26.491499999999998
 30
0.0
 70
    32
  0
VERTEX
  5
454B
  8
240
 10
26.108799999999999
 20
26.491399999999999
 30
0.0
 70
    32
  0
VERTEX
  5
454C
  8
240
 10
26.068000000000001
 20
26.491299999999999
 30
0.0
 70
    32
  0
VERTEX
  5
454D
  8
240
 10
26.0273
 20
26.491199999999999
 30
0.0
 70
    32
  0
VERTEX
  5
454E
  8
240
 10
25.986499999999999
 20
26.491099999999999
 30
0.0
 70
    32
  0
VERTEX
  5
454F
  8
240
 10
25.945699999999999
 20
26.491
 30
0.0
 70
    32
  0
VERTEX
  5
4550
  8
240
 10
25.904900000000001
 20
26.4909
 30
0.0
 70
    32
  0
VERTEX
  5
4551
  8
240
 10
25.8642
 20
26.4908
 30
0.0
 70
    32
  0
VERTEX
  5
4552
  8
240
 10
25.823399999999999
 20
26.4907
 30
0.0
 70
    32
  0
VERTEX
  5
4553
  8
240
 10
25.782599999999999
 20
26.490600000000001
 30
0.0
 70
    32
  0
VERTEX
  5
4554
  8
240
 10
25.741800000000001
 20
26.490500000000001
 30
0.0
 70
    32
  0
VERTEX
  5
4555
  8
240
 10
25.7011
 20
26.490400000000001
 30
0.0
 70
    32
  0
VERTEX
  5
4556
  8
240
 10
25.660299999999999
 20
26.490300000000001
 30
0.0
 70
    32
  0
VERTEX
  5
4557
  8
240
 10
25.619499999999999
 20
26.490200000000002
 30
0.0
 70
    32
  0
VERTEX
  5
4558
  8
240
 10
25.578700000000001
 20
26.490100000000002
 30
0.0
 70
    32
  0
VERTEX
  5
4559
  8
240
 10
25.538
 20
26.489999999999998
 30
0.0
 70
    32
  0
VERTEX
  5
455A
  8
240
 10
25.497199999999999
 20
26.489899999999999
 30
0.0
 70
    32
  0
VERTEX
  5
455B
  8
240
 10
25.456399999999999
 20
26.489799999999999
 30
0.0
 70
    32
  0
VERTEX
  5
455C
  8
240
 10
25.415600000000001
 20
26.489699999999999
 30
0.0
 70
    32
  0
VERTEX
  5
455D
  8
240
 10
25.3749
 20
26.489599999999999
 30
0.0
 70
    32
  0
VERTEX
  5
455E
  8
240
 10
25.334099999999999
 20
26.4895
 30
0.0
 70
    32
  0
VERTEX
  5
455F
  8
240
 10
25.293299999999999
 20
26.4894
 30
0.0
 70
    32
  0
VERTEX
  5
4560
  8
240
 10
25.252500000000001
 20
26.4893
 30
0.0
 70
    32
  0
VERTEX
  5
4561
  8
240
 10
25.2117
 20
26.4892
 30
0.0
 70
    32
  0
VERTEX
  5
4562
  8
240
 10
25.170999999999999
 20
26.489100000000001
 30
0.0
 70
    32
  0
VERTEX
  5
4563
  8
240
 10
25.130199999999999
 20
26.489000000000001
 30
0.0
 70
    32
  0
VERTEX
  5
4564
  8
240
 10
25.089400000000001
 20
26.488900000000001
 30
0.0
 70
    32
  0
VERTEX
  5
4565
  8
240
 10
25.0486
 20
26.488800000000001
 30
0.0
 70
    32
  0
VERTEX
  5
4566
  8
240
 10
25.007899999999999
 20
26.488700000000001
 30
0.0
 70
    32
  0
VERTEX
  5
4567
  8
240
 10
24.967099999999999
 20
26.488600000000002
 30
0.0
 70
    32
  0
VERTEX
  5
4568
  8
240
 10
24.926300000000001
 20
26.488499999999998
 30
0.0
 70
    32
  0
VERTEX
  5
4569
  8
240
 10
24.8855
 20
26.488399999999999
 30
0.0
 70
    32
  0
VERTEX
  5
456A
  8
240
 10
24.844799999999999
 20
26.488199999999999
 30
0.0
 70
    32
  0
VERTEX
  5
456B
  8
240
 10
24.803999999999998
 20
26.488099999999999
 30
0.0
 70
    32
  0
SEQEND
  5
456C
  8
240
  0
ARC
  5
41E6
  8
240
  6
CONTINUOUS
 10
17.99999999999994
 20
-14.00000000000005
 30
0.0
 40
8.0
 50
90.0
 51
180.0
1001
GENIUS_GENOBJ-N-FIL_13
1002
{
1000
OWNER
1000
GEN
1002
}
1001
GENIUS_GENODEF_13
1002
{
1000
HIER
1070
     0
1002
}
1002
{
1000
MANEDIT
1070
     0
1002
}
1002
{
1000
NOSEL
1070
     0
1002
}
1002
{
1000
BEHIND
1070
     0
1002
}
1002
{
1000
OTHER
1070
     0
1002
}
1002
{
1000
REACTOR
1002
}
  0
LINE
  5
41F2
  8
241
  6
CONTINUOUS
 10
11.69615242270646
 20
20.168185138559689
 30
0.0
 11
15.81698729810766
 21
22.768142326608618
 31
0.0
  0
LINE
  5
41F3
  8
241
  6
CONTINUOUS
 10
9.9999999999999432
 20
-14.00000000000005
 30
0.0
 11
9.9999999999999432
 21
18.099055155062949
 31
0.0
  0
ARC
  5
41F5
  8
241
  6
CONTINUOUS
 10
13.40721469091644
 20
17.035787257252078
 30
0.0
 40
3.569264710344739
 50
118.64543159065479
 51
162.66875422630881
  0
POLYLINE
  5
41F7
  8
241
  6
CONTINUOUS
 66
     1
 10
0.0
 20
0.0
 30
0.0
 70
     8
  0
VERTEX
  5
456D
  8
241
 10
11.3459
 20
17.747699999999998
 30
0.0
 70
    32
  0
VERTEX
  5
456E
  8
241
 10
11.378
 20
17.731000000000002
 30
0.0
 70
    32
  0
VERTEX
  5
456F
  8
241
 10
11.411300000000001
 20
17.716699999999999
 30
0.0
 70
    32
  0
VERTEX
  5
4570
  8
241
 10
11.4458
 20
17.704799999999999
 30
0.0
 70
    32
  0
VERTEX
  5
4571
  8
241
 10
11.481299999999999
 20
17.6953
 30
0.0
 70
    32
  0
VERTEX
  5
4572
  8
241
 10
11.517899999999999
 20
17.688199999999998
 30
0.0
 70
    32
  0
VERTEX
  5
4573
  8
241
 10
11.555300000000001
 20
17.683700000000002
 30
0.0
 70
    32
  0
VERTEX
  5
4574
  8
241
 10
11.5936
 20
17.6816
 30
0.0
 70
    32
  0
VERTEX
  5
4575
  8
241
 10
11.6326
 20
17.681999999999999
 30
0.0
 70
    32
  0
VERTEX
  5
4576
  8
241
 10
11.6723
 20
17.684899999999999
 30
0.0
 70
    32
  0
VERTEX
  5
4577
  8
241
 10
11.7125
 20
17.690200000000001
 30
0.0
 70
    32
  0
VERTEX
  5
4578
  8
241
 10
11.7531
 20
17.6981
 30
0.0
 70
    32
  0
VERTEX
  5
4579
  8
241
 10
11.7941
 20
17.708400000000001
 30
0.0
 70
    32
  0
VERTEX
  5
457A
  8
241
 10
11.8353
 20
17.7211
 30
0.0
 70
    32
  0
VERTEX
  5
457B
  8
241
 10
11.8766
 20
17.7362
 30
0.0
 70
    32
  0
VERTEX
  5
457C
  8
241
 10
11.917999999999999
 20
17.753599999999999
 30
0.0
 70
    32
  0
VERTEX
  5
457D
  8
241
 10
11.9594
 20
17.773399999999999
 30
0.0
 70
    32
  0
VERTEX
  5
457E
  8
241
 10
12.0006
 20
17.795400000000001
 30
0.0
 70
    32
  0
VERTEX
  5
457F
  8
241
 10
12.041499999999999
 20
17.819700000000001
 30
0.0
 70
    32
  0
VERTEX
  5
4580
  8
241
 10
12.082100000000001
 20
17.8461
 30
0.0
 70
    32
  0
VERTEX
  5
4581
  8
241
 10
12.122299999999999
 20
17.874600000000001
 30
0.0
 70
    32
  0
VERTEX
  5
4582
  8
241
 10
12.161799999999999
 20
17.905100000000001
 30
0.0
 70
    32
  0
VERTEX
  5
4583
  8
241
 10
12.200799999999999
 20
17.9375
 30
0.0
 70
    32
  0
VERTEX
  5
4584
  8
241
 10
12.239000000000001
 20
17.971900000000002
 30
0.0
 70
    32
  0
VERTEX
  5
4585
  8
241
 10
12.276400000000001
 20
18.007999999999999
 30
0.0
 70
    32
  0
VERTEX
  5
4586
  8
241
 10
12.312900000000001
 20
18.0458
 30
0.0
 70
    32
  0
VERTEX
  5
4587
  8
241
 10
12.3484
 20
18.0852
 30
0.0
 70
    32
  0
VERTEX
  5
4588
  8
241
 10
12.3827
 20
18.126200000000001
 30
0.0
 70
    32
  0
VERTEX
  5
4589
  8
241
 10
12.415900000000001
 20
18.168500000000002
 30
0.0
 70
    32
  0
VERTEX
  5
458A
  8
241
 10
12.447900000000001
 20
18.212199999999999
 30
0.0
 70
    32
  0
VERTEX
  5
458B
  8
241
 10
12.4785
 20
18.257100000000001
 30
0.0
 70
    32
  0
VERTEX
  5
458C
  8
241
 10
12.5077
 20
18.303100000000001
 30
0.0
 70
    32
  0
VERTEX
  5
458D
  8
241
 10
12.535500000000001
 20
18.350100000000001
 30
0.0
 70
    32
  0
VERTEX
  5
458E
  8
241
 10
12.5617
 20
18.3979
 30
0.0
 70
    32
  0
VERTEX
  5
458F
  8
241
 10
12.5863
 20
18.4465
 30
0.0
 70
    32
  0
VERTEX
  5
4590
  8
241
 10
12.6092
 20
18.495799999999999
 30
0.0
 70
    32
  0
VERTEX
  5
4591
  8
241
 10
12.6304
 20
18.5456
 30
0.0
 70
    32
  0
VERTEX
  5
4592
  8
241
 10
12.649800000000001
 20
18.595800000000001
 30
0.0
 70
    32
  0
VERTEX
  5
4593
  8
241
 10
12.6675
 20
18.6463
 30
0.0
 70
    32
  0
VERTEX
  5
4594
  8
241
 10
12.683199999999999
 20
18.696899999999999
 30
0.0
 70
    32
  0
VERTEX
  5
4595
  8
241
 10
12.697100000000001
 20
18.747599999999998
 30
0.0
 70
    32
  0
VERTEX
  5
4596
  8
241
 10
12.709
 20
18.798200000000001
 30
0.0
 70
    32
  0
VERTEX
  5
4597
  8
241
 10
12.718999999999999
 20
18.848600000000001
 30
0.0
 70
    32
  0
VERTEX
  5
4598
  8
241
 10
12.727
 20
18.898700000000002
 30
0.0
 70
    32
  0
VERTEX
  5
4599
  8
241
 10
12.733000000000001
 20
18.9483
 30
0.0
 70
    32
  0
VERTEX
  5
459A
  8
241
 10
12.737
 20
18.997299999999999
 30
0.0
 70
    32
  0
VERTEX
  5
459B
  8
241
 10
12.738899999999999
 20
19.0457
 30
0.0
 70
    32
  0
VERTEX
  5
459C
  8
241
 10
12.738799999999999
 20
19.093299999999999
 30
0.0
 70
    32
  0
VERTEX
  5
459D
  8
241
 10
12.736700000000001
 20
19.140000000000001
 30
0.0
 70
    32
  0
VERTEX
  5
459E
  8
241
 10
12.7326
 20
19.185600000000001
 30
0.0
 70
    32
  0
VERTEX
  5
459F
  8
241
 10
12.7264
 20
19.2301
 30
0.0
 70
    32
  0
VERTEX
  5
45A0
  8
241
 10
12.718299999999999
 20
19.273399999999999
 30
0.0
 70
    32
  0
VERTEX
  5
45A1
  8
241
 10
12.7081
 20
19.315300000000001
 30
0.0
 70
    32
  0
VERTEX
  5
45A2
  8
241
 10
12.696
 20
19.355799999999999
 30
0.0
 70
    32
  0
VERTEX
  5
45A3
  8
241
 10
12.682
 20
19.3947
 30
0.0
 70
    32
  0
VERTEX
  5
45A4
  8
241
 10
12.6661
 20
19.431999999999999
 30
0.0
 70
    32
  0
VERTEX
  5
45A5
  8
241
 10
12.648300000000001
 20
19.467500000000001
 30
0.0
 70
    32
  0
VERTEX
  5
45A6
  8
241
 10
12.6287
 20
19.501300000000001
 30
0.0
 70
    32
  0
VERTEX
  5
45A7
  8
241
 10
12.6073
 20
19.533100000000001
 30
0.0
 70
    32
  0
VERTEX
  5
45A8
  8
241
 10
12.584300000000001
 20
19.562999999999999
 30
0.0
 70
    32
  0
VERTEX
  5
45A9
  8
241
 10
12.5595
 20
19.590800000000002
 30
0.0
 70
    32
  0
VERTEX
  5
45AA
  8
241
 10
12.533200000000001
 20
19.616499999999998
 30
0.0
 70
    32
  0
VERTEX
  5
45AB
  8
241
 10
12.5053
 20
19.6401
 30
0.0
 70
    32
  0
VERTEX
  5
45AC
  8
241
 10
12.476000000000001
 20
19.6614
 30
0.0
 70
    32
  0
VERTEX
  5
45AD
  8
241
 10
12.4453
 20
19.680399999999999
 30
0.0
 70
    32
  0
VERTEX
  5
45AE
  8
241
 10
12.4132
 20
19.697099999999999
 30
0.0
 70
    32
  0
VERTEX
  5
45AF
  8
241
 10
12.379899999999999
 20
19.711400000000001
 30
0.0
 70
    32
  0
VERTEX
  5
45B0
  8
241
 10
12.3454
 20
19.723299999999998
 30
0.0
 70
    32
  0
VERTEX
  5
45B1
  8
241
 10
12.309900000000001
 20
19.732800000000001
 30
0.0
 70
    32
  0
VERTEX
  5
45B2
  8
241
 10
12.273300000000001
 20
19.739899999999999
 30
0.0
 70
    32
  0
VERTEX
  5
45B3
  8
241
 10
12.235799999999999
 20
19.744399999999999
 30
0.0
 70
    32
  0
VERTEX
  5
45B4
  8
241
 10
12.1976
 20
19.746500000000001
 30
0.0
 70
    32
  0
VERTEX
  5
45B5
  8
241
 10
12.1586
 20
19.746099999999998
 30
0.0
 70
    32
  0
VERTEX
  5
45B6
  8
241
 10
12.1189
 20
19.743200000000002
 30
0.0
 70
    32
  0
VERTEX
  5
45B7
  8
241
 10
12.0787
 20
19.7379
 30
0.0
 70
    32
  0
VERTEX
  5
45B8
  8
241
 10
12.0381
 20
19.73
 30
0.0
 70
    32
  0
VERTEX
  5
45B9
  8
241
 10
11.9971
 20
19.7197
 30
0.0
 70
    32
  0
VERTEX
  5
45BA
  8
241
 10
11.9559
 20
19.707000000000001
 30
0.0
 70
    32
  0
VERTEX
  5
45BB
  8
241
 10
11.9146
 20
19.6919
 30
0.0
 70
    32
  0
VERTEX
  5
45BC
  8
241
 10
11.873200000000001
 20
19.674499999999998
 30
0.0
 70
    32
  0
VERTEX
  5
45BD
  8
241
 10
11.831799999999999
 20
19.654699999999998
 30
0.0
 70
    32
  0
VERTEX
  5
45BE
  8
241
 10
11.7906
 20
19.6327
 30
0.0
 70
    32
  0
VERTEX
  5
45BF
  8
241
 10
11.749700000000001
 20
19.6084
 30
0.0
 70
    32
  0
VERTEX
  5
45C0
  8
241
 10
11.709099999999999
 20
19.582000000000001
 30
0.0
 70
    32
  0
VERTEX
  5
45C1
  8
241
 10
11.668900000000001
 20
19.5535
 30
0.0
 70
    32
  0
VERTEX
  5
45C2
  8
241
 10
11.629300000000001
 20
19.523
 30
0.0
 70
    32
  0
VERTEX
  5
45C3
  8
241
 10
11.590400000000001
 20
19.490600000000001
 30
0.0
 70
    32
  0
VERTEX
  5
45C4
  8
241
 10
11.552199999999999
 20
19.456199999999999
 30
0.0
 70
    32
  0
VERTEX
  5
45C5
  8
241
 10
11.514799999999999
 20
19.420100000000001
 30
0.0
 70
    32
  0
VERTEX
  5
45C6
  8
241
 10
11.478300000000001
 20
19.382300000000001
 30
0.0
 70
    32
  0
VERTEX
  5
45C7
  8
241
 10
11.4428
 20
19.3429
 30
0.0
 70
    32
  0
VERTEX
  5
45C8
  8
241
 10
11.4085
 20
19.3019
 30
0.0
 70
    32
  0
VERTEX
  5
45C9
  8
241
 10
11.375299999999999
 20
19.259499999999999
 30
0.0
 70
    32
  0
VERTEX
  5
45CA
  8
241
 10
11.343299999999999
 20
19.215900000000001
 30
0.0
 70
    32
  0
VERTEX
  5
45CB
  8
241
 10
11.3127
 20
19.170999999999999
 30
0.0
 70
    32
  0
VERTEX
  5
45CC
  8
241
 10
11.2835
 20
19.125
 30
0.0
 70
    32
  0
VERTEX
  5
45CD
  8
241
 10
11.255699999999999
 20
19.077999999999999
 30
0.0
 70
    32
  0
VERTEX
  5
45CE
  8
241
 10
11.2295
 20
19.030200000000001
 30
0.0
 70
    32
  0
VERTEX
  5
45CF
  8
241
 10
11.2049
 20
18.9816
 30
0.0
 70
    32
  0
VERTEX
  5
45D0
  8
241
 10
11.182
 20
18.932300000000001
 30
0.0
 70
    32
  0
VERTEX
  5
45D1
  8
241
 10
11.1608
 20
18.8825
 30
0.0
 70
    32
  0
VERTEX
  5
45D2
  8
241
 10
11.141299999999999
 20
18.8323
 30
0.0
 70
    32
  0
VERTEX
  5
45D3
  8
241
 10
11.123699999999999
 20
18.7818
 30
0.0
 70
    32
  0
VERTEX
  5
45D4
  8
241
 10
11.107900000000001
 20
18.731200000000001
 30
0.0
 70
    32
  0
VERTEX
  5
45D5
  8
241
 10
11.094099999999999
 20
18.680499999999999
 30
0.0
 70
    32
  0
VERTEX
  5
45D6
  8
241
 10
11.082100000000001
 20
18.629899999999999
 30
0.0
 70
    32
  0
VERTEX
  5
45D7
  8
241
 10
11.0722
 20
18.579499999999999
 30
0.0
 70
    32
  0
VERTEX
  5
45D8
  8
241
 10
11.0642
 20
18.529399999999999
 30
0.0
 70
    32
  0
VERTEX
  5
45D9
  8
241
 10
11.058199999999999
 20
18.479800000000001
 30
0.0
 70
    32
  0
VERTEX
  5
45DA
  8
241
 10
11.0542
 20
18.430800000000001
 30
0.0
 70
    32
  0
VERTEX
  5
45DB
  8
241
 10
11.052300000000001
 20
18.382400000000001
 30
0.0
 70
    32
  0
VERTEX
  5
45DC
  8
241
 10
11.052300000000001
 20
18.334800000000001
 30
0.0
 70
    32
  0
VERTEX
  5
45DD
  8
241
 10
11.054500000000001
 20
18.2881
 30
0.0
 70
    32
  0
VERTEX
  5
45DE
  8
241
 10
11.0586
 20
18.2425
 30
0.0
 70
    32
  0
VERTEX
  5
45DF
  8
241
 10
11.0648
 20
18.198
 30
0.0
 70
    32
  0
VERTEX
  5
45E0
  8
241
 10
11.072900000000001
 20
18.154699999999998
 30
0.0
 70
    32
  0
VERTEX
  5
45E1
  8
241
 10
11.0831
 20
18.1128
 30
0.0
 70
    32
  0
VERTEX
  5
45E2
  8
241
 10
11.0952
 20
18.072299999999998
 30
0.0
 70
    32
  0
VERTEX
  5
45E3
  8
241
 10
11.1092
 20
18.0334
 30
0.0
 70
    32
  0
VERTEX
  5
45E4
  8
241
 10
11.1251
 20
17.996099999999998
 30
0.0
 70
    32
  0
VERTEX
  5
45E5
  8
241
 10
11.142899999999999
 20
17.960599999999999
 30
0.0
 70
    32
  0
VERTEX
  5
45E6
  8
241
 10
11.1625
 20
17.9268
 30
0.0
 70
    32
  0
VERTEX
  5
45E7
  8
241
 10
11.1839
 20
17.895
 30
0.0
 70
    32
  0
VERTEX
  5
45E8
  8
241
 10
11.206899999999999
 20
17.865100000000002
 30
0.0
 70
    32
  0
VERTEX
  5
45E9
  8
241
 10
11.2317
 20
17.837299999999999
 30
0.0
 70
    32
  0
VERTEX
  5
45EA
  8
241
 10
11.257999999999999
 20
17.811599999999999
 30
0.0
 70
    32
  0
VERTEX
  5
45EB
  8
241
 10
11.2859
 20
17.788
 30
0.0
 70
    32
  0
VERTEX
  5
45EC
  8
241
 10
11.315200000000001
 20
17.7667
 30
0.0
 70
    32
  0
VERTEX
  5
45ED
  8
241
 10
11.3459
 20
17.747699999999998
 30
0.0
 70
    32
  0
SEQEND
  5
45EE
  8
241
  0
ARC
  5
41F8
  8
240
  6
CONTINUOUS
 10
24.807622165618131
 20
17.052409776611618
 30
0.0
 40
9.4357238912183448
 50
90.022076899944935
 51
121.0711711846878
  0
LINE
  5
425C
  8
250
  6
CONTINUOUS
 10
59.62685280485406
 20
34.315611504234653
 30
0.0
 11
41.626852804854039
 21
34.315611504234653
 31
0.0
  0
LINE
  5
425D
  8
250
  6
CONTINUOUS
 10
41.626852804854039
 20
34.315611504234653
 30
0.0
 11
40.323477756070282
 21
34.315611504234653
 31
0.0
  0
LINE
  5
425E
  8
250
  6
CONTINUOUS
 10
40.323477756070282
 20
34.315611504234653
 30
0.0
 11
33.911551936050749
 21
25.876335767848492
 31
0.0
  0
LINE
  5
425F
  8
250
  6
CONTINUOUS
 10
33.911551936050749
 20
25.876335767848492
 30
0.0
 11
32.562472829078203
 21
24.10069910368259
 31
0.0
  0
LINE
  5
4260
  8
250
  6
CONTINUOUS
 10
33.677784935448543
 20
26.053945400931951
 30
0.0
 11
32.562472829078203
 21
24.10069910368259
 31
0.0
  0
LINE
  5
4261
  8
250
  6
CONTINUOUS
 10
32.562472829078203
 20
24.10069910368259
 30
0.0
 11
34.14531893665292
 21
25.698726134765032
 31
0.0
  0
INSERT
  5
4262
  8
240
  2
*U5
 10
0.0000000000000426
 20
5.0
 30
0.0
  0
TEXT
  5
4263
  8
241
  6
CONTINUOUS
 10
0.0000000000000417
 20
47.0
 30
0.0
 40
3.0
  1
B40-STUPR-27032-16
  7
YOKO
  0
CIRCLE
  5
4264
  8
246
  6
PHANTOM2
 10
26.883735647505929
 20
19.553535749032559
 30
0.0
 40
4.7624999999999993
  0
LINE
  5
4265
  8
246
  6
PHANTOM2
 10
31.280513985745451
 20
12.450440279845459
 30
0.0
 11
31.998903627803699
 21
26.158131235005609
 31
0.0
  0
ARC
  5
4266
  8
246
  6
PHANTOM2
 10
31.199999999999971
 20
26.199999999999928
 30
0.0
 40
0.8000000000000627
 50
357.00000000000108
 51
117.00000000000171
  0
LINE
  5
4267
  8
246
  6
PHANTOM2
 10
30.836807600208381
 20
26.912805219350741
 30
0.0
 11
18.606404184784349
 21
20.681103421608562
 31
0.0
  0
ARC
  5
4268
  8
246
  6
PHANTOM2
 10
18.96959658457596
 20
19.96829820225787
 30
0.0
 40
0.7999999999999644
 50
116.9999999999944
 51
236.99999999999881
  0
LINE
  5
4269
  8
246
  6
PHANTOM2
 10
18.533885356563971
 20
19.297361747901562
 30
0.0
 11
30.04589912992985
 21
11.82137259048347
 31
0.0
  0
ARC
  5
426A
  8
246
  6
PHANTOM2
 10
30.481610357941971
 20
12.49230904483972
 30
0.0
 40
0.7999999999999548
 50
236.99999999999881
 51
357.00000000000438
  0
CIRCLE
  5
426B
  8
241
  6
CONTINUOUS
 10
26.883735647505929
 20
19.553535749032559
 30
0.0
 40
1.999999999999998
  0
CIRCLE
  5
426C
  8
242
  6
CONTINUOUS
 10
26.883735647505929
 20
19.553535749032559
 30
0.0
 40
1.649999999999999
  0
ARC
  5
426D
  8
241
  6
CONTINUOUS
 10
19.751720688174309
 20
19.880228866091901
 30
0.0
 40
2.5
 50
56.565545168003808
 51
299.55830995357388
  0
LINE
  5
42CD
  8
250
  6
CONTINUOUS
 10
33.913877470371922
 20
-0.0000000000000001
 30
0.0
 11
42.999999999999993
 21
-0.0000000000000027
 31
0.0
  0
LINE
  5
42CE
  8
250
  6
CONTINUOUS
 10
31.699999999999971
 20
26.999999999999989
 30
0.0
 11
43.0
 21
26.999999999999989
 31
0.0
  0
LINE
  5
42CF
  8
250
  6
CONTINUOUS
 10
41.999999999999993
 20
2.229999999999996
 30
0.0
 11
42.0
 21
24.769999999999989
 31
0.0
  0
LINE
  5
42D3
  8
250
  6
CONTINUOUS
 10
0.0000000000000569
 20
20.49999999999994
 30
0.0
 11
0.0000000000000578
 21
36.0
 31
0.0
  0
LINE
  5
42D4
  8
250
  6
CONTINUOUS
 10
32.00000000000005
 20
26.699999999999928
 30
0.0
 11
32.00000000000005
 21
36.0
 31
0.0
  0
LINE
  5
42D5
  8
250
  6
CONTINUOUS
 10
2.2300000000000559
 20
35.0
 30
0.0
 11
29.770000000000039
 21
35.0
 31
0.0
  0
TEXT
  5
42D9
  8
250
  6
CONTINUOUS
 10
13.33333333333338
 20
36.0
 30
0.0
 40
2.799999999999998
  1
32
  0
LINE
  5
42DA
  8
250
  6
CONTINUOUS
 10
29.770000000000039
 20
35.37166666666667
 30
0.0
 11
32.00000000000005
 21
35.0
 31
0.0
  0
LINE
  5
42DB
  8
250
  6
CONTINUOUS
 10
29.770000000000039
 20
34.62833333333333
 30
0.0
 11
32.00000000000005
 21
35.0
 31
0.0
  0
LINE
  5
42DC
  8
250
  6
CONTINUOUS
 10
32.00000000000005
 20
35.0
 30
0.0
 11
29.770000000000039
 21
35.0
 31
0.0
  0
LINE
  5
42DD
  8
250
  6
CONTINUOUS
 10
2.2300000000000559
 20
34.62833333333333
 30
0.0
 11
0.0000000000000578
 21
35.0
 31
0.0
  0
LINE
  5
42DE
  8
250
  6
CONTINUOUS
 10
2.2300000000000559
 20
35.37166666666667
 30
0.0
 11
0.0000000000000578
 21
35.0
 31
0.0
  0
LINE
  5
42DF
  8
250
  6
CONTINUOUS
 10
0.0000000000000578
 20
35.0
 30
0.0
 11
2.2300000000000559
 21
35.0
 31
0.0
  0
TEXT
  5
42E0
  8
250
  6
CONTINUOUS
 10
40.999999999999993
 20
10.83333333333333
 30
0.0
 40
2.799999999999998
  1
27
 50
90.0
  0
LINE
  5
42E1
  8
250
  6
CONTINUOUS
 10
41.62833333333333
 20
24.769999999999989
 30
0.0
 11
42.0
 21
26.999999999999989
 31
0.0
  0
LINE
  5
42E2
  8
250
  6
CONTINUOUS
 10
42.371666666666663
 20
24.769999999999989
 30
0.0
 11
42.0
 21
26.999999999999989
 31
0.0
  0
LINE
  5
42E3
  8
250
  6
CONTINUOUS
 10
42.0
 20
26.999999999999989
 30
0.0
 11
42.0
 21
24.769999999999989
 31
0.0
  0
LINE
  5
42E4
  8
250
  6
CONTINUOUS
 10
42.371666666666663
 20
2.229999999999996
 30
0.0
 11
41.999999999999993
 21
-0.0000000000000024
 31
0.0
  0
LINE
  5
42E5
  8
250
  6
CONTINUOUS
 10
41.628333333333323
 20
2.229999999999996
 30
0.0
 11
41.999999999999993
 21
-0.0000000000000024
 31
0.0
  0
LINE
  5
42E6
  8
250
  6
CONTINUOUS
 10
41.999999999999993
 20
-0.0000000000000024
 30
0.0
 11
41.999999999999993
 21
2.229999999999996
 31
0.0
  0
LINE
  5
42ED
  8
243
  6
HIDDEN2
 10
3.049999999999998
 20
19.99999999999994
 30
0.0
 11
3.049999999999998
 21
-20.000000000000021
 31
0.0
  0
VIEWPORT
  5
22
 67
     1
  8
0
 10
261.51769911504419
 20
148.5
 30
0.0
 40
523.0353982300885
 41
297.0
 68
     1
 69
     1
1001
ACAD
1000
MVIEW
1002
{
1070
    16
1010
0.0
1020
0.0
1030
0.0
1010
0.0
1020
0.0
1030
1.0
1040
0.0
1040
297.0
1040
261.51769911504419
1040
148.5
1040
50.0
1040
0.0
1040
0.0
1070
     0
1070
   100
1070
     1
1070
     1
1070
     0
1070
     0
1070
     0
1070
     0
1040
0.0
1040
0.0
1040
0.0
1040
1.0
1040
1.0
1040
10.0
1040
10.0
1070
     0
1002
{
1002
}
1002
}
1001
GENIUS_GENODEF_13
1002
{
1000
HIER
1070
     0
1002
}
1002
{
1000
MANEDIT
1070
     0
1002
}
1002
{
1000
NOSEL
1070
     0
1002
}
1002
{
1000
BEHIND
1070
     0
1002
}
1002
{
1000
OTHER
1070
     0
1002
}
1002
{
1000
REACTOR
1002
}
1001
GENIUS_GENOBJ-N-SDF_13
1002
{
1000
OWNER
1000
GEN
1002
}
1001
GENIUS_GENSCREG_15
1000
PF
1040
1.0
1000
DF
1040
1.0
1000
MIN
1011
0.0
1021
0.0
1031
0.0
1021
0.0
1031
0.0
1000
MAX
1011
523.0353982300885
1021
0.0
1031
0.0
1021
297.0
1031
0.0
1000
FLAGS
1070
     4
  0
ENDSEC
  0
EOF
