  0
SECTION
  2
HEADER
  9
$ACADVER
  1
AC1009
  9
$INSBASE
 10
0.0
 20
0.0
 30
0.0
  9
$EXTMIN
 10
-3.9635422894959902
 20
-20.0
 30
0.0
  9
$EXTMAX
 10
59.756531718405981
 20
52.0
 30
0.0
  9
$LIMMIN
 10
0.0
 20
0.0
  9
$LIMMAX
 10
297.0
 20
210.0
  9
$ORTHOMODE
 70
     0
  9
$REGENMODE
 70
     1
  9
$FILLMODE
 70
     1
  9
$QTEXTMODE
 70
     0
  9
$MIRRTEXT
 70
     1
  9
$DRAGMODE
 70
     2
  9
$LTSCALE
 40
10.0
  9
$OSMODE
 70
   103
  9
$ATTMODE
 70
     1
  9
$TEXTSIZE
 40
3.0
  9
$TRACEWID
 40
1.0
  9
$TEXTSTYLE
  7
YOKO
  9
$CLAYER
  8
240
  9
$CELTYPE
  6
BYLAYER
  9
$CECOLOR
 62
   256
  9
$DIMSCALE
 40
1.0
  9
$DIMASZ
 40
2.2299999999999991
  9
$DIMEXO
 40
0.5
  9
$DIMDLI
 40
7.0
  9
$DIMRND
 40
0.0
  9
$DIMDLE
 40
0.0
  9
$DIMEXE
 40
1.0
  9
$DIMTP
 40
0.0
  9
$DIMTM
 40
0.01
  9
$DIMTXT
 40
2.7999999999999989
  9
$DIMCEN
 40
0.0
  9
$DIMTSZ
 40
0.0
  9
$DIMTOL
 70
     0
  9
$DIMLIM
 70
     0
  9
$DIMTIH
 70
     0
  9
$DIMTOH
 70
     0
  9
$DIMSE1
 70
     0
  9
$DIMSE2
 70
     0
  9
$DIMTAD
 70
     3
  9
$DIMZIN
 70
     9
  9
$DIMBLK
  1
OPEN
  9
$DIMASO
 70
     1
  9
$DIMSHO
 70
     1
  9
$DIMPOST
  1

  9
$DIMAPOST
  1

  9
$DIMALT
 70
     0
  9
$DIMALTD
 70
     2
  9
$DIMALTF
 40
25.399999999999999
  9
$DIMLFAC
 40
1.0
  9
$DIMTOFL
 70
     1
  9
$DIMTVP
 40
0.0
  9
$DIMTIX
 70
     1
  9
$DIMSOXD
 70
     0
  9
$DIMSAH
 70
     0
  9
$DIMBLK1
  1

  9
$DIMBLK2
  1

  9
$DIMSTYLE
  2
BIGT
  9
$DIMCLRD
 70
   256
  9
$DIMCLRE
 70
   256
  9
$DIMCLRT
 70
    40
  9
$DIMTFAC
 40
1.0
  9
$DIMGAP
 40
1.0
  9
$LUNITS
 70
     2
  9
$LUPREC
 70
     6
  9
$SKETCHINC
 40
1.0
  9
$FILLETRAD
 40
8.0
  9
$AUNITS
 70
     0
  9
$AUPREC
 70
     6
  9
$MENU
  1
.
  9
$ELEVATION
 40
0.0
  9
$PELEVATION
 40
0.0
  9
$THICKNESS
 40
0.0
  9
$LIMCHECK
 70
     0
  9
$BLIPMODE
 70
     0
  9
$CHAMFERA
 40
0.2
  9
$CHAMFERB
 40
0.2
  9
$SKPOLY
 70
     0
  9
$TDCREATE
 40
2458914.5588919562
  9
$TDUPDATE
 40
2458914.5688738888
  9
$TDINDWG
 40
0.0089639699
  9
$TDUSRTIMER
 40
0.0089637153
  9
$USRTIMER
 70
     1
  9
$ANGBASE
 50
0.0
  9
$ANGDIR
 70
     0
  9
$PDMODE
 70
     1
  9
$PDSIZE
 40
0.0
  9
$PLINEWID
 40
0.0
  9
$COORDS
 70
     1
  9
$SPLFRAME
 70
     0
  9
$SPLINETYPE
 70
     6
  9
$SPLINESEGS
 70
     4
  9
$ATTDIA
 70
     1
  9
$ATTREQ
 70
     1
  9
$HANDLING
 70
     1
  9
$HANDSEED
  5
4550
  9
$SURFTAB1
 70
     6
  9
$SURFTAB2
 70
     6
  9
$SURFTYPE
 70
     6
  9
$SURFU
 70
     6
  9
$SURFV
 70
     6
  9
$UCSNAME
  2

  9
$UCSORG
 10
0.0
 20
0.0
 30
0.0
  9
$UCSXDIR
 10
1.0
 20
0.0
 30
0.0
  9
$UCSYDIR
 10
0.0
 20
1.0
 30
0.0
  9
$PUCSNAME
  2

  9
$PUCSORG
 10
0.0
 20
0.0
 30
0.0
  9
$PUCSXDIR
 10
1.0
 20
0.0
 30
0.0
  9
$PUCSYDIR
 10
0.0
 20
1.0
 30
0.0
  9
$USERI1
 70
     1
  9
$USERI2
 70
     0
  9
$USERI3
 70
     0
  9
$USERI4
 70
     0
  9
$USERI5
 70
     0
  9
$USERR1
 40
0.0
  9
$USERR2
 40
0.0
  9
$USERR3
 40
0.0
  9
$USERR4
 40
0.0
  9
$USERR5
 40
0.0
  9
$WORLDVIEW
 70
     1
  9
$SHADEDGE
 70
     3
  9
$SHADEDIF
 70
    70
  9
$TILEMODE
 70
     1
  9
$MAXACTVP
 70
    16
  9
$PLIMCHECK
 70
     0
  9
$PEXTMIN
 10
1.0000000000000000E+020
 20
1.0000000000000000E+020
 30
1.0000000000000000E+020
  9
$PEXTMAX
 10
-1.0000000000000000E+020
 20
-1.0000000000000000E+020
 30
-1.0000000000000000E+020
  9
$PLIMMIN
 10
0.0
 20
0.0
  9
$PLIMMAX
 10
420.0
 20
297.0
  9
$UNITMODE
 70
     0
  9
$VISRETAIN
 70
     1
  9
$PLINEGEN
 70
     0
  9
$PSLTSCALE
 70
     1
  0
ENDSEC
  0
SECTION
  2
TABLES
  0
TABLE
  2
VPORT
 70
     1
  0
VPORT
  2
*ACTIVE
 70
     0
 10
0.0
 20
0.0
 11
1.0
 21
1.0
 12
33.230751493977841
 22
20.060743050159399
 13
0.0
 23
0.0
 14
7.0
 24
7.0
 15
7.0
 25
7.0
 16
0.0
 26
0.0
 36
1.0
 17
0.0
 27
0.0
 37
0.0
 40
103.4217727748379
 41
1.806861499364675
 42
50.0
 43
0.0
 44
0.0
 50
0.0
 51
0.0
 71
     0
 72
  2000
 73
     1
 74
     0
 75
     0
 76
     1
 77
     0
 78
     0
  0
ENDTAB
  0
TABLE
  2
LTYPE
 70
    21
  0
LTYPE
  2
CONTINUOUS
 70
     0
  3
Solid line
 72
    65
 73
     0
 40
0.0
  0
LTYPE
  2
CENTER2
 70
     0
  3
___ _ ___ _ ___ _ ___ _ ___ _ ___ _ ___ _ ___ _
 72
    65
 73
     4
 40
1.125
 49
0.75
 49
-0.125
 49
0.125
 49
-0.125
  0
LTYPE
  2
HIDDEN2
 70
     0
  3
_ _ _ _ _ _ _ _ _ _ _ _ _ _ _ _ _ _ _ _ _ _ _ _
 72
    65
 73
     2
 40
0.1875
 49
0.125
 49
-0.0625
  0
LTYPE
  2
PHANTOM2
 70
     0
  3
___ _ _ ___ _ _ ___ _ _ ___ _ _ ___ _ _ ___ _ _
 72
    65
 73
     6
 40
1.25
 49
0.625
 49
-0.125
 49
0.125
 49
-0.125
 49
0.125
 49
-0.125
  0
LTYPE
  2
AM_ISO02W050
 70
     0
  3
__ __ __ __ __ __ __ __ __ __ __ __ __ __ __
 72
    65
 73
     2
 40
7.5
 49
6.0
 49
-1.5
  0
LTYPE
  2
AMCONSTR
 70
     0
  3
_______________________
 72
    65
 73
     2
 40
9999.0
 49
9999.0
 49
0.0
  0
LTYPE
  2
ACISOWELD
 70
     0
  3
_ _ _ _ _
 72
    65
 73
     2
 40
2.0
 49
2.0
 49
-1.0
  0
LTYPE
  2
ACISOTGB
 70
     0
  3
__ . . __ . .
 72
    65
 73
     6
 40
9.0
 49
4.0
 49
-1.0
 49
1.0
 49
-1.0
 49
1.0
 49
-1.0
  0
LTYPE
  2
ACISOTGL
 70
     0
  3
_ _ _ _ _
 72
    65
 73
     2
 40
3.0
 49
2.0
 49
-1.0
  0
LTYPE
  2
ACJISTGB
 70
     0
  3
__ . . __ . .
 72
    65
 73
     6
 40
9.0
 49
4.0
 49
-1.0
 49
1.0
 49
-1.0
 49
1.0
 49
-1.0
  0
LTYPE
  2
ACJISTGL
 70
     0
  3
_ _ _ _ _
 72
    65
 73
     2
 40
3.0
 49
2.0
 49
-1.0
  0
ENDTAB
  0
TABLE
  2
LAYER
 70
    16
  0
LAYER
  2
0
 70
     0
 62
     7
  6
CONTINUOUS
  0
LAYER
  2
DEFPOINTS
 70
     0
 62
     7
  6
CONTINUOUS
  0
LAYER
  2
245
 70
     0
 62
     2
  6
CENTER2
  0
LAYER
  2
240
 70
     0
 62
     4
  6
CONTINUOUS
  0
LAYER
  2
241
 70
     0
 62
   211
  6
CONTINUOUS
  0
LAYER
  2
242
 70
     0
 62
     3
  6
CONTINUOUS
  0
LAYER
  2
243
 70
     0
 62
   211
  6
HIDDEN2
  0
LAYER
  2
246
 70
     0
 62
     3
  6
PHANTOM2
  0
LAYER
  2
250
 70
     0
 62
     3
  6
CONTINUOUS
  0
ENDTAB
  0
TABLE
  2
STYLE
 70
     9
  0
STYLE
  2
STANDARD
 70
     0
 40
0.0
 41
1.0
 50
0.0
 71
     0
 42
3.0
  3
romans.shx
  4
extfont.shx
  0
STYLE
  2
ACISOTS
 70
     0
 40
1.0
 41
1.0
 50
0.0
 71
     0
 42
3.0
  3
amgdt.shx
  4
extfont.shx
  0
STYLE
  2
ACISOGDT
 70
     0
 40
0.0
 41
1.0
 50
0.0
 71
     0
 42
3.0
  3
amgdt.shx
  4
extfont.shx
  0
STYLE
  2
ACJISTS
 70
     0
 40
1.0
 41
1.0
 50
0.0
 71
     0
 42
3.0
  3
amgdt.shx
  4
extfont.shx
  0
STYLE
  2
ACJISGDT
 70
     0
 40
0.0
 41
1.0
 50
0.0
 71
     0
 42
3.0
  3
amgdt.shx
  4
extfont.shx
  0
STYLE
  2
YOKO
 70
     0
 40
0.0
 41
1.0
 50
0.0
 71
     0
 42
3.0
  3
romans.shx
  4
extfont.shx
  0
ENDTAB
  0
TABLE
  2
VIEW
 70
     0
  0
ENDTAB
  0
TABLE
  2
UCS
 70
     0
  0
ENDTAB
  0
TABLE
  2
APPID
 70
    44
  0
APPID
  2
ACAD
 70
     0
  0
APPID
  2
GLOBAL
 70
     0
  0
APPID
  2
DETAIL
 70
     0
  0
APPID
  2
GRPNAME
 70
     0
  0
APPID
  2
GPARA
 70
     0
  0
APPID
  2
MCAD_NO_VIS
 70
     0
  0
APPID
  2
ACAD_TEMP_GRAPHIC
 70
     0
  0
APPID
  2
ACATTRIBSERVICES
 70
     0
  0
APPID
  2
GENIUS_GENSCREG_15
 70
     0
  0
APPID
  2
GENIUS_GENODEF_13
 70
     0
  0
APPID
  2
GENIUS_GENOBJ-N-SDF_13
 70
     0
  0
APPID
  2
GENIUS_GENREC_14
 70
     0
  0
APPID
  2
GENIUS_GENOBJ-N-REC_13
 70
     0
  0
APPID
  2
GENIUS_GENDIMSH_14
 70
     0
  0
APPID
  2
GENIUS_GENOBJ-N-DIM_13
 70
     0
  0
APPID
  2
GENIUS_GENDIM_13
 70
     0
  0
APPID
  2
GENIUS_GENDTOL_13
 70
     0
  0
APPID
  2
GENIUS_GENOLIS_13
 70
     0
  0
APPID
  2
GENIUS_GENOENT_13
 70
     0
  0
APPID
  2
GENIUS_GENOBJ-F-FEM_13
 70
     0
  0
APPID
  2
GENIUS_GENOREF_13
 70
     0
  0
APPID
  2
GENIUS_GEFFEM_13
 70
     0
  0
APPID
  2
GENIUS_GEFFEMP_13
 70
     0
  0
APPID
  2
AD_DRAW
 70
     0
  0
APPID
  2
DESIGNERASSEMBLIES
 70
     0
  0
APPID
  2
ACADM_DIM_EDIT
 70
     0
  0
APPID
  2
AMDT_DM_ADJ
 70
     0
  0
APPID
  2
ITEMNAME
 70
     0
  0
APPID
  2
GENIUS_GENOBJ-N-FIL_13
 70
     0
  0
APPID
  2
GENIUS_GENFIL_13
 70
     0
  0
APPID
  2
GENIUS_GENOBJ-N-CHA_13
 70
     0
  0
APPID
  2
ACAD_NAV_VCDISPLAY
 70
     0
  0
APPID
  2
ACAD_PSEXT
 70
     0
  0
APPID
  2
ACAD_DSTYLE_DIMJAG
 70
     0
  0
APPID
  2
ACAD_DSTYLE_DIMTALN
 70
     0
  0
APPID
  2
ACAD_EXEMPT_FROM_CAD_STANDARDS
 70
     0
  0
APPID
  2
ACAD_DSTYLE_DIMBREAK
 70
     0
  0
APPID
  2
ACAD_DSTYLE_DIMINSPECT
 70
     0
  0
APPID
  2
ACAECLAYERSTANDARD
 70
     0
  0
APPID
  2
ACAD_MLEADERVER
 70
     0
  0
APPID
  2
ACAD_DSTYLE_DIMARC_LENGTH_
 70
     0
  0
APPID
  2
ACAD_DSTYLE_DIM_LINETYPE
 70
     0
  0
APPID
  2
ACAD_DSTYLE_DIM_EXT1_LINETYPE
 70
     0
  0
APPID
  2
ACAD_DSTYLE_DIM_EXT2_LINETYPE
 70
     0
  0
ENDTAB
  0
TABLE
  2
DIMSTYLE
 70
    32
  0
DIMSTYLE
  2
BIGT
 70
     0
  3

  4

  5
OPEN
  6

  7

 40
1.0
 41
2.2299999999999991
 42
0.5
 43
7.0
 44
1.0
 45
0.0
 46
0.0
 47
0.0
 48
0.01
140
2.7999999999999989
141
0.0
142
0.0
143
25.399999999999999
144
1.0
145
0.0
146
1.0
147
1.0
 71
     0
 72
     0
 73
     0
 74
     0
 75
     0
 76
     0
 77
     3
 78
     9
170
     0
171
     2
172
     1
173
     0
174
     1
175
     0
176
   256
177
   256
178
    40
  0
DIMSTYLE
  2
AM_ISO
 70
     0
  3

  4
"
  5

  6

  7

 40
1.0
 41
2.5
 42
1.0
 43
10.0
 44
1.0
 45
0.0
 46
0.0
 47
0.1
 48
0.1
140
3.5
141
0.0
142
0.0
143
0.0393701
144
1.0
145
0.0
146
0.71
147
1.5
 71
     0
 72
     0
 73
     0
 74
     0
 75
     0
 76
     0
 77
     1
 78
     8
170
     0
171
     2
172
     1
173
     0
174
     0
175
     0
176
   256
177
   256
178
     2
  0
DIMSTYLE
  2
AM_ISO$3
 70
     0
  3

  4
"
  5

  6

  7

 40
1.0
 41
2.5
 42
1.0
 43
10.0
 44
1.0
 45
0.0
 46
0.0
 47
0.1
 48
0.1
140
3.5
141
0.0
142
0.0
143
0.0393701
144
1.0
145
0.0
146
0.71
147
1.5
 71
     0
 72
     0
 73
     0
 74
     1
 75
     0
 76
     0
 77
     1
 78
     8
170
     0
171
     2
172
     0
173
     0
174
     0
175
     0
176
   256
177
   256
178
     2
  0
DIMSTYLE
  2
AM_ISO$4
 70
     0
  3

  4
"
  5

  6

  7

 40
1.0
 41
2.5
 42
1.0
 43
10.0
 44
1.0
 45
0.0
 46
0.0
 47
0.1
 48
0.1
140
3.5
141
0.0
142
0.0
143
0.0393701
144
1.0
145
0.0
146
0.71
147
1.5
 71
     0
 72
     0
 73
     0
 74
     1
 75
     0
 76
     0
 77
     1
 78
     8
170
     0
171
     2
172
     0
173
     0
174
     0
175
     0
176
   256
177
   256
178
     2
  0
DIMSTYLE
  2
AM_ISO$6
 70
     0
  3

  4
"
  5

  6

  7

 40
1.0
 41
2.5
 42
1.0
 43
10.0
 44
1.0
 45
0.0
 46
0.0
 47
0.1
 48
0.1
140
3.5
141
0.0
142
0.0
143
0.0393701
144
1.0
145
0.0
146
0.71
147
1.5
 71
     0
 72
     0
 73
     0
 74
     0
 75
     0
 76
     0
 77
     0
 78
     8
170
     0
171
     2
172
     1
173
     0
174
     0
175
     0
176
   256
177
   256
178
     2
  0
DIMSTYLE
  2
AM_ISO$7
 70
     0
  3

  4
"
  5

  6

  7

 40
1.0
 41
2.5
 42
1.0
 43
10.0
 44
1.0
 45
0.0
 46
0.0
 47
0.1
 48
0.1
140
5.0
141
0.0
142
0.0
143
0.0393701
144
1.0
145
0.0
146
0.71
147
1.5
 71
     0
 72
     0
 73
     0
 74
     0
 75
     0
 76
     0
 77
     1
 78
     8
170
     0
171
     2
172
     1
173
     0
174
     0
175
     0
176
   256
177
   256
178
     2
  0
DIMSTYLE
  2
AM_ISO$SF
 70
     0
  3

  4
"
  5

  6

  7

 40
1.0
 41
2.5
 42
1.0
 43
10.0
 44
1.0
 45
0.0
 46
0.0
 47
0.1
 48
0.1
140
3.5
141
0.0
142
0.0
143
0.0393701
144
1.0
145
0.0
146
0.71
147
1.5
 71
     0
 72
     0
 73
     0
 74
     0
 75
     1
 76
     1
 77
     1
 78
     8
170
     0
171
     2
172
     1
173
     0
174
     0
175
     0
176
   256
177
   256
178
     2
  0
DIMSTYLE
  2
AM_ISO$SH
 70
     0
  3

  4
"
  5

  6
GENAXEH
  7

 40
1.0
 41
2.5
 42
1.0
 43
10.0
 44
1.0
 45
0.0
 46
0.0
 47
0.1
 48
0.1
140
3.5
141
0.0
142
0.0
143
0.0393701
144
2.0
145
0.0
146
0.71
147
1.5
 71
     0
 72
     0
 73
     0
 74
     0
 75
     1
 76
     1
 77
     1
 78
     8
170
     0
171
     2
172
     1
173
     1
174
     0
175
     0
176
   256
177
   256
178
     2
  0
DIMSTYLE
  2
BIGT$2
 70
     0
  3

  4

  5
OPEN
  6

  7

 40
1.0
 41
2.2299999999999991
 42
0.5
 43
7.0
 44
1.0
 45
0.0
 46
0.0
 47
0.0
 48
0.01
140
2.7999999999999989
141
0.0
142
0.0
143
25.399999999999999
144
1.0
145
0.0
146
1.0
147
1.0
 71
     0
 72
     0
 73
     0
 74
     0
 75
     0
 76
     0
 77
     3
 78
     9
170
     0
171
     2
172
     1
173
     0
174
     0
175
     0
176
   256
177
   256
178
    40
  0
DIMSTYLE
  2
BIGT$3
 70
     0
  3

  4

  5
OPEN
  6

  7

 40
1.0
 41
2.2299999999999991
 42
0.5
 43
2.5
 44
1.0
 45
0.0
 46
0.0
 47
0.0
 48
0.01
140
2.7999999999999989
141
0.0
142
0.0
143
25.399999999999999
144
1.0
145
0.0
146
1.0
147
1.0
 71
     0
 72
     0
 73
     0
 74
     0
 75
     0
 76
     0
 77
     3
 78
     9
170
     0
171
     2
172
     1
173
     0
174
     0
175
     0
176
   256
177
   256
178
    40
  0
DIMSTYLE
  2
BIGT$7
 70
     0
  3

  4

  5
OPEN
  6

  7

 40
0.0
 41
2.2299999999999991
 42
0.5
 43
7.0
 44
1.0
 45
0.0
 46
0.0
 47
0.0
 48
0.01
140
2.7999999999999989
141
0.0
142
0.0
143
25.399999999999999
144
1.0
145
0.0
146
1.0
147
1.0
 71
     0
 72
     0
 73
     0
 74
     0
 75
     0
 76
     0
 77
     3
 78
     9
170
     0
171
     2
172
     0
173
     0
174
     0
175
     0
176
   256
177
   256
178
    40
  0
DIMSTYLE
  2
BIGT$6
 70
     0
  3

  4

  5
OPEN
  6

  7

 40
1.0
 41
2.2299999999999991
 42
0.5
 43
2.5
 44
1.0
 45
0.0
 46
0.0
 47
0.0
 48
0.01
140
2.7999999999999989
141
0.0
142
0.0
143
25.399999999999999
144
1.0
145
0.0
146
1.0
147
1.0
 71
     0
 72
     0
 73
     0
 74
     0
 75
     0
 76
     0
 77
     3
 78
     9
170
     0
171
     2
172
     1
173
     0
174
     0
175
     0
176
   256
177
   256
178
    40
  0
DIMSTYLE
  2
BIGT$0
 70
     0
  3

  4

  5
OPEN
  6

  7

 40
1.0
 41
2.2299999999999991
 42
0.5
 43
7.0
 44
1.0
 45
0.0
 46
0.0
 47
0.0
 48
0.01
140
2.7999999999999989
141
0.0
142
0.0
143
25.399999999999999
144
1.0
145
0.0
146
1.0
147
1.0
 71
     0
 72
     0
 73
     0
 74
     0
 75
     0
 76
     0
 77
     3
 78
     9
170
     0
171
     2
172
     1
173
     0
174
     1
175
     0
176
   256
177
   256
178
    40
  0
DIMSTYLE
  2
BIGT$4
 70
     0
  3

  4

  5
OPEN
  6

  7

 40
1.0
 41
2.2299999999999991
 42
0.5
 43
2.5
 44
1.0
 45
0.0
 46
0.0
 47
0.0
 48
0.01
140
2.7999999999999989
141
0.0
142
0.0
143
25.399999999999999
144
1.0
145
0.0
146
1.0
147
1.0
 71
     0
 72
     0
 73
     0
 74
     0
 75
     0
 76
     0
 77
     3
 78
     9
170
     0
171
     2
172
     1
173
     0
174
     0
175
     0
176
   256
177
   256
178
    40
  0
DIMSTYLE
  2
BIGT$SH
 70
     0
  3

  4

  5
OPEN
  6

  7

 40
1.0
 41
2.2299999999999991
 42
0.5
 43
7.0
 44
1.0
 45
0.0
 46
0.0
 47
0.0
 48
0.0
140
2.7999999999999989
141
0.0
142
0.0
143
25.399999999999999
144
1.0
145
0.0
146
1.0
147
1.0
 71
     0
 72
     0
 73
     0
 74
     0
 75
     0
 76
     0
 77
     3
 78
     9
170
     0
171
     2
172
     1
173
     0
174
     0
175
     0
176
   256
177
   256
178
    40
  0
DIMSTYLE
  2
BIGT$SF
 70
     0
  3

  4

  5
OPEN
  6

  7

 40
1.0
 41
2.2299999999999991
 42
0.5
 43
7.0
 44
1.0
 45
0.0
 46
0.0
 47
0.0
 48
0.0
140
2.7999999999999989
141
0.0
142
0.0
143
25.399999999999999
144
1.0
145
0.0
146
1.0
147
1.0
 71
     0
 72
     0
 73
     0
 74
     0
 75
     0
 76
     0
 77
     3
 78
     9
170
     0
171
     2
172
     1
173
     0
174
     0
175
     0
176
   256
177
   256
178
    40
  0
DIMSTYLE
  2
TECHNICAL_OSAKA
 70
     0
  3

  4
"
  5
OPEN30
  6

  7

 40
1.0
 41
2.5
 42
1.0
 43
10.0
 44
1.0
 45
0.0
 46
0.0
 47
0.1
 48
0.1
140
2.7999999999999989
141
0.0
142
0.0
143
0.0393701
144
1.0
145
0.0
146
0.71
147
1.5
 71
     0
 72
     0
 73
     0
 74
     0
 75
     0
 76
     0
 77
     3
 78
     8
170
     0
171
     2
172
     1
173
     0
174
     0
175
     0
176
   256
177
   256
178
    40
  0
DIMSTYLE
  2
TECHNICAL_OSAKA$3
 70
     0
  3

  4
"
  5
OPEN30
  6

  7

 40
1.0
 41
2.5
 42
1.0
 43
10.0
 44
1.0
 45
0.0
 46
0.0
 47
0.1
 48
0.1
140
2.7999999999999989
141
0.0
142
0.0
143
0.0393701
144
1.0
145
0.0
146
0.71
147
1.5
 71
     0
 72
     0
 73
     0
 74
     1
 75
     0
 76
     0
 77
     3
 78
     8
170
     0
171
     2
172
     0
173
     0
174
     0
175
     0
176
   256
177
   256
178
    40
  0
DIMSTYLE
  2
TECHNICAL_OSAKA$4
 70
     0
  3

  4
"
  5
OPEN30
  6

  7

 40
1.0
 41
2.5
 42
1.0
 43
10.0
 44
1.0
 45
0.0
 46
0.0
 47
0.1
 48
0.1
140
2.7999999999999989
141
0.0
142
0.0
143
0.0393701
144
1.0
145
0.0
146
0.71
147
1.5
 71
     0
 72
     0
 73
     0
 74
     1
 75
     0
 76
     0
 77
     3
 78
     8
170
     0
171
     2
172
     0
173
     0
174
     0
175
     0
176
   256
177
   256
178
    40
  0
DIMSTYLE
  2
TECHNICAL_OSAKA$6
 70
     0
  3

  4
"
  5
OPEN30
  6

  7

 40
1.0
 41
2.5
 42
1.0
 43
10.0
 44
1.0
 45
0.0
 46
0.0
 47
0.1
 48
0.1
140
2.7999999999999989
141
0.0
142
0.0
143
0.0393701
144
1.0
145
0.0
146
0.71
147
1.5
 71
     0
 72
     0
 73
     0
 74
     0
 75
     0
 76
     0
 77
     0
 78
     8
170
     0
171
     2
172
     1
173
     0
174
     0
175
     0
176
   256
177
   256
178
    40
  0
DIMSTYLE
  2
TECHNICAL_OSAKA$7
 70
     0
  3

  4
"
  5
OPEN30
  6

  7

 40
1.0
 41
2.5
 42
1.0
 43
10.0
 44
1.0
 45
0.0
 46
0.0
 47
0.1
 48
0.1
140
2.7999999999999989
141
0.0
142
0.0
143
0.0393701
144
1.0
145
0.0
146
0.71
147
1.5
 71
     0
 72
     0
 73
     0
 74
     0
 75
     0
 76
     0
 77
     3
 78
     8
170
     0
171
     2
172
     1
173
     0
174
     0
175
     0
176
   256
177
   256
178
    40
  0
DIMSTYLE
  2
TECHNICAL_OSAKA$SF
 70
     0
  3

  4
"
  5
OPEN30
  6
OPEN30
  7
OPEN30
 40
1.0
 41
2.5
 42
1.0
 43
10.0
 44
1.0
 45
0.0
 46
0.0
 47
0.1
 48
0.1
140
3.5
141
0.0
142
0.0
143
0.0393701
144
1.0
145
0.0
146
0.71
147
1.5
 71
     0
 72
     0
 73
     0
 74
     0
 75
     1
 76
     1
 77
     3
 78
     8
170
     0
171
     2
172
     1
173
     0
174
     0
175
     0
176
   256
177
   256
178
    40
  0
DIMSTYLE
  2
TECHNICAL_OSAKA$SH
 70
     0
  3

  4
"
  5
OPEN30
  6
GENAXEH
  7
OPEN30
 40
1.0
 41
2.5
 42
1.0
 43
10.0
 44
1.0
 45
0.0
 46
0.0
 47
0.1
 48
0.1
140
3.5
141
0.0
142
0.0
143
0.0393701
144
2.0
145
0.0
146
0.71
147
1.5
 71
     0
 72
     0
 73
     0
 74
     0
 75
     1
 76
     1
 77
     3
 78
     8
170
     0
171
     2
172
     1
173
     1
174
     0
175
     0
176
   256
177
   256
178
    40
  0
ENDTAB
  0
ENDSEC
  0
SECTION
  2
BLOCKS
  0
BLOCK
  8
0
  2
$MODEL_SPACE
 70
     0
 10
0.0
 20
0.0
 30
0.0
  3
$MODEL_SPACE
  1

  0
ENDBLK
  5
1C
  8
0
  0
BLOCK
 67
     1
  8
0
  2
$PAPER_SPACE
 70
     0
 10
0.0
 20
0.0
 30
0.0
  3
$PAPER_SPACE
  1

  0
ENDBLK
  5
19
 67
     1
  8
0
  0
BLOCK
  8
0
  2
_OPEN
 70
     0
 10
0.0
 20
0.0
 30
0.0
  3
_OPEN
  1

  0
LINE
  5
43CD
  8
0
  6
BYBLOCK
 62
     0
 10
-1.0
 20
0.1666666666666666
 30
0.0
 11
0.0
 21
0.0
 31
0.0
  0
LINE
  5
43CE
  8
0
  6
BYBLOCK
 62
     0
 10
-1.0
 20
-0.1666666666666666
 30
0.0
 11
0.0
 21
0.0
 31
0.0
  0
LINE
  5
43CF
  8
0
  6
BYBLOCK
 62
     0
 10
0.0
 20
0.0
 30
0.0
 11
-1.0
 21
0.0
 31
0.0
  0
ENDBLK
  5
43D0
  8
0
  0
BLOCK
  8
0
  2
GENAXEH
 70
     0
 10
0.0
 20
0.0
 30
0.0
  3
GENAXEH
  1

  0
LINE
  5
4408
  8
0
 10
-1.0
 20
0.0
 30
0.0
 11
1.0
 21
0.0
 31
0.0
  0
ENDBLK
  5
4409
  8
0
  0
BLOCK
  8
0
  2
_OPEN30
 70
     0
 10
0.0
 20
0.0
 30
0.0
  3
_OPEN30
  1

  0
LINE
  5
4444
  8
0
  6
BYBLOCK
 62
     0
 10
-1.0
 20
0.26794919
 30
0.0
 11
0.0
 21
0.0
 31
0.0
  0
LINE
  5
4445
  8
0
  6
BYBLOCK
 62
     0
 10
0.0
 20
0.0
 30
0.0
 11
-1.0
 21
-0.26794919
 31
0.0
  0
LINE
  5
4446
  8
0
  6
BYBLOCK
 62
     0
 10
0.0
 20
0.0
 30
0.0
 11
-1.0
 21
0.0
 31
0.0
  0
ENDBLK
  5
4447
  8
0
  0
BLOCK
  8
0
  2
*U19
 70
     1
 10
0.0
 20
0.0
 30
0.0
  3
*U19
  1

  0
TEXT
  5
44C7
  8
240
 62
    40
 10
13.33333333333333
 20
36.0
 30
0.0
 40
2.7999999999999989
  1
32
  0
ENDBLK
  5
44C9
  8
0
  0
BLOCK
  8
0
  2
*U20
 70
     1
 10
0.0
 20
0.0
 30
0.0
  3
*U20
  1

  0
TEXT
  5
44CB
  8
240
 62
    40
 10
40.999999999999993
 20
10.83333333333333
 30
0.0
 40
2.7999999999999989
  1
27
 50
90.0
  0
ENDBLK
  5
44CD
  8
0
  0
ENDSEC
  0
SECTION
  2
ENTITIES
  0
LINE
  5
41CB
  8
245
  6
CENTER2
 10
33.084124129631618
 20
0.0
 30
0.0
 11
-3.9635422894959902
 21
0.0
 31
0.0
  0
LINE
  5
41CC
  8
240
  6
CONTINUOUS
 10
19.939763842723551
 20
20.000000000000028
 30
0.0
 11
0.0
 21
20.000000000000028
 31
0.0
  0
LINE
  5
41CD
  8
240
  6
CONTINUOUS
 10
0.0
 20
-20.0
 30
0.0
 11
10.0
 21
-20.0
 31
0.0
  0
LINE
  5
41CE
  8
240
  6
CONTINUOUS
 10
10.0
 20
-14.0
 30
0.0
 11
10.0
 21
-20.0
 31
0.0
  0
LINE
  5
41D0
  8
240
  6
CONTINUOUS
 10
0.0
 20
20.000000000000028
 30
0.0
 11
0.0
 21
-20.0
 31
0.0
  0
LINE
  5
41D2
  8
240
  6
CONTINUOUS
 10
18.0
 20
-6.0
 30
0.0
 11
20.237078037090551
 21
-6.0
 31
0.0
  0
LINE
  5
41D6
  8
240
  6
CONTINUOUS
 10
22.183323541503889
 20
20.86295379253237
 30
0.0
 11
21.52952163542318
 21
20.454022341518939
 31
0.0
  0
ARC
  5
41D7
  8
241
  6
CONTINUOUS
 10
22.788743313905108
 20
11.93389613373949
 30
0.0
 40
2.4974859500698079
 50
111.8297683570961
 51
7.3069504194645081
  0
LINE
  5
41D8
  8
240
  6
CONTINUOUS
 10
30.223373384636261
 20
3.4766404375706079
 30
0.0
 11
30.864064361730399
 21
15.701752546096969
 31
0.0
  0
ARC
  5
41D9
  8
240
  6
CONTINUOUS
 10
20.237078037090559
 20
4.0
 30
0.0
 40
10.0
 50
270.0
 51
357.00000000000091
  0
ARC
  5
41DE
  8
240
  6
CONTINUOUS
 10
18.0
 20
-14.0
 30
0.0
 40
8.0
 50
90.0
 51
180.0
1001
GENIUS_GENODEF_13
1002
{
1000
HIER
1070
     0
1002
}
1002
{
1000
MANEDIT
1070
     0
1002
}
1002
{
1000
NOSEL
1070
     0
1002
}
1002
{
1000
BEHIND
1070
     0
1002
}
1002
{
1000
OTHER
1070
     0
1002
}
1002
{
1000
REACTOR
1002
}
1001
GENIUS_GENOBJ-N-FIL_13
1002
{
1000
OWNER
1000
GEN
1002
}
  0
ARC
  5
41E7
  8
240
  6
CONTINUOUS
 10
19.835761915933421
 20
23.374439529712749
 30
0.0
 40
3.3760418451885168
 50
271.76532597614101
 51
300.1125256688768
  0
LINE
  5
41E8
  8
241
  6
CONTINUOUS
 10
10.0
 20
-14.0
 30
0.0
 11
10.0
 21
16.99730384705995
 31
0.0
  0
ARC
  5
41E9
  8
241
  6
CONTINUOUS
 10
13.836073844186361
 20
15.8112013338376
 30
0.0
 40
4.0152586105907329
 50
95.291295626457014
 51
162.8185482271667
  0
LINE
  5
41EA
  8
241
  6
CONTINUOUS
 10
13.46578944192674
 20
19.809349801737
 30
0.0
 11
16.66163181123579
 21
20.000000000000028
 31
0.0
  0
POLYLINE
  5
41EB
  8
241
  6
CONTINUOUS
 10
13.483602380642335
 20
18.08579558273961
 30
0.0
 66
     1
 70
     8
  0
VERTEX
  8
241
  5
44CE
 10
13.4836
 20
18.0858
 30
0.000000
  70
    32
  0
VERTEX
  8
241
  5
44CF
 10
13.5038
 20
18.0512
 30
0.000000
  70
    32
  0
VERTEX
  8
241
  5
44D0
 10
13.5276
 20
18.0185
 30
0.000000
  70
    32
  0
VERTEX
  8
241
  5
44D1
 10
13.5548
 20
17.9878
 30
0.000000
  70
    32
  0
VERTEX
  8
241
  5
44D2
 10
13.5855
 20
17.9593
 30
0.000000
  70
    32
  0
VERTEX
  8
241
  5
44D3
 10
13.6195
 20
17.9329
 30
0.000000
  70
    32
  0
VERTEX
  8
241
  5
44D4
 10
13.6568
 20
17.9087
 30
0.000000
  70
    32
  0
VERTEX
  8
241
  5
44D5
 10
13.6973
 20
17.8868
 30
0.000000
  70
    32
  0
VERTEX
  8
241
  5
44D6
 10
13.7408
 20
17.8673
 30
0.000000
  70
    32
  0
VERTEX
  8
241
  5
44D7
 10
13.7873
 20
17.8501
 30
0.000000
  70
    32
  0
VERTEX
  8
241
  5
44D8
 10
13.8367
 20
17.8354
 30
0.000000
  70
    32
  0
VERTEX
  8
241
  5
44D9
 10
13.8888
 20
17.8231
 30
0.000000
  70
    32
  0
VERTEX
  8
241
  5
44DA
 10
13.9436
 20
17.8134
 30
0.000000
  70
    32
  0
VERTEX
  8
241
  5
44DB
 10
14.0008
 20
17.8061
 30
0.000000
  70
    32
  0
VERTEX
  8
241
  5
44DC
 10
14.0604
 20
17.8014
 30
0.000000
  70
    32
  0
VERTEX
  8
241
  5
44DD
 10
14.1221
 20
17.7993
 30
0.000000
  70
    32
  0
VERTEX
  8
241
  5
44DE
 10
14.1860
 20
17.7996
 30
0.000000
  70
    32
  0
VERTEX
  8
241
  5
44DF
 10
14.2517
 20
17.8026
 30
0.000000
  70
    32
  0
VERTEX
  8
241
  5
44E0
 10
14.3192
 20
17.8081
 30
0.000000
  70
    32
  0
VERTEX
  8
241
  5
44E1
 10
14.3882
 20
17.8161
 30
0.000000
  70
    32
  0
VERTEX
  8
241
  5
44E2
 10
14.4587
 20
17.8266
 30
0.000000
  70
    32
  0
VERTEX
  8
241
  5
44E3
 10
14.5304
 20
17.8396
 30
0.000000
  70
    32
  0
VERTEX
  8
241
  5
44E4
 10
14.6032
 20
17.8551
 30
0.000000
  70
    32
  0
VERTEX
  8
241
  5
44E5
 10
14.6769
 20
17.8730
 30
0.000000
  70
    32
  0
VERTEX
  8
241
  5
44E6
 10
14.7513
 20
17.8932
 30
0.000000
  70
    32
  0
VERTEX
  8
241
  5
44E7
 10
14.8263
 20
17.9158
 30
0.000000
  70
    32
  0
VERTEX
  8
241
  5
44E8
 10
14.9016
 20
17.9407
 30
0.000000
  70
    32
  0
VERTEX
  8
241
  5
44E9
 10
14.9770
 20
17.9677
 30
0.000000
  70
    32
  0
VERTEX
  8
241
  5
44EA
 10
15.0525
 20
17.9969
 30
0.000000
  70
    32
  0
VERTEX
  8
241
  5
44EB
 10
15.1278
 20
18.0282
 30
0.000000
  70
    32
  0
VERTEX
  8
241
  5
44EC
 10
15.2027
 20
18.0615
 30
0.000000
  70
    32
  0
VERTEX
  8
241
  5
44ED
 10
15.2771
 20
18.0967
 30
0.000000
  70
    32
  0
VERTEX
  8
241
  5
44EE
 10
15.3507
 20
18.1338
 30
0.000000
  70
    32
  0
VERTEX
  8
241
  5
44EF
 10
15.4235
 20
18.1725
 30
0.000000
  70
    32
  0
VERTEX
  8
241
  5
44F0
 10
15.4951
 20
18.2130
 30
0.000000
  70
    32
  0
VERTEX
  8
241
  5
44F1
 10
15.5656
 20
18.2550
 30
0.000000
  70
    32
  0
VERTEX
  8
241
  5
44F2
 10
15.6345
 20
18.2984
 30
0.000000
  70
    32
  0
VERTEX
  8
241
  5
44F3
 10
15.7019
 20
18.3432
 30
0.000000
  70
    32
  0
VERTEX
  8
241
  5
44F4
 10
15.7676
 20
18.3893
 30
0.000000
  70
    32
  0
VERTEX
  8
241
  5
44F5
 10
15.8313
 20
18.4364
 30
0.000000
  70
    32
  0
VERTEX
  8
241
  5
44F6
 10
15.8930
 20
18.4846
 30
0.000000
  70
    32
  0
VERTEX
  8
241
  5
44F7
 10
15.9525
 20
18.5337
 30
0.000000
  70
    32
  0
VERTEX
  8
241
  5
44F8
 10
16.0096
 20
18.5836
 30
0.000000
  70
    32
  0
VERTEX
  8
241
  5
44F9
 10
16.0642
 20
18.6341
 30
0.000000
  70
    32
  0
VERTEX
  8
241
  5
44FA
 10
16.1162
 20
18.6852
 30
0.000000
  70
    32
  0
VERTEX
  8
241
  5
44FB
 10
16.1655
 20
18.7367
 30
0.000000
  70
    32
  0
VERTEX
  8
241
  5
44FC
 10
16.2119
 20
18.7885
 30
0.000000
  70
    32
  0
VERTEX
  8
241
  5
44FD
 10
16.2553
 20
18.8404
 30
0.000000
  70
    32
  0
VERTEX
  8
241
  5
44FE
 10
16.2956
 20
18.8924
 30
0.000000
  70
    32
  0
VERTEX
  8
241
  5
44FF
 10
16.3327
 20
18.9443
 30
0.000000
  70
    32
  0
VERTEX
  8
241
  5
4500
 10
16.3666
 20
18.9960
 30
0.000000
  70
    32
  0
VERTEX
  8
241
  5
4501
 10
16.3971
 20
19.0474
 30
0.000000
  70
    32
  0
VERTEX
  8
241
  5
4502
 10
16.4242
 20
19.0983
 30
0.000000
  70
    32
  0
VERTEX
  8
241
  5
4503
 10
16.4478
 20
19.1487
 30
0.000000
  70
    32
  0
VERTEX
  8
241
  5
4504
 10
16.4679
 20
19.1983
 30
0.000000
  70
    32
  0
VERTEX
  8
241
  5
4505
 10
16.4843
 20
19.2472
 30
0.000000
  70
    32
  0
VERTEX
  8
241
  5
4506
 10
16.4972
 20
19.2950
 30
0.000000
  70
    32
  0
VERTEX
  8
241
  5
4507
 10
16.5063
 20
19.3419
 30
0.000000
  70
    32
  0
VERTEX
  8
241
  5
4508
 10
16.5118
 20
19.3876
 30
0.000000
  70
    32
  0
VERTEX
  8
241
  5
4509
 10
16.5136
 20
19.4320
 30
0.000000
  70
    32
  0
VERTEX
  8
241
  5
450A
 10
16.5116
 20
19.4750
 30
0.000000
  70
    32
  0
VERTEX
  8
241
  5
450B
 10
16.5060
 20
19.5165
 30
0.000000
  70
    32
  0
VERTEX
  8
241
  5
450C
 10
16.4967
 20
19.5565
 30
0.000000
  70
    32
  0
VERTEX
  8
241
  5
450D
 10
16.4837
 20
19.5947
 30
0.000000
  70
    32
  0
VERTEX
  8
241
  5
450E
 10
16.4670
 20
19.6312
 30
0.000000
  70
    32
  0
VERTEX
  8
241
  5
450F
 10
16.4468
 20
19.6658
 30
0.000000
  70
    32
  0
VERTEX
  8
241
  5
4510
 10
16.4231
 20
19.6985
 30
0.000000
  70
    32
  0
VERTEX
  8
241
  5
4511
 10
16.3958
 20
19.7292
 30
0.000000
  70
    32
  0
VERTEX
  8
241
  5
4512
 10
16.3651
 20
19.7578
 30
0.000000
  70
    32
  0
VERTEX
  8
241
  5
4513
 10
16.3311
 20
19.7842
 30
0.000000
  70
    32
  0
VERTEX
  8
241
  5
4514
 10
16.2938
 20
19.8083
 30
0.000000
  70
    32
  0
VERTEX
  8
241
  5
4515
 10
16.2534
 20
19.8302
 30
0.000000
  70
    32
  0
VERTEX
  8
241
  5
4516
 10
16.2098
 20
19.8497
 30
0.000000
  70
    32
  0
VERTEX
  8
241
  5
4517
 10
16.1633
 20
19.8669
 30
0.000000
  70
    32
  0
VERTEX
  8
241
  5
4518
 10
16.1139
 20
19.8816
 30
0.000000
  70
    32
  0
VERTEX
  8
241
  5
4519
 10
16.0618
 20
19.8939
 30
0.000000
  70
    32
  0
VERTEX
  8
241
  5
451A
 10
16.0071
 20
19.9036
 30
0.000000
  70
    32
  0
VERTEX
  8
241
  5
451B
 10
15.9498
 20
19.9109
 30
0.000000
  70
    32
  0
VERTEX
  8
241
  5
451C
 10
15.8903
 20
19.9156
 30
0.000000
  70
    32
  0
VERTEX
  8
241
  5
451D
 10
15.8285
 20
19.9178
 30
0.000000
  70
    32
  0
VERTEX
  8
241
  5
451E
 10
15.7647
 20
19.9174
 30
0.000000
  70
    32
  0
VERTEX
  8
241
  5
451F
 10
15.6989
 20
19.9144
 30
0.000000
  70
    32
  0
VERTEX
  8
241
  5
4520
 10
15.6315
 20
19.9089
 30
0.000000
  70
    32
  0
VERTEX
  8
241
  5
4521
 10
15.5624
 20
19.9009
 30
0.000000
  70
    32
  0
VERTEX
  8
241
  5
4522
 10
15.4919
 20
19.8904
 30
0.000000
  70
    32
  0
VERTEX
  8
241
  5
4523
 10
15.4202
 20
19.8774
 30
0.000000
  70
    32
  0
VERTEX
  8
241
  5
4524
 10
15.3474
 20
19.8619
 30
0.000000
  70
    32
  0
VERTEX
  8
241
  5
4525
 10
15.2737
 20
19.8440
 30
0.000000
  70
    32
  0
VERTEX
  8
241
  5
4526
 10
15.1993
 20
19.8238
 30
0.000000
  70
    32
  0
VERTEX
  8
241
  5
4527
 10
15.1244
 20
19.8012
 30
0.000000
  70
    32
  0
VERTEX
  8
241
  5
4528
 10
15.0491
 20
19.7764
 30
0.000000
  70
    32
  0
VERTEX
  8
241
  5
4529
 10
14.9736
 20
19.7493
 30
0.000000
  70
    32
  0
VERTEX
  8
241
  5
452A
 10
14.8981
 20
19.7201
 30
0.000000
  70
    32
  0
VERTEX
  8
241
  5
452B
 10
14.8228
 20
19.6888
 30
0.000000
  70
    32
  0
VERTEX
  8
241
  5
452C
 10
14.7479
 20
19.6555
 30
0.000000
  70
    32
  0
VERTEX
  8
241
  5
452D
 10
14.6736
 20
19.6203
 30
0.000000
  70
    32
  0
VERTEX
  8
241
  5
452E
 10
14.5999
 20
19.5833
 30
0.000000
  70
    32
  0
VERTEX
  8
241
  5
452F
 10
14.5272
 20
19.5445
 30
0.000000
  70
    32
  0
VERTEX
  8
241
  5
4530
 10
14.4555
 20
19.5040
 30
0.000000
  70
    32
  0
VERTEX
  8
241
  5
4531
 10
14.3851
 20
19.4620
 30
0.000000
  70
    32
  0
VERTEX
  8
241
  5
4532
 10
14.3161
 20
19.4186
 30
0.000000
  70
    32
  0
VERTEX
  8
241
  5
4533
 10
14.2487
 20
19.3738
 30
0.000000
  70
    32
  0
VERTEX
  8
241
  5
4534
 10
14.1830
 20
19.3277
 30
0.000000
  70
    32
  0
VERTEX
  8
241
  5
4535
 10
14.1193
 20
19.2806
 30
0.000000
  70
    32
  0
VERTEX
  8
241
  5
4536
 10
14.0576
 20
19.2324
 30
0.000000
  70
    32
  0
VERTEX
  8
241
  5
4537
 10
13.9982
 20
19.1833
 30
0.000000
  70
    32
  0
VERTEX
  8
241
  5
4538
 10
13.9410
 20
19.1334
 30
0.000000
  70
    32
  0
VERTEX
  8
241
  5
4539
 10
13.8864
 20
19.0829
 30
0.000000
  70
    32
  0
VERTEX
  8
241
  5
453A
 10
13.8344
 20
19.0318
 30
0.000000
  70
    32
  0
VERTEX
  8
241
  5
453B
 10
13.7852
 20
18.9803
 30
0.000000
  70
    32
  0
VERTEX
  8
241
  5
453C
 10
13.7388
 20
18.9285
 30
0.000000
  70
    32
  0
VERTEX
  8
241
  5
453D
 10
13.6954
 20
18.8766
 30
0.000000
  70
    32
  0
VERTEX
  8
241
  5
453E
 10
13.6551
 20
18.8246
 30
0.000000
  70
    32
  0
VERTEX
  8
241
  5
453F
 10
13.6179
 20
18.7727
 30
0.000000
  70
    32
  0
VERTEX
  8
241
  5
4540
 10
13.5840
 20
18.7210
 30
0.000000
  70
    32
  0
VERTEX
  8
241
  5
4541
 10
13.5535
 20
18.6696
 30
0.000000
  70
    32
  0
VERTEX
  8
241
  5
4542
 10
13.5264
 20
18.6187
 30
0.000000
  70
    32
  0
VERTEX
  8
241
  5
4543
 10
13.5028
 20
18.5683
 30
0.000000
  70
    32
  0
VERTEX
  8
241
  5
4544
 10
13.4828
 20
18.5187
 30
0.000000
  70
    32
  0
VERTEX
  8
241
  5
4545
 10
13.4663
 20
18.4699
 30
0.000000
  70
    32
  0
VERTEX
  8
241
  5
4546
 10
13.4535
 20
18.4220
 30
0.000000
  70
    32
  0
VERTEX
  8
241
  5
4547
 10
13.4443
 20
18.3751
 30
0.000000
  70
    32
  0
VERTEX
  8
241
  5
4548
 10
13.4389
 20
18.3295
 30
0.000000
  70
    32
  0
VERTEX
  8
241
  5
4549
 10
13.4371
 20
18.2851
 30
0.000000
  70
    32
  0
VERTEX
  8
241
  5
454A
 10
13.4390
 20
18.2420
 30
0.000000
  70
    32
  0
VERTEX
  8
241
  5
454B
 10
13.4447
 20
18.2005
 30
0.000000
  70
    32
  0
VERTEX
  8
241
  5
454C
 10
13.4540
 20
18.1606
 30
0.000000
  70
    32
  0
VERTEX
  8
241
  5
454D
 10
13.4670
 20
18.1223
 30
0.000000
  70
    32
  0
VERTEX
  8
241
  5
454E
 10
13.4836
 20
18.0858
 30
0.000000
  70
    32
  0
SEQEND
  8
241
  5
454F
  0
LINE
  5
424E
  8
246
  6
PHANTOM2
 10
31.998903627803621
 20
26.15813123500568
 30
0.0
 11
31.492572164534241
 21
16.496751375056771
 31
0.0
  0
ARC
  5
424F
  8
246
  6
PHANTOM2
 10
31.199999999999999
 20
26.199999999999999
 30
0.0
 40
0.8
 50
357.00000000000438
 51
121.9999999999977
1001
GENIUS_GENODEF_13
1002
{
1000
HIER
1070
     0
1002
}
1002
{
1000
MANEDIT
1070
     0
1002
}
1002
{
1000
NOSEL
1070
     0
1002
}
1002
{
1000
BEHIND
1070
     0
1002
}
1002
{
1000
OTHER
1070
     0
1002
}
1002
{
1000
REACTOR
1002
}
1001
GENIUS_GENOBJ-N-FIL_13
1002
{
1000
OWNER
1000
GEN
1002
}
  0
LINE
  5
4250
  8
246
  6
PHANTOM2
 10
22.196537512951711
 20
21.115091387916099
 30
0.0
 11
21.690206049682342
 21
11.453711527967201
 31
0.0
  0
ARC
  5
4251
  8
246
  6
PHANTOM2
 10
22.48910967748596
 20
11.411842762972929
 30
0.0
 40
0.8
 50
177.00000000000421
 51
301.9999999999996
1001
GENIUS_GENOBJ-N-FIL_13
1002
{
1000
OWNER
1000
GEN
1002
}
1001
GENIUS_GENODEF_13
1002
{
1000
HIER
1070
     0
1002
}
1002
{
1000
MANEDIT
1070
     0
1002
}
1002
{
1000
NOSEL
1070
     0
1002
}
1002
{
1000
BEHIND
1070
     0
1002
}
1002
{
1000
OTHER
1070
     0
1002
}
1002
{
1000
REACTOR
1002
}
  0
LINE
  5
4252
  8
246
  6
PHANTOM2
 10
22.913045088872611
 20
10.733404286047699
 30
0.0
 11
31.117603948117281
 21
15.86018166312591
 31
0.0
  0
ARC
  5
4253
  8
246
  6
PHANTOM2
 10
30.693668536730641
 20
16.53862014005114
 30
0.0
 40
0.8
 50
301.9999999999996
 51
357.00000000000438
1001
GENIUS_GENOBJ-N-FIL_13
1002
{
1000
OWNER
1000
GEN
1002
}
1001
GENIUS_GENODEF_13
1002
{
1000
HIER
1070
     0
1002
}
1002
{
1000
MANEDIT
1070
     0
1002
}
1002
{
1000
NOSEL
1070
     0
1002
}
1002
{
1000
BEHIND
1070
     0
1002
}
1002
{
1000
OTHER
1070
     0
1002
}
1002
{
1000
REACTOR
1002
}
  0
LINE
  5
4254
  8
246
  6
PHANTOM2
 10
22.571505729368781
 20
21.75166109984696
 30
0.0
 11
30.776064588613451
 21
26.878438476925179
 31
0.0
  0
ARC
  5
4255
  8
246
  6
PHANTOM2
 10
22.995441140755421
 20
21.07322262292184
 30
0.0
 40
0.8
 50
121.9999999999977
 51
177.00000000000421
1001
GENIUS_GENODEF_13
1002
{
1000
HIER
1070
     0
1002
}
1002
{
1000
MANEDIT
1070
     0
1002
}
1002
{
1000
NOSEL
1070
     0
1002
}
1002
{
1000
BEHIND
1070
     0
1002
}
1002
{
1000
OTHER
1070
     0
1002
}
1002
{
1000
REACTOR
1002
}
1001
GENIUS_GENOBJ-N-FIL_13
1002
{
1000
OWNER
1000
GEN
1002
}
  0
CIRCLE
  5
4256
  8
246
  6
PHANTOM2
 10
26.844554838742919
 20
18.805921381486382
 30
0.0
 40
4.7624999999999984
  0
CIRCLE
  5
4257
  8
242
  6
CONTINUOUS
 10
26.844554838742919
 20
18.805921381486382
 30
0.0
 40
2.0
  0
CIRCLE
  5
4258
  8
241
  6
CONTINUOUS
 10
26.844554838742919
 20
18.805921381486382
 30
0.0
 40
1.649999999999999
  0
TEXT
  5
4259
  8
241
  6
CONTINUOUS
 10
-0.0000000000000045
 20
49.0
 30
0.0
 40
3.0
  1
B40-SDUCR-27032-11
  7
YOKO
  0
LINE
  5
425A
  8
250
  6
CONTINUOUS
 10
59.756531718405981
 20
34.906671255150862
 30
0.0
 11
40.453156669622203
 21
34.906671255150862
 31
0.0
  0
LINE
  5
425B
  8
250
  6
CONTINUOUS
 10
40.453156669622203
 20
34.906671255150862
 30
0.0
 11
34.04123084960267
 21
26.4673955187647
 31
0.0
  0
LINE
  5
425C
  8
250
  6
CONTINUOUS
 10
34.04123084960267
 20
26.4673955187647
 30
0.0
 11
32.692151742630131
 21
24.691758854598799
 31
0.0
  0
LINE
  5
425D
  8
250
  6
CONTINUOUS
 10
33.807463849000463
 20
26.64500515184816
 30
0.0
 11
32.692151742630131
 21
24.691758854598799
 31
0.0
  0
LINE
  5
425E
  8
250
  6
CONTINUOUS
 10
32.692151742630131
 20
24.691758854598799
 30
0.0
 11
34.274997850204841
 21
26.289785885681241
 31
0.0
  0
TEXT
  5
425F
  8
250
  6
CONTINUOUS
 10
41.304762924750577
 20
36.462502673616171
 30
0.0
 40
2.799999999999998
  1
DC11T3
  7
ACJISTS
  0
LINE
  5
42C2
  8
250
  6
CONTINUOUS
 10
33.584124129631618
 20
-0.0000000000000001
 30
0.0
 11
42.999999999999993
 21
-0.0000000000000028
 31
0.0
  0
LINE
  5
42C3
  8
250
  6
CONTINUOUS
 10
31.699999999999999
 20
27.0
 30
0.0
 11
43.0
 21
27.0
 31
0.0
  0
LINE
  5
42C4
  8
250
  6
CONTINUOUS
 10
41.999999999999993
 20
2.2299999999999969
 30
0.0
 11
42.0
 21
24.77
 31
0.0
  0
LINE
  5
42C8
  8
250
  6
CONTINUOUS
 10
0.0
 20
20.500000000000028
 30
0.0
 11
0.000000000000001
 21
36.0
 31
0.0
  0
LINE
  5
42C9
  8
250
  6
CONTINUOUS
 10
32.0
 20
26.699999999999999
 30
0.0
 11
32.0
 21
36.0
 31
0.0
  0
LINE
  5
42CA
  8
250
  6
CONTINUOUS
 10
2.23
 20
35.0
 30
0.0
 11
29.77
 21
35.0
 31
0.0
  0
TEXT
  5
42CE
  8
250
  6
CONTINUOUS
 10
13.33333333333333
 20
36.0
 30
0.0
 40
2.7999999999999989
  1
32
  0
LINE
  5
42CF
  8
250
  6
CONTINUOUS
 10
29.77
 20
35.37166666666667
 30
0.0
 11
32.0
 21
35.0
 31
0.0
  0
LINE
  5
42D0
  8
250
  6
CONTINUOUS
 10
29.77
 20
34.62833333333333
 30
0.0
 11
32.0
 21
35.0
 31
0.0
  0
LINE
  5
42D1
  8
250
  6
CONTINUOUS
 10
32.0
 20
35.0
 30
0.0
 11
29.77
 21
35.0
 31
0.0
  0
LINE
  5
42D2
  8
250
  6
CONTINUOUS
 10
2.23
 20
34.62833333333333
 30
0.0
 11
0.0000000000000009
 21
35.0
 31
0.0
  0
LINE
  5
42D3
  8
250
  6
CONTINUOUS
 10
2.23
 20
35.37166666666667
 30
0.0
 11
0.0000000000000009
 21
35.0
 31
0.0
  0
LINE
  5
42D4
  8
250
  6
CONTINUOUS
 10
0.0000000000000009
 20
35.0
 30
0.0
 11
2.23
 21
35.0
 31
0.0
  0
TEXT
  5
42D5
  8
250
  6
CONTINUOUS
 10
40.999999999999993
 20
10.83333333333333
 30
0.0
 40
2.7999999999999989
  1
27
 50
90.0
  0
LINE
  5
42D6
  8
250
  6
CONTINUOUS
 10
41.62833333333333
 20
24.77
 30
0.0
 11
42.0
 21
27.0
 31
0.0
  0
LINE
  5
42D7
  8
250
  6
CONTINUOUS
 10
42.371666666666663
 20
24.77
 30
0.0
 11
42.0
 21
27.0
 31
0.0
  0
LINE
  5
42D8
  8
250
  6
CONTINUOUS
 10
42.0
 20
27.0
 30
0.0
 11
42.0
 21
24.77
 31
0.0
  0
LINE
  5
42D9
  8
250
  6
CONTINUOUS
 10
42.371666666666663
 20
2.2299999999999969
 30
0.0
 11
41.999999999999993
 21
-0.0000000000000025
 31
0.0
  0
LINE
  5
42DA
  8
250
  6
CONTINUOUS
 10
41.628333333333323
 20
2.2299999999999969
 30
0.0
 11
41.999999999999993
 21
-0.0000000000000025
 31
0.0
  0
LINE
  5
42DB
  8
250
  6
CONTINUOUS
 10
41.999999999999993
 20
-0.0000000000000025
 30
0.0
 11
41.999999999999993
 21
2.2299999999999969
 31
0.0
  0
LINE
  5
42E2
  8
243
  6
HIDDEN2
 10
3.049999999999998
 20
20.000000000000028
 30
0.0
 11
3.0499999999999972
 21
-20.0
 31
0.0
  0
VIEWPORT
  5
22
 67
     1
  8
0
 10
261.51769911504419
 20
148.5
 30
0.0
 40
523.0353982300885
 41
297.0
 68
     1
 69
     1
1001
ACAD
1000
MVIEW
1002
{
1070
    16
1010
0.0
1020
0.0
1030
0.0
1010
0.0
1020
0.0
1030
1.0
1040
0.0
1040
297.0
1040
261.51769911504419
1040
148.5
1040
50.0
1040
0.0
1040
0.0
1070
     0
1070
   100
1070
     1
1070
     1
1070
     0
1070
     0
1070
     0
1070
     0
1040
0.0
1040
0.0
1040
0.0
1040
1.0
1040
1.0
1040
10.0
1040
10.0
1070
     0
1002
{
1002
}
1002
}
1001
GENIUS_GENODEF_13
1002
{
1000
HIER
1070
     0
1002
}
1002
{
1000
MANEDIT
1070
     0
1002
}
1002
{
1000
NOSEL
1070
     0
1002
}
1002
{
1000
BEHIND
1070
     0
1002
}
1002
{
1000
OTHER
1070
     0
1002
}
1002
{
1000
REACTOR
1002
}
1001
GENIUS_GENOBJ-N-SDF_13
1002
{
1000
OWNER
1000
GEN
1002
}
1001
GENIUS_GENSCREG_15
1000
PF
1040
1.0
1000
DF
1040
1.0
1000
MIN
1011
0.0
1021
0.0
1031
0.0
1021
0.0
1031
0.0
1000
MAX
1011
523.0353982300885
1021
0.0
1031
0.0
1021
297.0
1031
0.0
1000
FLAGS
1070
     4
  0
ENDSEC
  0
EOF
