  0
SECTION
  2
HEADER
  9
$ACADVER
  1
AC1009
  9
$INSBASE
 10
0.0
 20
0.0
 30
0.0
  9
$EXTMIN
 10
-3.9635422894959902
 20
-20.0
 30
0.0
  9
$EXTMAX
 10
59.756531718405981
 20
52.0
 30
0.0
  9
$LIMMIN
 10
0.0
 20
0.0
  9
$LIMMAX
 10
297.0
 20
210.0
  9
$ORTHOMODE
 70
     1
  9
$REGENMODE
 70
     1
  9
$FILLMODE
 70
     1
  9
$QTEXTMODE
 70
     0
  9
$MIRRTEXT
 70
     1
  9
$DRAGMODE
 70
     2
  9
$LTSCALE
 40
10.0
  9
$OSMODE
 70
   103
  9
$ATTMODE
 70
     1
  9
$TEXTSIZE
 40
3.0
  9
$TRACEWID
 40
1.0
  9
$TEXTSTYLE
  7
YOKO
  9
$CLAYER
  8
240
  9
$CELTYPE
  6
BYLAYER
  9
$CECOLOR
 62
   256
  9
$DIMSCALE
 40
1.0
  9
$DIMASZ
 40
2.2299999999999991
  9
$DIMEXO
 40
0.5
  9
$DIMDLI
 40
7.0
  9
$DIMRND
 40
0.0
  9
$DIMDLE
 40
0.0
  9
$DIMEXE
 40
1.0
  9
$DIMTP
 40
0.0
  9
$DIMTM
 40
0.01
  9
$DIMTXT
 40
2.7999999999999989
  9
$DIMCEN
 40
0.0
  9
$DIMTSZ
 40
0.0
  9
$DIMTOL
 70
     0
  9
$DIMLIM
 70
     0
  9
$DIMTIH
 70
     0
  9
$DIMTOH
 70
     0
  9
$DIMSE1
 70
     0
  9
$DIMSE2
 70
     0
  9
$DIMTAD
 70
     3
  9
$DIMZIN
 70
     9
  9
$DIMBLK
  1
OPEN
  9
$DIMASO
 70
     1
  9
$DIMSHO
 70
     1
  9
$DIMPOST
  1

  9
$DIMAPOST
  1

  9
$DIMALT
 70
     0
  9
$DIMALTD
 70
     2
  9
$DIMALTF
 40
25.399999999999999
  9
$DIMLFAC
 40
1.0
  9
$DIMTOFL
 70
     1
  9
$DIMTVP
 40
0.0
  9
$DIMTIX
 70
     1
  9
$DIMSOXD
 70
     0
  9
$DIMSAH
 70
     0
  9
$DIMBLK1
  1

  9
$DIMBLK2
  1

  9
$DIMSTYLE
  2
BIGT
  9
$DIMCLRD
 70
   256
  9
$DIMCLRE
 70
   256
  9
$DIMCLRT
 70
    40
  9
$DIMTFAC
 40
1.0
  9
$DIMGAP
 40
1.0
  9
$LUNITS
 70
     2
  9
$LUPREC
 70
     6
  9
$SKETCHINC
 40
1.0
  9
$FILLETRAD
 40
8.0
  9
$AUNITS
 70
     0
  9
$AUPREC
 70
     6
  9
$MENU
  1
.
  9
$ELEVATION
 40
0.0
  9
$PELEVATION
 40
0.0
  9
$THICKNESS
 40
0.0
  9
$LIMCHECK
 70
     0
  9
$BLIPMODE
 70
     0
  9
$CHAMFERA
 40
0.2
  9
$CHAMFERB
 40
0.2
  9
$SKPOLY
 70
     0
  9
$TDCREATE
 40
2458914.487065081
  9
$TDUPDATE
 40
2458914.5350199309
  9
$TDINDWG
 40
0.0456250463
  9
$TDUSRTIMER
 40
0.0456247685
  9
$USRTIMER
 70
     1
  9
$ANGBASE
 50
0.0
  9
$ANGDIR
 70
     0
  9
$PDMODE
 70
     1
  9
$PDSIZE
 40
0.0
  9
$PLINEWID
 40
0.0
  9
$COORDS
 70
     1
  9
$SPLFRAME
 70
     0
  9
$SPLINETYPE
 70
     6
  9
$SPLINESEGS
 70
     4
  9
$ATTDIA
 70
     1
  9
$ATTREQ
 70
     1
  9
$HANDLING
 70
     1
  9
$HANDSEED
  5
4632
  9
$SURFTAB1
 70
     6
  9
$SURFTAB2
 70
     6
  9
$SURFTYPE
 70
     6
  9
$SURFU
 70
     6
  9
$SURFV
 70
     6
  9
$UCSNAME
  2

  9
$UCSORG
 10
0.0
 20
0.0
 30
0.0
  9
$UCSXDIR
 10
1.0
 20
0.0
 30
0.0
  9
$UCSYDIR
 10
0.0
 20
1.0
 30
0.0
  9
$PUCSNAME
  2

  9
$PUCSORG
 10
0.0
 20
0.0
 30
0.0
  9
$PUCSXDIR
 10
1.0
 20
0.0
 30
0.0
  9
$PUCSYDIR
 10
0.0
 20
1.0
 30
0.0
  9
$USERI1
 70
     1
  9
$USERI2
 70
     0
  9
$USERI3
 70
     0
  9
$USERI4
 70
     0
  9
$USERI5
 70
     0
  9
$USERR1
 40
0.0
  9
$USERR2
 40
0.0
  9
$USERR3
 40
0.0
  9
$USERR4
 40
0.0
  9
$USERR5
 40
0.0
  9
$WORLDVIEW
 70
     1
  9
$SHADEDGE
 70
     3
  9
$SHADEDIF
 70
    70
  9
$TILEMODE
 70
     1
  9
$MAXACTVP
 70
    16
  9
$PLIMCHECK
 70
     0
  9
$PEXTMIN
 10
1.0000000000000000E+020
 20
1.0000000000000000E+020
 30
1.0000000000000000E+020
  9
$PEXTMAX
 10
-1.0000000000000000E+020
 20
-1.0000000000000000E+020
 30
-1.0000000000000000E+020
  9
$PLIMMIN
 10
0.0
 20
0.0
  9
$PLIMMAX
 10
420.0
 20
297.0
  9
$UNITMODE
 70
     0
  9
$VISRETAIN
 70
     1
  9
$PLINEGEN
 70
     0
  9
$PSLTSCALE
 70
     1
  0
ENDSEC
  0
SECTION
  2
TABLES
  0
TABLE
  2
VPORT
 70
     1
  0
VPORT
  2
*ACTIVE
 70
     0
 10
0.0
 20
0.0
 11
1.0
 21
1.0
 12
22.48821069122987
 22
14.70780743227815
 13
0.0
 23
0.0
 14
7.0
 24
7.0
 15
7.0
 25
7.0
 16
0.0
 26
0.0
 36
1.0
 17
0.0
 27
0.0
 37
0.0
 40
104.3364058116657
 41
1.806861499364675
 42
50.0
 43
0.0
 44
0.0
 50
0.0
 51
0.0
 71
     0
 72
  2000
 73
     1
 74
     0
 75
     1
 76
     1
 77
     0
 78
     0
  0
ENDTAB
  0
TABLE
  2
LTYPE
 70
    21
  0
LTYPE
  2
CONTINUOUS
 70
     0
  3
Solid line
 72
    65
 73
     0
 40
0.0
  0
LTYPE
  2
CENTER2
 70
     0
  3
___ _ ___ _ ___ _ ___ _ ___ _ ___ _ ___ _ ___ _
 72
    65
 73
     4
 40
1.125
 49
0.75
 49
-0.125
 49
0.125
 49
-0.125
  0
LTYPE
  2
HIDDEN2
 70
     0
  3
_ _ _ _ _ _ _ _ _ _ _ _ _ _ _ _ _ _ _ _ _ _ _ _
 72
    65
 73
     2
 40
0.1875
 49
0.125
 49
-0.0625
  0
LTYPE
  2
PHANTOM2
 70
     0
  3
___ _ _ ___ _ _ ___ _ _ ___ _ _ ___ _ _ ___ _ _
 72
    65
 73
     6
 40
1.25
 49
0.625
 49
-0.125
 49
0.125
 49
-0.125
 49
0.125
 49
-0.125
  0
LTYPE
  2
AM_ISO02W050
 70
     0
  3
__ __ __ __ __ __ __ __ __ __ __ __ __ __ __
 72
    65
 73
     2
 40
7.5
 49
6.0
 49
-1.5
  0
LTYPE
  2
AMCONSTR
 70
     0
  3
_______________________
 72
    65
 73
     2
 40
9999.0
 49
9999.0
 49
0.0
  0
LTYPE
  2
ACISOWELD
 70
     0
  3
_ _ _ _ _
 72
    65
 73
     2
 40
2.0
 49
2.0
 49
-1.0
  0
LTYPE
  2
ACISOTGB
 70
     0
  3
__ . . __ . .
 72
    65
 73
     6
 40
9.0
 49
4.0
 49
-1.0
 49
1.0
 49
-1.0
 49
1.0
 49
-1.0
  0
LTYPE
  2
ACISOTGL
 70
     0
  3
_ _ _ _ _
 72
    65
 73
     2
 40
3.0
 49
2.0
 49
-1.0
  0
LTYPE
  2
ACJISTGB
 70
     0
  3
__ . . __ . .
 72
    65
 73
     6
 40
9.0
 49
4.0
 49
-1.0
 49
1.0
 49
-1.0
 49
1.0
 49
-1.0
  0
LTYPE
  2
ACJISTGL
 70
     0
  3
_ _ _ _ _
 72
    65
 73
     2
 40
3.0
 49
2.0
 49
-1.0
  0
ENDTAB
  0
TABLE
  2
LAYER
 70
    16
  0
LAYER
  2
0
 70
     0
 62
     7
  6
CONTINUOUS
  0
LAYER
  2
DEFPOINTS
 70
     0
 62
     7
  6
CONTINUOUS
  0
LAYER
  2
245
 70
     0
 62
     2
  6
CENTER2
  0
LAYER
  2
240
 70
     0
 62
     4
  6
CONTINUOUS
  0
LAYER
  2
241
 70
     0
 62
   211
  6
CONTINUOUS
  0
LAYER
  2
242
 70
     0
 62
     3
  6
CONTINUOUS
  0
LAYER
  2
243
 70
     0
 62
   211
  6
HIDDEN2
  0
LAYER
  2
246
 70
     0
 62
     3
  6
PHANTOM2
  0
LAYER
  2
250
 70
     0
 62
     3
  6
CONTINUOUS
  0
ENDTAB
  0
TABLE
  2
STYLE
 70
     8
  0
STYLE
  2
STANDARD
 70
     0
 40
0.0
 41
1.0
 50
0.0
 71
     0
 42
3.0
  3
romans.shx
  4
extfont.shx
  0
STYLE
  2
ACISOTS
 70
     0
 40
1.0
 41
1.0
 50
0.0
 71
     0
 42
3.0
  3
amgdt.shx
  4
extfont.shx
  0
STYLE
  2
ACISOGDT
 70
     0
 40
0.0
 41
1.0
 50
0.0
 71
     0
 42
3.0
  3
amgdt.shx
  4
extfont.shx
  0
STYLE
  2
ACJISTS
 70
     0
 40
1.0
 41
1.0
 50
0.0
 71
     0
 42
3.0
  3
amgdt.shx
  4
extfont.shx
  0
STYLE
  2
ACJISGDT
 70
     0
 40
0.0
 41
1.0
 50
0.0
 71
     0
 42
3.0
  3
amgdt.shx
  4
extfont.shx
  0
STYLE
  2
YOKO
 70
     0
 40
0.0
 41
1.0
 50
0.0
 71
     0
 42
3.0
  3
romans.shx
  4
extfont.shx
  0
ENDTAB
  0
TABLE
  2
VIEW
 70
     0
  0
ENDTAB
  0
TABLE
  2
UCS
 70
     0
  0
ENDTAB
  0
TABLE
  2
APPID
 70
    39
  0
APPID
  2
ACAD
 70
     0
  0
APPID
  2
GLOBAL
 70
     0
  0
APPID
  2
DETAIL
 70
     0
  0
APPID
  2
GRPNAME
 70
     0
  0
APPID
  2
GPARA
 70
     0
  0
APPID
  2
MCAD_NO_VIS
 70
     0
  0
APPID
  2
ACAD_TEMP_GRAPHIC
 70
     0
  0
APPID
  2
ACATTRIBSERVICES
 70
     0
  0
APPID
  2
GENIUS_GENSCREG_15
 70
     0
  0
APPID
  2
GENIUS_GENODEF_13
 70
     0
  0
APPID
  2
GENIUS_GENOBJ-N-SDF_13
 70
     0
  0
APPID
  2
GENIUS_GENREC_14
 70
     0
  0
APPID
  2
GENIUS_GENOBJ-N-REC_13
 70
     0
  0
APPID
  2
GENIUS_GENDIMSH_14
 70
     0
  0
APPID
  2
GENIUS_GENOBJ-N-DIM_13
 70
     0
  0
APPID
  2
GENIUS_GENDIM_13
 70
     0
  0
APPID
  2
GENIUS_GENDTOL_13
 70
     0
  0
APPID
  2
GENIUS_GENOLIS_13
 70
     0
  0
APPID
  2
GENIUS_GENOENT_13
 70
     0
  0
APPID
  2
GENIUS_GENOBJ-F-FEM_13
 70
     0
  0
APPID
  2
GENIUS_GENOREF_13
 70
     0
  0
APPID
  2
GENIUS_GEFFEM_13
 70
     0
  0
APPID
  2
GENIUS_GEFFEMP_13
 70
     0
  0
APPID
  2
AD_DRAW
 70
     0
  0
APPID
  2
DESIGNERASSEMBLIES
 70
     0
  0
APPID
  2
ACADM_DIM_EDIT
 70
     0
  0
APPID
  2
AMDT_DM_ADJ
 70
     0
  0
APPID
  2
ITEMNAME
 70
     0
  0
APPID
  2
GENIUS_GENOBJ-N-FIL_13
 70
     0
  0
APPID
  2
GENIUS_GENFIL_13
 70
     0
  0
APPID
  2
GENIUS_GENOBJ-N-CHA_13
 70
     0
  0
APPID
  2
ACAD_NAV_VCDISPLAY
 70
     0
  0
APPID
  2
ACAD_PSEXT
 70
     0
  0
APPID
  2
ACAD_DSTYLE_DIMJAG
 70
     0
  0
APPID
  2
ACAD_DSTYLE_DIMTALN
 70
     0
  0
APPID
  2
ACAECLAYERSTANDARD
 70
     0
  0
APPID
  2
ACAD_DSTYLE_DIMINSPECT
 70
     0
  0
APPID
  2
ACAD_EXEMPT_FROM_CAD_STANDARDS
 70
     0
  0
APPID
  2
ACAD_MLEADERVER
 70
     0
  0
ENDTAB
  0
TABLE
  2
DIMSTYLE
 70
    32
  0
DIMSTYLE
  2
BIGT
 70
     0
  3

  4

  5
OPEN
  6

  7

 40
1.0
 41
2.2299999999999991
 42
0.5
 43
7.0
 44
1.0
 45
0.0
 46
0.0
 47
0.0
 48
0.01
140
2.7999999999999989
141
0.0
142
0.0
143
25.399999999999999
144
1.0
145
0.0
146
1.0
147
1.0
 71
     0
 72
     0
 73
     0
 74
     0
 75
     0
 76
     0
 77
     3
 78
     9
170
     0
171
     2
172
     1
173
     0
174
     1
175
     0
176
   256
177
   256
178
    40
  0
DIMSTYLE
  2
AM_ISO
 70
     0
  3

  4
"
  5

  6

  7

 40
1.0
 41
2.5
 42
1.0
 43
10.0
 44
1.0
 45
0.0
 46
0.0
 47
0.1
 48
0.1
140
3.5
141
0.0
142
0.0
143
0.0393701
144
1.0
145
0.0
146
0.71
147
1.5
 71
     0
 72
     0
 73
     0
 74
     0
 75
     0
 76
     0
 77
     1
 78
     8
170
     0
171
     2
172
     1
173
     0
174
     0
175
     0
176
   256
177
   256
178
     2
  0
DIMSTYLE
  2
AM_ISO$3
 70
     0
  3

  4
"
  5

  6

  7

 40
1.0
 41
2.5
 42
1.0
 43
10.0
 44
1.0
 45
0.0
 46
0.0
 47
0.1
 48
0.1
140
3.5
141
0.0
142
0.0
143
0.0393701
144
1.0
145
0.0
146
0.71
147
1.5
 71
     0
 72
     0
 73
     0
 74
     1
 75
     0
 76
     0
 77
     1
 78
     8
170
     0
171
     2
172
     0
173
     0
174
     0
175
     0
176
   256
177
   256
178
     2
  0
DIMSTYLE
  2
AM_ISO$4
 70
     0
  3

  4
"
  5

  6

  7

 40
1.0
 41
2.5
 42
1.0
 43
10.0
 44
1.0
 45
0.0
 46
0.0
 47
0.1
 48
0.1
140
3.5
141
0.0
142
0.0
143
0.0393701
144
1.0
145
0.0
146
0.71
147
1.5
 71
     0
 72
     0
 73
     0
 74
     1
 75
     0
 76
     0
 77
     1
 78
     8
170
     0
171
     2
172
     0
173
     0
174
     0
175
     0
176
   256
177
   256
178
     2
  0
DIMSTYLE
  2
AM_ISO$6
 70
     0
  3

  4
"
  5

  6

  7

 40
1.0
 41
2.5
 42
1.0
 43
10.0
 44
1.0
 45
0.0
 46
0.0
 47
0.1
 48
0.1
140
3.5
141
0.0
142
0.0
143
0.0393701
144
1.0
145
0.0
146
0.71
147
1.5
 71
     0
 72
     0
 73
     0
 74
     0
 75
     0
 76
     0
 77
     0
 78
     8
170
     0
171
     2
172
     1
173
     0
174
     0
175
     0
176
   256
177
   256
178
     2
  0
DIMSTYLE
  2
AM_ISO$7
 70
     0
  3

  4
"
  5

  6

  7

 40
1.0
 41
2.5
 42
1.0
 43
10.0
 44
1.0
 45
0.0
 46
0.0
 47
0.1
 48
0.1
140
5.0
141
0.0
142
0.0
143
0.0393701
144
1.0
145
0.0
146
0.71
147
1.5
 71
     0
 72
     0
 73
     0
 74
     0
 75
     0
 76
     0
 77
     1
 78
     8
170
     0
171
     2
172
     1
173
     0
174
     0
175
     0
176
   256
177
   256
178
     2
  0
DIMSTYLE
  2
AM_ISO$SF
 70
     0
  3

  4
"
  5

  6

  7

 40
1.0
 41
2.5
 42
1.0
 43
10.0
 44
1.0
 45
0.0
 46
0.0
 47
0.1
 48
0.1
140
3.5
141
0.0
142
0.0
143
0.0393701
144
1.0
145
0.0
146
0.71
147
1.5
 71
     0
 72
     0
 73
     0
 74
     0
 75
     1
 76
     1
 77
     1
 78
     8
170
     0
171
     2
172
     1
173
     0
174
     0
175
     0
176
   256
177
   256
178
     2
  0
DIMSTYLE
  2
AM_ISO$SH
 70
     0
  3

  4
"
  5

  6
GENAXEH
  7

 40
1.0
 41
2.5
 42
1.0
 43
10.0
 44
1.0
 45
0.0
 46
0.0
 47
0.1
 48
0.1
140
3.5
141
0.0
142
0.0
143
0.0393701
144
2.0
145
0.0
146
0.71
147
1.5
 71
     0
 72
     0
 73
     0
 74
     0
 75
     1
 76
     1
 77
     1
 78
     8
170
     0
171
     2
172
     1
173
     1
174
     0
175
     0
176
   256
177
   256
178
     2
  0
DIMSTYLE
  2
BIGT$2
 70
     0
  3

  4

  5
OPEN
  6

  7

 40
1.0
 41
2.2299999999999991
 42
0.5
 43
7.0
 44
1.0
 45
0.0
 46
0.0
 47
0.0
 48
0.01
140
2.7999999999999989
141
0.0
142
0.0
143
25.399999999999999
144
1.0
145
0.0
146
1.0
147
1.0
 71
     0
 72
     0
 73
     0
 74
     0
 75
     0
 76
     0
 77
     3
 78
     9
170
     0
171
     2
172
     1
173
     0
174
     0
175
     0
176
   256
177
   256
178
    40
  0
DIMSTYLE
  2
BIGT$3
 70
     0
  3

  4

  5
OPEN
  6

  7

 40
1.0
 41
2.2299999999999991
 42
0.5
 43
2.5
 44
1.0
 45
0.0
 46
0.0
 47
0.0
 48
0.01
140
2.7999999999999989
141
0.0
142
0.0
143
25.399999999999999
144
1.0
145
0.0
146
1.0
147
1.0
 71
     0
 72
     0
 73
     0
 74
     0
 75
     0
 76
     0
 77
     3
 78
     9
170
     0
171
     2
172
     1
173
     0
174
     0
175
     0
176
   256
177
   256
178
    40
  0
DIMSTYLE
  2
BIGT$7
 70
     0
  3

  4

  5
OPEN
  6

  7

 40
0.0
 41
2.2299999999999991
 42
0.5
 43
7.0
 44
1.0
 45
0.0
 46
0.0
 47
0.0
 48
0.01
140
2.7999999999999989
141
0.0
142
0.0
143
25.399999999999999
144
1.0
145
0.0
146
1.0
147
1.0
 71
     0
 72
     0
 73
     0
 74
     0
 75
     0
 76
     0
 77
     3
 78
     9
170
     0
171
     2
172
     0
173
     0
174
     0
175
     0
176
   256
177
   256
178
    40
  0
DIMSTYLE
  2
BIGT$6
 70
     0
  3

  4

  5
OPEN
  6

  7

 40
1.0
 41
2.2299999999999991
 42
0.5
 43
2.5
 44
1.0
 45
0.0
 46
0.0
 47
0.0
 48
0.01
140
2.7999999999999989
141
0.0
142
0.0
143
25.399999999999999
144
1.0
145
0.0
146
1.0
147
1.0
 71
     0
 72
     0
 73
     0
 74
     0
 75
     0
 76
     0
 77
     3
 78
     9
170
     0
171
     2
172
     1
173
     0
174
     0
175
     0
176
   256
177
   256
178
    40
  0
DIMSTYLE
  2
BIGT$0
 70
     0
  3

  4

  5
OPEN
  6

  7

 40
1.0
 41
2.2299999999999991
 42
0.5
 43
7.0
 44
1.0
 45
0.0
 46
0.0
 47
0.0
 48
0.01
140
2.7999999999999989
141
0.0
142
0.0
143
25.399999999999999
144
1.0
145
0.0
146
1.0
147
1.0
 71
     0
 72
     0
 73
     0
 74
     0
 75
     0
 76
     0
 77
     3
 78
     9
170
     0
171
     2
172
     1
173
     0
174
     1
175
     0
176
   256
177
   256
178
    40
  0
DIMSTYLE
  2
BIGT$4
 70
     0
  3

  4

  5
OPEN
  6

  7

 40
1.0
 41
2.2299999999999991
 42
0.5
 43
2.5
 44
1.0
 45
0.0
 46
0.0
 47
0.0
 48
0.01
140
2.7999999999999989
141
0.0
142
0.0
143
25.399999999999999
144
1.0
145
0.0
146
1.0
147
1.0
 71
     0
 72
     0
 73
     0
 74
     0
 75
     0
 76
     0
 77
     3
 78
     9
170
     0
171
     2
172
     1
173
     0
174
     0
175
     0
176
   256
177
   256
178
    40
  0
DIMSTYLE
  2
BIGT$SH
 70
     0
  3

  4

  5
OPEN
  6

  7

 40
1.0
 41
2.2299999999999991
 42
0.5
 43
7.0
 44
1.0
 45
0.0
 46
0.0
 47
0.0
 48
0.0
140
2.7999999999999989
141
0.0
142
0.0
143
25.399999999999999
144
1.0
145
0.0
146
1.0
147
1.0
 71
     0
 72
     0
 73
     0
 74
     0
 75
     0
 76
     0
 77
     3
 78
     9
170
     0
171
     2
172
     1
173
     0
174
     0
175
     0
176
   256
177
   256
178
    40
  0
DIMSTYLE
  2
BIGT$SF
 70
     0
  3

  4

  5
OPEN
  6

  7

 40
1.0
 41
2.2299999999999991
 42
0.5
 43
7.0
 44
1.0
 45
0.0
 46
0.0
 47
0.0
 48
0.0
140
2.7999999999999989
141
0.0
142
0.0
143
25.399999999999999
144
1.0
145
0.0
146
1.0
147
1.0
 71
     0
 72
     0
 73
     0
 74
     0
 75
     0
 76
     0
 77
     3
 78
     9
170
     0
171
     2
172
     1
173
     0
174
     0
175
     0
176
   256
177
   256
178
    40
  0
DIMSTYLE
  2
TECHNICAL_OSAKA
 70
     0
  3

  4
"
  5
OPEN30
  6

  7

 40
1.0
 41
2.5
 42
1.0
 43
10.0
 44
1.0
 45
0.0
 46
0.0
 47
0.1
 48
0.1
140
2.7999999999999989
141
0.0
142
0.0
143
0.0393701
144
1.0
145
0.0
146
0.71
147
1.5
 71
     0
 72
     0
 73
     0
 74
     0
 75
     0
 76
     0
 77
     3
 78
     8
170
     0
171
     2
172
     1
173
     0
174
     0
175
     0
176
   256
177
   256
178
    40
  0
DIMSTYLE
  2
TECHNICAL_OSAKA$3
 70
     0
  3

  4
"
  5
OPEN30
  6

  7

 40
1.0
 41
2.5
 42
1.0
 43
10.0
 44
1.0
 45
0.0
 46
0.0
 47
0.1
 48
0.1
140
2.7999999999999989
141
0.0
142
0.0
143
0.0393701
144
1.0
145
0.0
146
0.71
147
1.5
 71
     0
 72
     0
 73
     0
 74
     1
 75
     0
 76
     0
 77
     3
 78
     8
170
     0
171
     2
172
     0
173
     0
174
     0
175
     0
176
   256
177
   256
178
    40
  0
DIMSTYLE
  2
TECHNICAL_OSAKA$4
 70
     0
  3

  4
"
  5
OPEN30
  6

  7

 40
1.0
 41
2.5
 42
1.0
 43
10.0
 44
1.0
 45
0.0
 46
0.0
 47
0.1
 48
0.1
140
2.7999999999999989
141
0.0
142
0.0
143
0.0393701
144
1.0
145
0.0
146
0.71
147
1.5
 71
     0
 72
     0
 73
     0
 74
     1
 75
     0
 76
     0
 77
     3
 78
     8
170
     0
171
     2
172
     0
173
     0
174
     0
175
     0
176
   256
177
   256
178
    40
  0
DIMSTYLE
  2
TECHNICAL_OSAKA$6
 70
     0
  3

  4
"
  5
OPEN30
  6

  7

 40
1.0
 41
2.5
 42
1.0
 43
10.0
 44
1.0
 45
0.0
 46
0.0
 47
0.1
 48
0.1
140
2.7999999999999989
141
0.0
142
0.0
143
0.0393701
144
1.0
145
0.0
146
0.71
147
1.5
 71
     0
 72
     0
 73
     0
 74
     0
 75
     0
 76
     0
 77
     0
 78
     8
170
     0
171
     2
172
     1
173
     0
174
     0
175
     0
176
   256
177
   256
178
    40
  0
DIMSTYLE
  2
TECHNICAL_OSAKA$7
 70
     0
  3

  4
"
  5
OPEN30
  6

  7

 40
1.0
 41
2.5
 42
1.0
 43
10.0
 44
1.0
 45
0.0
 46
0.0
 47
0.1
 48
0.1
140
2.7999999999999989
141
0.0
142
0.0
143
0.0393701
144
1.0
145
0.0
146
0.71
147
1.5
 71
     0
 72
     0
 73
     0
 74
     0
 75
     0
 76
     0
 77
     3
 78
     8
170
     0
171
     2
172
     1
173
     0
174
     0
175
     0
176
   256
177
   256
178
    40
  0
DIMSTYLE
  2
TECHNICAL_OSAKA$SF
 70
     0
  3

  4
"
  5
OPEN30
  6
OPEN30
  7
OPEN30
 40
1.0
 41
2.5
 42
1.0
 43
10.0
 44
1.0
 45
0.0
 46
0.0
 47
0.1
 48
0.1
140
3.5
141
0.0
142
0.0
143
0.0393701
144
1.0
145
0.0
146
0.71
147
1.5
 71
     0
 72
     0
 73
     0
 74
     0
 75
     1
 76
     1
 77
     3
 78
     8
170
     0
171
     2
172
     1
173
     0
174
     0
175
     0
176
   256
177
   256
178
    40
  0
DIMSTYLE
  2
TECHNICAL_OSAKA$SH
 70
     0
  3

  4
"
  5
OPEN30
  6
GENAXEH
  7
OPEN30
 40
1.0
 41
2.5
 42
1.0
 43
10.0
 44
1.0
 45
0.0
 46
0.0
 47
0.1
 48
0.1
140
3.5
141
0.0
142
0.0
143
0.0393701
144
2.0
145
0.0
146
0.71
147
1.5
 71
     0
 72
     0
 73
     0
 74
     0
 75
     1
 76
     1
 77
     3
 78
     8
170
     0
171
     2
172
     1
173
     1
174
     0
175
     0
176
   256
177
   256
178
    40
  0
ENDTAB
  0
ENDSEC
  0
SECTION
  2
BLOCKS
  0
BLOCK
  8
0
  2
$MODEL_SPACE
 70
     0
 10
0.0
 20
0.0
 30
0.0
  3
$MODEL_SPACE
  1

  0
ENDBLK
  5
1C
  8
0
  0
BLOCK
 67
     1
  8
0
  2
$PAPER_SPACE
 70
     0
 10
0.0
 20
0.0
 30
0.0
  3
$PAPER_SPACE
  1

  0
ENDBLK
  5
19
 67
     1
  8
0
  0
BLOCK
  8
0
  2
_OPEN
 70
     0
 10
0.0
 20
0.0
 30
0.0
  3
_OPEN
  1

  0
LINE
  5
44AF
  8
0
  6
BYBLOCK
 62
     0
 10
-1.0
 20
0.1666666666666666
 30
0.0
 11
0.0
 21
0.0
 31
0.0
  0
LINE
  5
44B0
  8
0
  6
BYBLOCK
 62
     0
 10
-1.0
 20
-0.1666666666666666
 30
0.0
 11
0.0
 21
0.0
 31
0.0
  0
LINE
  5
44B1
  8
0
  6
BYBLOCK
 62
     0
 10
0.0
 20
0.0
 30
0.0
 11
-1.0
 21
0.0
 31
0.0
  0
ENDBLK
  5
44B2
  8
0
  0
BLOCK
  8
0
  2
GENAXEH
 70
     0
 10
0.0
 20
0.0
 30
0.0
  3
GENAXEH
  1

  0
LINE
  5
44EA
  8
0
 10
-1.0
 20
0.0
 30
0.0
 11
1.0
 21
0.0
 31
0.0
  0
ENDBLK
  5
44EB
  8
0
  0
BLOCK
  8
0
  2
_OPEN30
 70
     0
 10
0.0
 20
0.0
 30
0.0
  3
_OPEN30
  1

  0
LINE
  5
4526
  8
0
  6
BYBLOCK
 62
     0
 10
-1.0
 20
0.26794919
 30
0.0
 11
0.0
 21
0.0
 31
0.0
  0
LINE
  5
4527
  8
0
  6
BYBLOCK
 62
     0
 10
0.0
 20
0.0
 30
0.0
 11
-1.0
 21
-0.26794919
 31
0.0
  0
LINE
  5
4528
  8
0
  6
BYBLOCK
 62
     0
 10
0.0
 20
0.0
 30
0.0
 11
-1.0
 21
0.0
 31
0.0
  0
ENDBLK
  5
4529
  8
0
  0
BLOCK
  8
0
  2
*U19
 70
     1
 10
0.0
 20
0.0
 30
0.0
  3
*U19
  1

  0
TEXT
  5
45A9
  8
240
 62
    40
 10
40.999999999999993
 20
10.83333333333333
 30
0.0
 40
2.7999999999999989
  1
27
 50
90.0
  0
ENDBLK
  5
45AB
  8
0
  0
BLOCK
  8
0
  2
*U20
 70
     1
 10
0.0
 20
0.0
 30
0.0
  3
*U20
  1

  0
TEXT
  5
45AD
  8
240
 62
    40
 10
13.33333333333333
 20
36.0
 30
0.0
 40
2.7999999999999989
  1
32
  0
ENDBLK
  5
45AF
  8
0
  0
ENDSEC
  0
SECTION
  2
ENTITIES
  0
LINE
  5
41D3
  8
245
  6
CENTER2
 10
33.084124129631618
 20
0.0
 30
0.0
 11
-3.9635422894959902
 21
0.0
 31
0.0
  0
ARC
  5
41D4
  8
240
  6
CONTINUOUS
 10
9.9080892972015135
 20
23.0
 30
0.0
 40
3.000000000000028
 50
270.0
 51
310.00000000000358
  0
LINE
  5
41D5
  8
240
  6
CONTINUOUS
 10
9.9080892972015135
 20
20.0
 30
0.0
 11
0.0
 21
20.0
 31
0.0
  0
LINE
  5
41D6
  8
240
  6
CONTINUOUS
 10
0.0
 20
-20.0
 30
0.0
 11
10.0
 21
-20.0
 31
0.0
  0
LINE
  5
41D9
  8
240
  6
CONTINUOUS
 10
10.0
 20
-20.0
 30
0.0
 11
10.0
 21
-13.99999999999994
 31
0.0
  0
LINE
  5
41DA
  8
240
  6
CONTINUOUS
 10
0.0
 20
20.0
 30
0.0
 11
0.0
 21
-20.0
 31
0.0
  0
LINE
  5
41DD
  8
240
  6
CONTINUOUS
 10
18.000000000000249
 20
-5.9999999999999432
 30
0.0
 11
19.42253156742731
 21
-5.9999999999999867
 31
0.0
  0
LINE
  5
41E3
  8
240
  6
CONTINUOUS
 10
29.384478548344759
 20
3.1284425725234541
 30
0.0
 11
30.354968920468082
 21
14.22119828521852
 31
0.0
  0
ARC
  5
41E4
  8
240
  6
CONTINUOUS
 10
19.42253156742731
 20
4.0
 30
0.0
 40
9.9999999999999876
 50
270.0
 51
355.00000000000028
  0
LINE
  5
4250
  8
246
  6
PHANTOM2
 10
31.996955758473419
 20
26.130275405801981
 30
0.0
 11
31.01460286620615
 21
14.901930467415481
 31
0.0
  0
ARC
  5
4251
  8
246
  6
PHANTOM2
 10
30.217647107732731
 20
14.97165506161355
 30
0.0
 40
0.8
 50
274.99999999999977
 51
355.00000000000182
1001
GENIUS_GENOBJ-N-FIL_13
1002
{
1000
OWNER
1000
GEN
1002
}
1001
GENIUS_GENODEF_13
1002
{
1000
HIER
1070
     0
1002
}
1002
{
1000
MANEDIT
1070
     0
1002
}
1002
{
1000
NOSEL
1070
     0
1002
}
1002
{
1000
BEHIND
1070
     0
1002
}
1002
{
1000
OTHER
1070
     0
1002
}
1002
{
1000
REACTOR
1002
}
  0
LINE
  5
4252
  8
246
  6
PHANTOM2
 10
19.174699303140201
 20
25.287371701930638
 30
0.0
 11
18.192346410872972
 21
14.059026763544191
 31
0.0
  0
ARC
  5
4253
  8
246
  6
PHANTOM2
 10
19.97165506161361
 20
25.2176471077325
 30
0.0
 40
0.8
 50
94.999999999999602
 51
175.0000000000019
1001
GENIUS_GENODEF_13
1002
{
1000
HIER
1070
     0
1002
}
1002
{
1000
MANEDIT
1070
     0
1002
}
1002
{
1000
NOSEL
1070
     0
1002
}
1002
{
1000
BEHIND
1070
     0
1002
}
1002
{
1000
OTHER
1070
     0
1002
}
1002
{
1000
REACTOR
1002
}
1001
GENIUS_GENOBJ-N-FIL_13
1002
{
1000
OWNER
1000
GEN
1002
}
  0
LINE
  5
4254
  8
246
  6
PHANTOM2
 10
30.287371701930859
 20
14.174699303140139
 30
0.0
 11
19.059026763544459
 21
13.19234641087264
 31
0.0
  0
ARC
  5
4255
  8
246
  6
PHANTOM2
 10
18.989302169346331
 20
13.989302169346059
 30
0.0
 40
0.8
 50
175.0000000000019
 51
274.99999999999977
1001
GENIUS_GENODEF_13
1002
{
1000
HIER
1070
     0
1002
}
1002
{
1000
MANEDIT
1070
     0
1002
}
1002
{
1000
NOSEL
1070
     0
1002
}
1002
{
1000
BEHIND
1070
     0
1002
}
1002
{
1000
OTHER
1070
     0
1002
}
1002
{
1000
REACTOR
1002
}
1001
GENIUS_GENOBJ-N-FIL_13
1002
{
1000
OWNER
1000
GEN
1002
}
  0
LINE
  5
4256
  8
246
  6
PHANTOM2
 10
19.901930467415479
 20
26.014602866205919
 30
0.0
 11
31.130275405801871
 21
26.996955758473408
 31
0.0
  0
ARC
  5
4257
  8
246
  6
PHANTOM2
 10
31.199999999999999
 20
26.199999999999999
 30
0.0
 40
0.8
 50
355.00000000000182
 51
94.999999999999602
1001
GENIUS_GENODEF_13
1002
{
1000
HIER
1070
     0
1002
}
1002
{
1000
MANEDIT
1070
     0
1002
}
1002
{
1000
NOSEL
1070
     0
1002
}
1002
{
1000
BEHIND
1070
     0
1002
}
1002
{
1000
OTHER
1070
     0
1002
}
1002
{
1000
REACTOR
1002
}
1001
GENIUS_GENOBJ-N-FIL_13
1002
{
1000
OWNER
1000
GEN
1002
}
  0
CIRCLE
  5
4258
  8
246
  6
PHANTOM2
 10
25.094651084673171
 20
20.09465108467306
 30
0.0
 40
6.349999999999997
  0
CIRCLE
  5
4259
  8
242
  6
CONTINUOUS
 10
25.094651084673171
 20
20.09465108467306
 30
0.0
 40
2.5
  0
CIRCLE
  5
425A
  8
241
  6
CONTINUOUS
 10
25.094651084673171
 20
20.09465108467306
 30
0.0
 40
2.1000000000000001
  0
ARC
  5
425B
  8
240
  6
CONTINUOUS
 10
18.0
 20
-13.99999999999994
 30
0.0
 40
8.0
 50
89.999999999998195
 51
180.0
1001
GENIUS_GENOBJ-N-FIL_13
1002
{
1000
OWNER
1000
GEN
1002
}
1001
GENIUS_GENODEF_13
1002
{
1000
HIER
1070
     0
1002
}
1002
{
1000
MANEDIT
1070
     0
1002
}
1002
{
1000
NOSEL
1070
     0
1002
}
1002
{
1000
BEHIND
1070
     0
1002
}
1002
{
1000
OTHER
1070
     0
1002
}
1002
{
1000
REACTOR
1002
}
  0
ARC
  5
425C
  8
241
  6
CONTINUOUS
 10
19.440969263831221
 20
14.46025869834375
 30
0.0
 40
2.5
 50
113.9182176334989
 51
335.53316999150348
  0
ARC
  5
4261
  8
240
  6
CONTINUOUS
 10
21.285740144905471
 20
15.279467234258661
 30
0.0
 40
10.22813009643744
 50
101.91120717248241
 51
129.4650039097221
  0
LINE
  5
4262
  8
240
  6
CONTINUOUS
 10
14.78467114857108
 20
23.175716164893348
 30
0.0
 11
11.836452126261291
 21
20.70186667064317
 31
0.0
  0
LINE
  5
4263
  8
241
  6
CONTINUOUS
 10
14.78467114857108
 20
23.175716164893348
 30
0.0
 11
11.83645212626084
 21
20.342212195744199
 31
0.0
  0
ARC
  5
4264
  8
241
  6
CONTINUOUS
 10
16.528772501889168
 20
15.210303767703319
 30
0.0
 40
6.9537295476121193
 50
132.43799215324731
 51
159.86562393020441
  0
POLYLINE
  5
4265
  8
241
  6
CONTINUOUS
 10
12.941443086585483
 20
18.683929373230249
 30
0.0
 66
     1
 70
     8
  0
VERTEX
  8
241
  5
45B0
 10
12.9414
 20
18.6839
 30
0.000000
  70
    32
  0
VERTEX
  8
241
  5
45B1
 10
12.9690
 20
18.6444
 30
0.000000
  70
    32
  0
VERTEX
  8
241
  5
45B2
 10
13.0001
 20
18.6072
 30
0.000000
  70
    32
  0
VERTEX
  8
241
  5
45B3
 10
13.0346
 20
18.5725
 30
0.000000
  70
    32
  0
VERTEX
  8
241
  5
45B4
 10
13.0725
 20
18.5404
 30
0.000000
  70
    32
  0
VERTEX
  8
241
  5
45B5
 10
13.1137
 20
18.5108
 30
0.000000
  70
    32
  0
VERTEX
  8
241
  5
45B6
 10
13.1580
 20
18.4840
 30
0.000000
  70
    32
  0
VERTEX
  8
241
  5
45B7
 10
13.2055
 20
18.4599
 30
0.000000
  70
    32
  0
VERTEX
  8
241
  5
45B8
 10
13.2559
 20
18.4386
 30
0.000000
  70
    32
  0
VERTEX
  8
241
  5
45B9
 10
13.3091
 20
18.4202
 30
0.000000
  70
    32
  0
VERTEX
  8
241
  5
45BA
 10
13.3650
 20
18.4047
 30
0.000000
  70
    32
  0
VERTEX
  8
241
  5
45BB
 10
13.4235
 20
18.3921
 30
0.000000
  70
    32
  0
VERTEX
  8
241
  5
45BC
 10
13.4845
 20
18.3825
 30
0.000000
  70
    32
  0
VERTEX
  8
241
  5
45BD
 10
13.5477
 20
18.3760
 30
0.000000
  70
    32
  0
VERTEX
  8
241
  5
45BE
 10
13.6130
 20
18.3724
 30
0.000000
  70
    32
  0
VERTEX
  8
241
  5
45BF
 10
13.6804
 20
18.3719
 30
0.000000
  70
    32
  0
VERTEX
  8
241
  5
45C0
 10
13.7495
 20
18.3744
 30
0.000000
  70
    32
  0
VERTEX
  8
241
  5
45C1
 10
13.8203
 20
18.3799
 30
0.000000
  70
    32
  0
VERTEX
  8
241
  5
45C2
 10
13.8926
 20
18.3884
 30
0.000000
  70
    32
  0
VERTEX
  8
241
  5
45C3
 10
13.9662
 20
18.4000
 30
0.000000
  70
    32
  0
VERTEX
  8
241
  5
45C4
 10
14.0409
 20
18.4144
 30
0.000000
  70
    32
  0
VERTEX
  8
241
  5
45C5
 10
14.1165
 20
18.4318
 30
0.000000
  70
    32
  0
VERTEX
  8
241
  5
45C6
 10
14.1929
 20
18.4521
 30
0.000000
  70
    32
  0
VERTEX
  8
241
  5
45C7
 10
14.2699
 20
18.4752
 30
0.000000
  70
    32
  0
VERTEX
  8
241
  5
45C8
 10
14.3473
 20
18.5011
 30
0.000000
  70
    32
  0
VERTEX
  8
241
  5
45C9
 10
14.4248
 20
18.5297
 30
0.000000
  70
    32
  0
VERTEX
  8
241
  5
45CA
 10
14.5024
 20
18.5610
 30
0.000000
  70
    32
  0
VERTEX
  8
241
  5
45CB
 10
14.5799
 20
18.5948
 30
0.000000
  70
    32
  0
VERTEX
  8
241
  5
45CC
 10
14.6570
 20
18.6311
 30
0.000000
  70
    32
  0
VERTEX
  8
241
  5
45CD
 10
14.7335
 20
18.6699
 30
0.000000
  70
    32
  0
VERTEX
  8
241
  5
45CE
 10
14.8093
 20
18.7109
 30
0.000000
  70
    32
  0
VERTEX
  8
241
  5
45CF
 10
14.8843
 20
18.7541
 30
0.000000
  70
    32
  0
VERTEX
  8
241
  5
45D0
 10
14.9581
 20
18.7995
 30
0.000000
  70
    32
  0
VERTEX
  8
241
  5
45D1
 10
15.0306
 20
18.8468
 30
0.000000
  70
    32
  0
VERTEX
  8
241
  5
45D2
 10
15.1018
 20
18.8960
 30
0.000000
  70
    32
  0
VERTEX
  8
241
  5
45D3
 10
15.1713
 20
18.9470
 30
0.000000
  70
    32
  0
VERTEX
  8
241
  5
45D4
 10
15.2390
 20
18.9997
 30
0.000000
  70
    32
  0
VERTEX
  8
241
  5
45D5
 10
15.3048
 20
19.0538
 30
0.000000
  70
    32
  0
VERTEX
  8
241
  5
45D6
 10
15.3685
 20
19.1093
 30
0.000000
  70
    32
  0
VERTEX
  8
241
  5
45D7
 10
15.4300
 20
19.1661
 30
0.000000
  70
    32
  0
VERTEX
  8
241
  5
45D8
 10
15.4890
 20
19.2240
 30
0.000000
  70
    32
  0
VERTEX
  8
241
  5
45D9
 10
15.5455
 20
19.2829
 30
0.000000
  70
    32
  0
VERTEX
  8
241
  5
45DA
 10
15.5993
 20
19.3426
 30
0.000000
  70
    32
  0
VERTEX
  8
241
  5
45DB
 10
15.6503
 20
19.4030
 30
0.000000
  70
    32
  0
VERTEX
  8
241
  5
45DC
 10
15.6984
 20
19.4639
 30
0.000000
  70
    32
  0
VERTEX
  8
241
  5
45DD
 10
15.7434
 20
19.5253
 30
0.000000
  70
    32
  0
VERTEX
  8
241
  5
45DE
 10
15.7853
 20
19.5868
 30
0.000000
  70
    32
  0
VERTEX
  8
241
  5
45DF
 10
15.8239
 20
19.6485
 30
0.000000
  70
    32
  0
VERTEX
  8
241
  5
45E0
 10
15.8592
 20
19.7102
 30
0.000000
  70
    32
  0
VERTEX
  8
241
  5
45E1
 10
15.8910
 20
19.7716
 30
0.000000
  70
    32
  0
VERTEX
  8
241
  5
45E2
 10
15.9193
 20
19.8327
 30
0.000000
  70
    32
  0
VERTEX
  8
241
  5
45E3
 10
15.9440
 20
19.8933
 30
0.000000
  70
    32
  0
VERTEX
  8
241
  5
45E4
 10
15.9651
 20
19.9532
 30
0.000000
  70
    32
  0
VERTEX
  8
241
  5
45E5
 10
15.9826
 20
20.0124
 30
0.000000
  70
    32
  0
VERTEX
  8
241
  5
45E6
 10
15.9962
 20
20.0707
 30
0.000000
  70
    32
  0
VERTEX
  8
241
  5
45E7
 10
16.0061
 20
20.1279
 30
0.000000
  70
    32
  0
VERTEX
  8
241
  5
45E8
 10
16.0123
 20
20.1839
 30
0.000000
  70
    32
  0
VERTEX
  8
241
  5
45E9
 10
16.0146
 20
20.2385
 30
0.000000
  70
    32
  0
VERTEX
  8
241
  5
45EA
 10
16.0131
 20
20.2917
 30
0.000000
  70
    32
  0
VERTEX
  8
241
  5
45EB
 10
16.0078
 20
20.3433
 30
0.000000
  70
    32
  0
VERTEX
  8
241
  5
45EC
 10
15.9987
 20
20.3931
 30
0.000000
  70
    32
  0
VERTEX
  8
241
  5
45ED
 10
15.9858
 20
20.4411
 30
0.000000
  70
    32
  0
VERTEX
  8
241
  5
45EE
 10
15.9692
 20
20.4872
 30
0.000000
  70
    32
  0
VERTEX
  8
241
  5
45EF
 10
15.9489
 20
20.5312
 30
0.000000
  70
    32
  0
VERTEX
  8
241
  5
45F0
 10
15.9249
 20
20.5730
 30
0.000000
  70
    32
  0
VERTEX
  8
241
  5
45F1
 10
15.8974
 20
20.6125
 30
0.000000
  70
    32
  0
VERTEX
  8
241
  5
45F2
 10
15.8663
 20
20.6497
 30
0.000000
  70
    32
  0
VERTEX
  8
241
  5
45F3
 10
15.8318
 20
20.6844
 30
0.000000
  70
    32
  0
VERTEX
  8
241
  5
45F4
 10
15.7939
 20
20.7166
 30
0.000000
  70
    32
  0
VERTEX
  8
241
  5
45F5
 10
15.7527
 20
20.7461
 30
0.000000
  70
    32
  0
VERTEX
  8
241
  5
45F6
 10
15.7083
 20
20.7730
 30
0.000000
  70
    32
  0
VERTEX
  8
241
  5
45F7
 10
15.6609
 20
20.7971
 30
0.000000
  70
    32
  0
VERTEX
  8
241
  5
45F8
 10
15.6105
 20
20.8183
 30
0.000000
  70
    32
  0
VERTEX
  8
241
  5
45F9
 10
15.5573
 20
20.8367
 30
0.000000
  70
    32
  0
VERTEX
  8
241
  5
45FA
 10
15.5014
 20
20.8522
 30
0.000000
  70
    32
  0
VERTEX
  8
241
  5
45FB
 10
15.4429
 20
20.8648
 30
0.000000
  70
    32
  0
VERTEX
  8
241
  5
45FC
 10
15.3819
 20
20.8744
 30
0.000000
  70
    32
  0
VERTEX
  8
241
  5
45FD
 10
15.3187
 20
20.8809
 30
0.000000
  70
    32
  0
VERTEX
  8
241
  5
45FE
 10
15.2533
 20
20.8845
 30
0.000000
  70
    32
  0
VERTEX
  8
241
  5
45FF
 10
15.1860
 20
20.8850
 30
0.000000
  70
    32
  0
VERTEX
  8
241
  5
4600
 10
15.1169
 20
20.8825
 30
0.000000
  70
    32
  0
VERTEX
  8
241
  5
4601
 10
15.0461
 20
20.8770
 30
0.000000
  70
    32
  0
VERTEX
  8
241
  5
4602
 10
14.9738
 20
20.8685
 30
0.000000
  70
    32
  0
VERTEX
  8
241
  5
4603
 10
14.9002
 20
20.8570
 30
0.000000
  70
    32
  0
VERTEX
  8
241
  5
4604
 10
14.8255
 20
20.8425
 30
0.000000
  70
    32
  0
VERTEX
  8
241
  5
4605
 10
14.7499
 20
20.8251
 30
0.000000
  70
    32
  0
VERTEX
  8
241
  5
4606
 10
14.6735
 20
20.8048
 30
0.000000
  70
    32
  0
VERTEX
  8
241
  5
4607
 10
14.5965
 20
20.7817
 30
0.000000
  70
    32
  0
VERTEX
  8
241
  5
4608
 10
14.5191
 20
20.7558
 30
0.000000
  70
    32
  0
VERTEX
  8
241
  5
4609
 10
14.4415
 20
20.7272
 30
0.000000
  70
    32
  0
VERTEX
  8
241
  5
460A
 10
14.3639
 20
20.6959
 30
0.000000
  70
    32
  0
VERTEX
  8
241
  5
460B
 10
14.2865
 20
20.6621
 30
0.000000
  70
    32
  0
VERTEX
  8
241
  5
460C
 10
14.2094
 20
20.6258
 30
0.000000
  70
    32
  0
VERTEX
  8
241
  5
460D
 10
14.1329
 20
20.5871
 30
0.000000
  70
    32
  0
VERTEX
  8
241
  5
460E
 10
14.0570
 20
20.5460
 30
0.000000
  70
    32
  0
VERTEX
  8
241
  5
460F
 10
13.9821
 20
20.5028
 30
0.000000
  70
    32
  0
VERTEX
  8
241
  5
4610
 10
13.9083
 20
20.4574
 30
0.000000
  70
    32
  0
VERTEX
  8
241
  5
4611
 10
13.8357
 20
20.4101
 30
0.000000
  70
    32
  0
VERTEX
  8
241
  5
4612
 10
13.7646
 20
20.3609
 30
0.000000
  70
    32
  0
VERTEX
  8
241
  5
4613
 10
13.6951
 20
20.3099
 30
0.000000
  70
    32
  0
VERTEX
  8
241
  5
4614
 10
13.6274
 20
20.2573
 30
0.000000
  70
    32
  0
VERTEX
  8
241
  5
4615
 10
13.5616
 20
20.2031
 30
0.000000
  70
    32
  0
VERTEX
  8
241
  5
4616
 10
13.4979
 20
20.1476
 30
0.000000
  70
    32
  0
VERTEX
  8
241
  5
4617
 10
13.4364
 20
20.0908
 30
0.000000
  70
    32
  0
VERTEX
  8
241
  5
4618
 10
13.3774
 20
20.0329
 30
0.000000
  70
    32
  0
VERTEX
  8
241
  5
4619
 10
13.3209
 20
19.9740
 30
0.000000
  70
    32
  0
VERTEX
  8
241
  5
461A
 10
13.2671
 20
19.9143
 30
0.000000
  70
    32
  0
VERTEX
  8
241
  5
461B
 10
13.2161
 20
19.8539
 30
0.000000
  70
    32
  0
VERTEX
  8
241
  5
461C
 10
13.1680
 20
19.7930
 30
0.000000
  70
    32
  0
VERTEX
  8
241
  5
461D
 10
13.1230
 20
19.7317
 30
0.000000
  70
    32
  0
VERTEX
  8
241
  5
461E
 10
13.0811
 20
19.6701
 30
0.000000
  70
    32
  0
VERTEX
  8
241
  5
461F
 10
13.0425
 20
19.6084
 30
0.000000
  70
    32
  0
VERTEX
  8
241
  5
4620
 10
13.0072
 20
19.5468
 30
0.000000
  70
    32
  0
VERTEX
  8
241
  5
4621
 10
12.9754
 20
19.4853
 30
0.000000
  70
    32
  0
VERTEX
  8
241
  5
4622
 10
12.9471
 20
19.4242
 30
0.000000
  70
    32
  0
VERTEX
  8
241
  5
4623
 10
12.9223
 20
19.3636
 30
0.000000
  70
    32
  0
VERTEX
  8
241
  5
4624
 10
12.9012
 20
19.3037
 30
0.000000
  70
    32
  0
VERTEX
  8
241
  5
4625
 10
12.8838
 20
19.2445
 30
0.000000
  70
    32
  0
VERTEX
  8
241
  5
4626
 10
12.8702
 20
19.1862
 30
0.000000
  70
    32
  0
VERTEX
  8
241
  5
4627
 10
12.8602
 20
19.1291
 30
0.000000
  70
    32
  0
VERTEX
  8
241
  5
4628
 10
12.8541
 20
19.0731
 30
0.000000
  70
    32
  0
VERTEX
  8
241
  5
4629
 10
12.8518
 20
19.0184
 30
0.000000
  70
    32
  0
VERTEX
  8
241
  5
462A
 10
12.8533
 20
18.9652
 30
0.000000
  70
    32
  0
VERTEX
  8
241
  5
462B
 10
12.8586
 20
18.9137
 30
0.000000
  70
    32
  0
VERTEX
  8
241
  5
462C
 10
12.8677
 20
18.8638
 30
0.000000
  70
    32
  0
VERTEX
  8
241
  5
462D
 10
12.8806
 20
18.8158
 30
0.000000
  70
    32
  0
VERTEX
  8
241
  5
462E
 10
12.8972
 20
18.7697
 30
0.000000
  70
    32
  0
VERTEX
  8
241
  5
462F
 10
12.9175
 20
18.7257
 30
0.000000
  70
    32
  0
VERTEX
  8
241
  5
4630
 10
12.9414
 20
18.6839
 30
0.000000
  70
    32
  0
SEQEND
  8
241
  5
4631
  0
LINE
  5
4266
  8
241
  6
CONTINUOUS
 10
10.0
 20
-13.99999999999994
 30
0.0
 11
10.0
 21
17.603937875061781
 31
0.0
  0
LINE
  5
4295
  8
243
  6
HIDDEN2
 10
3.049999999999998
 20
20.0
 30
0.0
 11
3.049999999999998
 21
-20.0
 31
0.0
  0
TEXT
  5
4296
  8
241
  6
CONTINUOUS
 10
0.0
 20
49.0
 30
0.0
 40
3.0
  1
B40-SCLCR-27032-12
  7
YOKO
  0
LINE
  5
4297
  8
250
  6
CONTINUOUS
 10
59.756531718405981
 20
34.906671255150862
 30
0.0
 11
40.45315666962221
 21
34.906671255150862
 31
0.0
  0
LINE
  5
4298
  8
250
  6
CONTINUOUS
 10
40.45315666962221
 20
34.906671255150862
 30
0.0
 11
34.04123084960267
 21
26.46739551876469
 31
0.0
  0
LINE
  5
4299
  8
250
  6
CONTINUOUS
 10
34.04123084960267
 20
26.46739551876469
 30
0.0
 11
32.692151742630131
 21
24.691758854598788
 31
0.0
  0
LINE
  5
429A
  8
250
  6
CONTINUOUS
 10
33.807463849000463
 20
26.645005151848149
 30
0.0
 11
32.692151742630131
 21
24.691758854598788
 31
0.0
  0
LINE
  5
429B
  8
250
  6
CONTINUOUS
 10
32.692151742630131
 20
24.691758854598788
 30
0.0
 11
34.274997850204848
 21
26.28978588568123
 31
0.0
  0
TEXT
  5
429C
  8
250
  6
CONTINUOUS
 10
41.304762924750577
 20
36.462502673616157
 30
0.0
 40
2.799999999999998
  1
CC1204
  7
ACJISTS
  0
LINE
  5
43E0
  8
250
  6
CONTINUOUS
 10
33.584124129631618
 20
-0.0000000000000001
 30
0.0
 11
42.999999999999993
 21
-0.0000000000000028
 31
0.0
  0
LINE
  5
43E1
  8
250
  6
CONTINUOUS
 10
31.699999999999999
 20
27.0
 30
0.0
 11
43.0
 21
27.0
 31
0.0
  0
LINE
  5
43E2
  8
250
  6
CONTINUOUS
 10
41.999999999999993
 20
2.2299999999999969
 30
0.0
 11
42.0
 21
24.77
 31
0.0
  0
LINE
  5
43E6
  8
250
  6
CONTINUOUS
 10
0.0
 20
20.5
 30
0.0
 11
0.000000000000001
 21
36.0
 31
0.0
  0
LINE
  5
43E7
  8
250
  6
CONTINUOUS
 10
32.0
 20
26.699999999999999
 30
0.0
 11
32.0
 21
36.0
 31
0.0
  0
LINE
  5
43E8
  8
250
  6
CONTINUOUS
 10
2.23
 20
35.0
 30
0.0
 11
29.77
 21
35.0
 31
0.0
  0
TEXT
  5
43EC
  8
250
  6
CONTINUOUS
 10
13.33333333333333
 20
36.0
 30
0.0
 40
2.7999999999999989
  1
32
  0
LINE
  5
43ED
  8
250
  6
CONTINUOUS
 10
29.77
 20
35.37166666666667
 30
0.0
 11
32.0
 21
35.0
 31
0.0
  0
LINE
  5
43EE
  8
250
  6
CONTINUOUS
 10
29.77
 20
34.62833333333333
 30
0.0
 11
32.0
 21
35.0
 31
0.0
  0
LINE
  5
43EF
  8
250
  6
CONTINUOUS
 10
32.0
 20
35.0
 30
0.0
 11
29.77
 21
35.0
 31
0.0
  0
LINE
  5
43F0
  8
250
  6
CONTINUOUS
 10
2.23
 20
34.62833333333333
 30
0.0
 11
0.0000000000000009
 21
35.0
 31
0.0
  0
LINE
  5
43F1
  8
250
  6
CONTINUOUS
 10
2.23
 20
35.37166666666667
 30
0.0
 11
0.0000000000000009
 21
35.0
 31
0.0
  0
LINE
  5
43F2
  8
250
  6
CONTINUOUS
 10
0.0000000000000009
 20
35.0
 30
0.0
 11
2.23
 21
35.0
 31
0.0
  0
TEXT
  5
43F3
  8
250
  6
CONTINUOUS
 10
40.999999999999993
 20
10.83333333333333
 30
0.0
 40
2.7999999999999989
  1
27
 50
90.0
  0
LINE
  5
43F4
  8
250
  6
CONTINUOUS
 10
41.62833333333333
 20
24.77
 30
0.0
 11
42.0
 21
27.0
 31
0.0
  0
LINE
  5
43F5
  8
250
  6
CONTINUOUS
 10
42.371666666666663
 20
24.77
 30
0.0
 11
42.0
 21
27.0
 31
0.0
  0
LINE
  5
43F6
  8
250
  6
CONTINUOUS
 10
42.0
 20
27.0
 30
0.0
 11
42.0
 21
24.77
 31
0.0
  0
LINE
  5
43F7
  8
250
  6
CONTINUOUS
 10
42.371666666666663
 20
2.2299999999999969
 30
0.0
 11
41.999999999999993
 21
-0.0000000000000025
 31
0.0
  0
LINE
  5
43F8
  8
250
  6
CONTINUOUS
 10
41.628333333333323
 20
2.2299999999999969
 30
0.0
 11
41.999999999999993
 21
-0.0000000000000025
 31
0.0
  0
LINE
  5
43F9
  8
250
  6
CONTINUOUS
 10
41.999999999999993
 20
-0.0000000000000025
 30
0.0
 11
41.999999999999993
 21
2.2299999999999969
 31
0.0
  0
VIEWPORT
  5
22
 67
     1
  8
0
 10
261.51769911504419
 20
148.5
 30
0.0
 40
523.0353982300885
 41
297.0
 68
     1
 69
     1
1001
ACAD
1000
MVIEW
1002
{
1070
    16
1010
0.0
1020
0.0
1030
0.0
1010
0.0
1020
0.0
1030
1.0
1040
0.0
1040
297.0
1040
261.51769911504419
1040
148.5
1040
50.0
1040
0.0
1040
0.0
1070
     0
1070
   100
1070
     1
1070
     1
1070
     0
1070
     0
1070
     0
1070
     0
1040
0.0
1040
0.0
1040
0.0
1040
1.0
1040
1.0
1040
10.0
1040
10.0
1070
     0
1002
{
1002
}
1002
}
1001
GENIUS_GENODEF_13
1002
{
1000
HIER
1070
     0
1002
}
1002
{
1000
MANEDIT
1070
     0
1002
}
1002
{
1000
NOSEL
1070
     0
1002
}
1002
{
1000
BEHIND
1070
     0
1002
}
1002
{
1000
OTHER
1070
     0
1002
}
1002
{
1000
REACTOR
1002
}
1001
GENIUS_GENOBJ-N-SDF_13
1002
{
1000
OWNER
1000
GEN
1002
}
1001
GENIUS_GENSCREG_15
1000
PF
1040
1.0
1000
DF
1040
1.0
1000
MIN
1011
0.0
1021
0.0
1031
0.0
1021
0.0
1031
0.0
1000
MAX
1011
523.0353982300885
1021
0.0
1031
0.0
1021
297.0
1031
0.0
1000
FLAGS
1070
     4
  0
ENDSEC
  0
EOF
