  0
SECTION
  2
HEADER
  9
$ACADVER
  1
AC1009
  9
$INSBASE
 10
0.0
 20
0.0
 30
0.0
  9
$EXTMIN
 10
-1.7858641824931281
 20
-20.000000000000011
 30
0.0
  9
$EXTMAX
 10
66.075730960482616
 20
52.0
 30
0.0
  9
$LIMMIN
 10
0.0
 20
0.0
  9
$LIMMAX
 10
297.0
 20
210.0
  9
$ORTHOMODE
 70
     0
  9
$REGENMODE
 70
     1
  9
$FILLMODE
 70
     1
  9
$QTEXTMODE
 70
     0
  9
$MIRRTEXT
 70
     1
  9
$DRAGMODE
 70
     2
  9
$LTSCALE
 40
10.0
  9
$OSMODE
 70
    39
  9
$ATTMODE
 70
     1
  9
$TEXTSIZE
 40
3.0
  9
$TRACEWID
 40
1.0
  9
$TEXTSTYLE
  7
YOKO
  9
$CLAYER
  8
240
  9
$CELTYPE
  6
BYLAYER
  9
$CECOLOR
 62
   256
  9
$DIMSCALE
 40
1.0
  9
$DIMASZ
 40
2.2299999999999991
  9
$DIMEXO
 40
0.5
  9
$DIMDLI
 40
7.0
  9
$DIMRND
 40
0.0
  9
$DIMDLE
 40
0.0
  9
$DIMEXE
 40
1.0
  9
$DIMTP
 40
0.0
  9
$DIMTM
 40
0.01
  9
$DIMTXT
 40
2.799999999999998
  9
$DIMCEN
 40
0.0
  9
$DIMTSZ
 40
0.0
  9
$DIMTOL
 70
     0
  9
$DIMLIM
 70
     0
  9
$DIMTIH
 70
     0
  9
$DIMTOH
 70
     0
  9
$DIMSE1
 70
     0
  9
$DIMSE2
 70
     0
  9
$DIMTAD
 70
     3
  9
$DIMZIN
 70
     9
  9
$DIMBLK
  1
OPEN
  9
$DIMASO
 70
     1
  9
$DIMSHO
 70
     1
  9
$DIMPOST
  1

  9
$DIMAPOST
  1

  9
$DIMALT
 70
     0
  9
$DIMALTD
 70
     2
  9
$DIMALTF
 40
25.399999999999999
  9
$DIMLFAC
 40
1.0
  9
$DIMTOFL
 70
     1
  9
$DIMTVP
 40
0.0
  9
$DIMTIX
 70
     1
  9
$DIMSOXD
 70
     0
  9
$DIMSAH
 70
     0
  9
$DIMBLK1
  1

  9
$DIMBLK2
  1

  9
$DIMSTYLE
  2
BIGT
  9
$DIMCLRD
 70
   256
  9
$DIMCLRE
 70
   256
  9
$DIMCLRT
 70
    40
  9
$DIMTFAC
 40
1.0
  9
$DIMGAP
 40
1.0
  9
$LUNITS
 70
     2
  9
$LUPREC
 70
     6
  9
$SKETCHINC
 40
1.0
  9
$FILLETRAD
 40
1.5
  9
$AUNITS
 70
     0
  9
$AUPREC
 70
     6
  9
$MENU
  1
.
  9
$ELEVATION
 40
0.0
  9
$PELEVATION
 40
0.0
  9
$THICKNESS
 40
0.0
  9
$LIMCHECK
 70
     0
  9
$BLIPMODE
 70
     0
  9
$CHAMFERA
 40
0.2
  9
$CHAMFERB
 40
0.2
  9
$SKPOLY
 70
     0
  9
$TDCREATE
 40
2460305.4347651619
  9
$TDUPDATE
 40
2460306.4467799538
  9
$TDINDWG
 40
0.0869022222
  9
$TDUSRTIMER
 40
0.0869021065
  9
$USRTIMER
 70
     1
  9
$ANGBASE
 50
0.0
  9
$ANGDIR
 70
     0
  9
$PDMODE
 70
     1
  9
$PDSIZE
 40
0.0
  9
$PLINEWID
 40
0.0
  9
$COORDS
 70
     1
  9
$SPLFRAME
 70
     0
  9
$SPLINETYPE
 70
     6
  9
$SPLINESEGS
 70
     4
  9
$ATTDIA
 70
     1
  9
$ATTREQ
 70
     1
  9
$HANDLING
 70
     1
  9
$HANDSEED
  5
48FC
  9
$SURFTAB1
 70
     6
  9
$SURFTAB2
 70
     6
  9
$SURFTYPE
 70
     6
  9
$SURFU
 70
     6
  9
$SURFV
 70
     6
  9
$UCSNAME
  2

  9
$UCSORG
 10
0.0
 20
0.0
 30
0.0
  9
$UCSXDIR
 10
1.0
 20
0.0
 30
0.0
  9
$UCSYDIR
 10
0.0
 20
1.0
 30
0.0
  9
$PUCSNAME
  2

  9
$PUCSORG
 10
0.0
 20
0.0
 30
0.0
  9
$PUCSXDIR
 10
1.0
 20
0.0
 30
0.0
  9
$PUCSYDIR
 10
0.0
 20
1.0
 30
0.0
  9
$USERI1
 70
     1
  9
$USERI2
 70
     0
  9
$USERI3
 70
     0
  9
$USERI4
 70
     0
  9
$USERI5
 70
     0
  9
$USERR1
 40
0.0
  9
$USERR2
 40
0.0
  9
$USERR3
 40
0.0
  9
$USERR4
 40
0.0
  9
$USERR5
 40
0.0
  9
$WORLDVIEW
 70
     1
  9
$SHADEDGE
 70
     3
  9
$SHADEDIF
 70
    70
  9
$TILEMODE
 70
     1
  9
$MAXACTVP
 70
    16
  9
$PLIMCHECK
 70
     0
  9
$PEXTMIN
 10
1.0000000000000000E+020
 20
1.0000000000000000E+020
 30
1.0000000000000000E+020
  9
$PEXTMAX
 10
-1.0000000000000000E+020
 20
-1.0000000000000000E+020
 30
-1.0000000000000000E+020
  9
$PLIMMIN
 10
0.0
 20
0.0
  9
$PLIMMAX
 10
420.0
 20
297.0
  9
$UNITMODE
 70
     0
  9
$VISRETAIN
 70
     1
  9
$PLINEGEN
 70
     0
  9
$PSLTSCALE
 70
     1
  0
ENDSEC
  0
SECTION
  2
TABLES
  0
TABLE
  2
VPORT
 70
     1
  0
VPORT
  2
*ACTIVE
 70
     0
 10
0.0
 20
0.0
 11
1.0
 21
1.0
 12
22.99608848304111
 22
29.762536492892419
 13
0.0
 23
0.0
 14
7.0
 24
7.0
 15
7.0
 25
7.0
 16
0.0
 26
0.0
 36
1.0
 17
0.0
 27
0.0
 37
0.0
 40
142.5451511959152
 41
1.765606595995288
 42
50.0
 43
0.0
 44
0.0
 50
0.0
 51
0.0
 71
     0
 72
  2000
 73
     1
 74
     0
 75
     1
 76
     1
 77
     0
 78
     0
  0
ENDTAB
  0
TABLE
  2
LTYPE
 70
    21
  0
LTYPE
  2
CONTINUOUS
 70
     0
  3
Solid line
 72
    65
 73
     0
 40
0.0
  0
LTYPE
  2
CENTER2
 70
     0
  3
___ _ ___ _ ___ _ ___ _ ___ _ ___ _ ___ _ ___ _
 72
    65
 73
     4
 40
1.125
 49
0.75
 49
-0.125
 49
0.125
 49
-0.125
  0
LTYPE
  2
HIDDEN2
 70
     0
  3
_ _ _ _ _ _ _ _ _ _ _ _ _ _ _ _ _ _ _ _ _ _ _ _
 72
    65
 73
     2
 40
0.1875
 49
0.125
 49
-0.0625
  0
LTYPE
  2
PHANTOM2
 70
     0
  3
___ _ _ ___ _ _ ___ _ _ ___ _ _ ___ _ _ ___ _ _
 72
    65
 73
     6
 40
1.25
 49
0.625
 49
-0.125
 49
0.125
 49
-0.125
 49
0.125
 49
-0.125
  0
LTYPE
  2
AMCONSTR
 70
     0
  3
_______________________
 72
    65
 73
     2
 40
9999.0
 49
9999.0
 49
0.0
  0
LTYPE
  2
HIDDEN
 70
     0
  3
Hidden __ __ __ __ __ __ __ __ __ __ __ __ __ _
 72
    65
 73
     2
 40
0.375
 49
0.25
 49
-0.125
  0
LTYPE
  2
CENTER
 70
     0
  3
Center ____ _ ____ _ ____ _ ____ _ ____ _ ____
 72
    65
 73
     4
 40
2.0
 49
1.25
 49
-0.25
 49
0.25
 49
-0.25
  0
LTYPE
  2
AMZIGZAG2
 70
     0
  3
/\/-/\/-/\/-/\/-/\/-/\/
 72
    65
 73
     2
 40
0.4401
 49
0.0001
 49
-0.4400000000000001
  0
LTYPE
  2
ACANSTGB
 70
     0
  3
__ . . __ . .
 72
    65
 73
     6
 40
0.35433070866
 49
0.15748031496
 49
-0.03937007874
 49
0.03937007874
 49
-0.03937007874
 49
0.03937007874
 49
-0.03937007874
  0
LTYPE
  2
ACANSTGL
 70
     0
  3
_ _ _ _ _
 72
    65
 73
     2
 40
0.11811023622
 49
0.07874015748
 49
-0.03937007874
  0
ENDTAB
  0
TABLE
  2
LAYER
 70
     8
  0
LAYER
  2
0
 70
     0
 62
     7
  6
CONTINUOUS
  0
LAYER
  2
240
 70
     0
 62
     4
  6
CONTINUOUS
  0
LAYER
  2
DEFPOINTS
 70
     0
 62
     7
  6
CONTINUOUS
  0
LAYER
  2
245
 70
     0
 62
     2
  6
CENTER2
  0
LAYER
  2
241
 70
     0
 62
   211
  6
CONTINUOUS
  0
LAYER
  2
243
 70
     0
 62
   211
  6
HIDDEN2
  0
LAYER
  2
246
 70
     0
 62
     3
  6
PHANTOM2
  0
LAYER
  2
250
 70
     0
 62
     3
  6
CONTINUOUS
  0
ENDTAB
  0
TABLE
  2
STYLE
 70
    10
  0
STYLE
  2
STANDARD
 70
     0
 40
0.0
 41
1.0
 50
0.0
 71
     0
 42
3.0
  3
romans.shx
  4
extfont.shx
  0
STYLE
  2
YOKO
 70
     0
 40
0.0
 41
1.0
 50
0.0
 71
     0
 42
3.0
  3
romans.shx
  4
extfont.shx
  0
STYLE
  2

 70
     1
 40
0.0
 41
1.0
 50
0.0
 71
     0
 42
3.0
  3
genltshp.shx
  4

  0
STYLE
  2
ACANSGDT
 70
     0
 40
0.0
 41
1.0
 50
0.0
 71
     0
 42
3.0
  3
amgdt.shx
  4

  0
ENDTAB
  0
TABLE
  2
VIEW
 70
     0
  0
ENDTAB
  0
TABLE
  2
UCS
 70
     0
  0
ENDTAB
  0
TABLE
  2
APPID
 70
    46
  0
APPID
  2
ACAD
 70
     0
  0
APPID
  2
ACADANNOTATIVE
 70
     0
  0
APPID
  2
GLOBAL
 70
     0
  0
APPID
  2
DETAIL
 70
     0
  0
APPID
  2
GRPNAME
 70
     0
  0
APPID
  2
GPARA
 70
     0
  0
APPID
  2
MCAD_NO_VIS
 70
     0
  0
APPID
  2
ACAD_TEMP_GRAPHIC
 70
     0
  0
APPID
  2
ACATTRIBSERVICES
 70
     0
  0
APPID
  2
GENIUS_GENSCREG_15
 70
     0
  0
APPID
  2
GENIUS_GENODEF_13
 70
     0
  0
APPID
  2
GENIUS_GENOBJ-N-SDF_13
 70
     0
  0
APPID
  2
GENIUS_GENREC_14
 70
     0
  0
APPID
  2
GENIUS_GENOBJ-N-REC_13
 70
     0
  0
APPID
  2
GENIUS_GENDIMSH_14
 70
     0
  0
APPID
  2
GENIUS_GENOBJ-N-DIM_13
 70
     0
  0
APPID
  2
GENIUS_GENDIM_13
 70
     0
  0
APPID
  2
GENIUS_GENDTOL_13
 70
     0
  0
APPID
  2
GENIUS_GENOLIS_13
 70
     0
  0
APPID
  2
GENIUS_GENOENT_13
 70
     0
  0
APPID
  2
GENIUS_GENOBJ-F-FEM_13
 70
     0
  0
APPID
  2
GENIUS_GENOREF_13
 70
     0
  0
APPID
  2
GENIUS_GEFFEM_13
 70
     0
  0
APPID
  2
GENIUS_GEFFEMP_13
 70
     0
  0
APPID
  2
AD_DRAW
 70
     0
  0
APPID
  2
DESIGNERASSEMBLIES
 70
     0
  0
APPID
  2
ACADM_DIM_EDIT
 70
     0
  0
APPID
  2
AMDT_DM_ADJ
 70
     0
  0
APPID
  2
ITEMNAME
 70
     0
  0
APPID
  2
GENIUS_GENOBJ-N-FIL_13
 70
     0
  0
APPID
  2
GENIUS_GENFIL_13
 70
     0
  0
APPID
  2
GENIUS_GENOBJ-N-CHA_13
 70
     0
  0
APPID
  2
ACAD_NAV_VCDISPLAY
 70
     0
  0
APPID
  2
ACAD_DSTYLE_DIMINSPECT
 70
     0
  0
APPID
  2
ACAD_PSEXT
 70
     0
  0
APPID
  2
ACAECLAYERSTANDARD
 70
     0
  0
APPID
  2
ACAD_DSTYLE_DIMJAG
 70
     0
  0
APPID
  2
ACAD_DSTYLE_DIMBREAK
 70
     0
  0
APPID
  2
ACAD_DSTYLE_DIMANGULAR_EXT
 70
     0
  0
APPID
  2
ACAD_EXEMPT_FROM_CAD_STANDARDS
 70
     0
  0
APPID
  2
ACAD_DSTYLE_DIMRADIAL_EXTENSION
 70
     0
  0
APPID
  2
ACAD_MLEADERVER
 70
     0
  0
APPID
  2
ACAD_DSTYLE_DIMARC_LENGTH_
 70
     0
  0
APPID
  2
ACAD_DSTYLE_DIM_LINETYPE
 70
     0
  0
APPID
  2
ACAD_DSTYLE_DIM_EXT1_LINETYPE
 70
     0
  0
APPID
  2
ACAD_DSTYLE_DIM_EXT2_LINETYPE
 70
     0
  0
ENDTAB
  0
TABLE
  2
DIMSTYLE
 70
    31
  0
DIMSTYLE
  2
STANDARD
 70
     0
  3

  4

  5

  6

  7

 40
1.0
 41
0.18
 42
0.0625
 43
0.38
 44
0.18
 45
0.0
 46
0.0
 47
0.0
 48
0.0
140
0.18
141
0.09
142
0.0
143
25.399999999999999
144
1.0
145
0.0
146
1.0
147
0.09
 71
     0
 72
     0
 73
     1
 74
     1
 75
     0
 76
     0
 77
     0
 78
     0
170
     0
171
     2
172
     0
173
     0
174
     0
175
     0
176
     0
177
     0
178
     0
  0
DIMSTYLE
  2
BIGT
 70
     0
  3

  4

  5

  6

  7

 40
1.0
 41
2.2299999999999991
 42
0.5
 43
7.0
 44
1.0
 45
0.0
 46
0.0
 47
0.0
 48
0.01
140
2.799999999999998
141
0.0
142
0.0
143
25.399999999999999
144
1.0
145
0.0
146
1.0
147
1.0
 71
     0
 72
     0
 73
     0
 74
     0
 75
     0
 76
     0
 77
     3
 78
     9
170
     0
171
     2
172
     1
173
     0
174
     1
175
     0
176
   256
177
   256
178
    40
  0
DIMSTYLE
  2
AM_ANSI
 70
     0
  3

  4
mm
  5

  6

  7

 40
1.0
 41
0.12
 42
0.05
 43
0.5
 44
0.1
 45
0.0
 46
0.0
 47
0.1
 48
0.1
140
0.12
141
0.0
142
0.0
143
25.399999999999999
144
1.0
145
0.0
146
0.71
147
0.06
 71
     0
 72
     0
 73
     1
 74
     1
 75
     0
 76
     0
 77
     0
 78
     7
170
     0
171
     2
172
     0
173
     0
174
     0
175
     0
176
   256
177
   256
178
     2
  0
DIMSTYLE
  2
AM_ANSI$3
 70
     0
  3

  4
mm
  5

  6

  7

 40
1.0
 41
0.12
 42
0.05
 43
0.5
 44
0.1
 45
0.0
 46
0.0
 47
0.1
 48
0.1
140
0.12
141
0.0
142
0.0
143
25.399999999999999
144
1.0
145
0.0
146
0.71
147
0.06
 71
     0
 72
     0
 73
     1
 74
     1
 75
     0
 76
     0
 77
     0
 78
     7
170
     0
171
     2
172
     0
173
     0
174
     0
175
     0
176
   256
177
   256
178
     2
  0
DIMSTYLE
  2
AM_ANSI$4
 70
     0
  3

  4
mm
  5

  6

  7

 40
1.0
 41
0.12
 42
0.05
 43
0.5
 44
0.1
 45
0.0
 46
0.0
 47
0.1
 48
0.1
140
0.12
141
0.0
142
0.0
143
25.399999999999999
144
1.0
145
0.0
146
0.71
147
0.06
 71
     0
 72
     0
 73
     1
 74
     1
 75
     0
 76
     0
 77
     0
 78
     7
170
     0
171
     2
172
     0
173
     0
174
     0
175
     0
176
   256
177
   256
178
     2
  0
DIMSTYLE
  2
AM_ANSI$7
 70
     0
  3

  4
mm
  5

  6

  7

 40
1.0
 41
0.12
 42
0.05
 43
0.5
 44
0.1
 45
0.0
 46
0.0
 47
0.1
 48
0.1
140
0.12
141
0.0
142
0.0
143
25.399999999999999
144
1.0
145
0.0
146
0.71
147
0.06
 71
     0
 72
     0
 73
     1
 74
     1
 75
     0
 76
     0
 77
     0
 78
     7
170
     0
171
     2
172
     0
173
     0
174
     0
175
     0
176
   256
177
   256
178
     2
  0
DIMSTYLE
  2
AM_ANSI$SF
 70
     0
  3

  4
mm
  5

  6

  7

 40
1.0
 41
0.12
 42
0.05
 43
0.5
 44
0.1
 45
0.0
 46
0.0
 47
0.1
 48
0.1
140
0.12
141
0.0
142
0.0
143
25.399999999999999
144
1.0
145
0.0
146
0.71
147
0.06
 71
     0
 72
     0
 73
     1
 74
     1
 75
     1
 76
     1
 77
     0
 78
     7
170
     0
171
     2
172
     0
173
     0
174
     0
175
     0
176
   256
177
   256
178
     2
  0
DIMSTYLE
  2
AM_ANSI$SH
 70
     0
  3

  4
mm
  5

  6
GENAXEH
  7

 40
1.0
 41
0.12
 42
0.05
 43
0.5
 44
0.1
 45
0.0
 46
0.0
 47
0.1
 48
0.1
140
0.12
141
0.0
142
0.0
143
25.399999999999999
144
1.0
145
0.0
146
0.71
147
0.06
 71
     0
 72
     0
 73
     1
 74
     1
 75
     1
 76
     1
 77
     0
 78
     7
170
     0
171
     2
172
     0
173
     1
174
     0
175
     0
176
   256
177
   256
178
     2
  0
ENDTAB
  0
ENDSEC
  0
SECTION
  2
BLOCKS
  0
BLOCK
  8
0
  2
$MODEL_SPACE
 70
     0
 10
0.0
 20
0.0
 30
0.0
  3
$MODEL_SPACE
  1

  0
ENDBLK
  5
47B8
  8
0
  0
BLOCK
 67
     1
  8
0
  2
$PAPER_SPACE
 70
     0
 10
0.0
 20
0.0
 30
0.0
  3
$PAPER_SPACE
  1

  0
ENDBLK
  5
47B4
 67
     1
  8
0
  0
BLOCK
  8
0
  2
_OPEN
 70
     0
 10
0.0
 20
0.0
 30
0.0
  3
_OPEN
  1

  0
LINE
  5
464F
  8
0
  6
BYBLOCK
 62
     0
 10
-1.0
 20
0.1666666666666666
 30
0.0
 11
0.0
 21
0.0
 31
0.0
  0
LINE
  5
4650
  8
0
  6
BYBLOCK
 62
     0
 10
-1.0
 20
-0.1666666666666666
 30
0.0
 11
0.0
 21
0.0
 31
0.0
  0
LINE
  5
4651
  8
0
  6
BYBLOCK
 62
     0
 10
0.0
 20
0.0
 30
0.0
 11
-1.0
 21
0.0
 31
0.0
  0
ENDBLK
  5
4652
  8
0
  0
BLOCK
  8
0
  2
GENAXEH
 70
     0
 10
0.0
 20
0.0
 30
0.0
  3
GENAXEH
  1

  0
LINE
  5
468A
  8
0
 10
-1.0
 20
0.0
 30
0.0
 11
1.0
 21
0.0
 31
0.0
  0
ENDBLK
  5
468B
  8
0
  0
BLOCK
  8
0
  2
_ACMFILLEDHALF
 70
     0
 10
0.0
 20
0.0
 30
0.0
  3
_ACMFILLEDHALF
  1

  0
TRACE
  5
4880
  8
240
 62
     0
 10
-0.8
 20
0.0
 30
0.0
 11
-1.0
 21
0.166666666
 31
0.0
 12
0.0
 22
0.0
 32
0.0
 13
0.0
 23
0.0
 33
0.0
  0
LINE
  5
4881
  8
240
 62
     0
 10
-1.0
 20
0.0
 30
0.0
 11
-0.8
 21
0.0
 31
0.0
  0
ENDBLK
  5
487F
  8
0
  0
ENDSEC
  0
SECTION
  2
ENTITIES
  0
LINE
  5
429E
  8
245
  6
CENTER2
 10
39.240104499645682
 20
-0.0000000000000033
 30
0.0
 11
-1.7858641824931281
 21
0.0000000000000011
 31
0.0
  0
LINE
  5
42A7
  8
241
  6
CONTINUOUS
 10
18.910208716988521
 20
13.282544445246479
 30
0.0
 11
13.51304427136118
 21
7.0095100888087858
 31
0.0
  0
LINE
  5
42A9
  8
240
  6
CONTINUOUS
 10
9.4999987632036511
 20
19.999999087303891
 30
0.0
 11
0.0000000000000604
 21
19.999999087303891
 31
0.0
  0
LINE
  5
42AB
  8
240
  6
CONTINUOUS
 10
-0.0000000000000596
 20
-19.999999087303902
 30
0.0
 11
9.9999979138374595
 21
-19.999999087303902
 31
0.0
  0
LINE
  5
42AD
  8
240
  6
CONTINUOUS
 10
9.8732039332389565
 20
19.899999257177129
 30
0.0
 11
9.4999987632036511
 21
19.999999087303891
 31
0.0
  0
LINE
  5
42AE
  8
240
  6
CONTINUOUS
 10
10.196151211857741
 20
19.899999257177129
 30
0.0
 11
9.8732039332389565
 21
19.899999257177129
 31
0.0
  0
ARC
  5
42B0
  8
240
  6
CONTINUOUS
 10
10.19615120081164
 20
22.899999303371089
 30
0.0
 40
2.9999999999999711
 50
270.0
 51
300.0
  0
LINE
  5
42B1
  8
240
  6
CONTINUOUS
 10
16.59639924764636
 20
23.131082765758048
 30
0.0
 11
11.696150526404351
 21
20.301923155784639
 31
0.0
  0
ARC
  5
42B2
  8
240
  6
CONTINUOUS
 10
21.596399544892769
 20
14.47082875472462
 30
0.0
 40
10.00000000000003
 50
96.000000000001791
 51
120.0000000000001
  0
LINE
  5
42B3
  8
240
  6
CONTINUOUS
 10
32.781634479761152
 20
25.693316478282231
 30
0.0
 11
20.55111527442935
 21
24.416047614067811
 31
0.0
  0
CIRCLE
  5
42CA
  8
241
  6
CONTINUOUS
 10
24.571421060802749
 20
10.0092866861199
 30
0.0
 40
2.968950698337248
  0
LINE
  5
42CC
  8
241
  6
CONTINUOUS
 10
25.369295850396131
 20
12.0891002006829
 30
0.0
 11
23.09531345963472
 21
11.811166536063009
 31
0.0
  0
LINE
  5
42CD
  8
241
  6
CONTINUOUS
 10
23.09531345963472
 20
11.811166536063009
 30
0.0
 11
22.237690165638949
 21
9.7170085646212065
 31
0.0
  0
LINE
  5
42CE
  8
241
  6
CONTINUOUS
 10
22.237690165638949
 20
9.7170085646212065
 30
0.0
 11
23.654051125049531
 21
7.90078612044449
 31
0.0
  0
LINE
  5
42CF
  8
241
  6
CONTINUOUS
 10
23.654051125049531
 20
7.90078612044449
 30
0.0
 11
25.928034447133541
 21
8.1787207163869873
 31
0.0
  0
LINE
  5
42D0
  8
241
  6
CONTINUOUS
 10
25.928034447133541
 20
8.1787207163869873
 30
0.0
 11
26.785656809806849
 21
10.272877756506199
 31
0.0
  0
LINE
  5
42D1
  8
241
  6
CONTINUOUS
 10
26.785656809806849
 20
10.272877756506199
 30
0.0
 11
25.369295850396131
 21
12.0891002006829
 31
0.0
  0
LINE
  5
42F5
  8
241
  6
CONTINUOUS
 10
20.706002736147081
 20
-1.7371526366734751
 30
0.0
 11
13.734847761982371
 21
4.1803667196068899
 31
0.0
  0
LINE
  5
42F8
  8
241
  6
CONTINUOUS
 10
30.842839740216728
 20
6.9986064918338924
 30
0.0
 11
23.51637736437063
 21
-1.5168204633228921
 31
0.0
  0
LINE
  5
4308
  8
241
  6
CONTINUOUS
 10
30.842839740216728
 20
6.9986064918338924
 30
0.0
 11
33.438939223600833
 21
15.61303482353981
 31
0.0
  0
LINE
  5
4314
  8
241
  6
CONTINUOUS
 10
30.964614357799238
 20
20.017718430608522
 30
0.0
 11
20.937353372573881
 21
15.4069564305246
 31
0.0
  0
LINE
  5
4318
  8
241
  6
CONTINUOUS
 10
32.22618969243161
 20
20.630067456960649
 30
0.0
 11
30.964614357799238
 21
20.017718430608522
 31
0.0
  0
LINE
  5
4319
  8
241
  6
CONTINUOUS
 10
18.930761143565121
 20
13.30515043810011
 30
0.0
 11
20.937353372573881
 21
15.4069564305246
 31
0.0
  0
LINE
  5
4323
  8
240
  6
CONTINUOUS
 10
0.0000000000000596
 20
19.999999087303891
 30
0.0
 11
-0.0000000000000596
 21
-19.999999087303902
 31
0.0
  0
LINE
  5
4326
  8
241
  6
CONTINUOUS
 10
6.9999992847442334
 20
-6.2449979595839968
 30
0.0
 11
9.9999979138374595
 21
-6.2449979595839968
 31
0.0
  0
LINE
  5
4327
  8
241
  6
CONTINUOUS
 10
9.9999979138374595
 20
6.244997028261392
 30
0.0
 11
6.9999992847442352
 21
6.244997028261392
 31
0.0
  0
LINE
  5
4328
  8
241
  6
CONTINUOUS
 10
6.9999992847442352
 20
6.244997028261392
 30
0.0
 11
6.9999992847442334
 21
-6.2449979595839968
 31
0.0
  0
LINE
  5
432B
  8
241
  6
CONTINUOUS
 10
9.9999979138374648
 20
17.76977441468577
 30
0.0
 11
9.9999979138374595
 21
-13.60000152513379
 31
0.0
  0
LINE
  5
432E
  8
240
  6
CONTINUOUS
 10
9.9999979138374595
 20
-13.60000152513379
 30
0.0
 11
9.9999979138374595
 21
-19.999999087303902
 31
0.0
  0
LINE
  5
4335
  8
240
  6
CONTINUOUS
 10
27.999999001622228
 20
-7.6000015251337931
 30
0.0
 11
15.99999791383746
 21
-7.600001525133794
 31
0.0
  0
ARC
  5
433C
  8
240
  6
CONTINUOUS
 10
34.19600184825017
 20
30.55818110830776
 30
0.0
 40
5.0662947922046611
 50
253.7892100056936
 51
264.15857801268493
  0
LINE
  5
433D
  8
240
  6
CONTINUOUS
 10
33.798627555370359
 20
25.3048771992326
 30
0.0
 11
33.680377062410152
 21
25.518193608149911
 31
0.0
  0
LINE
  5
433F
  8
240
  6
CONTINUOUS
 10
37.575004418613361
 20
11.397689115256091
 30
0.0
 11
37.112112856553928
 21
11.68144427079956
 31
0.0
  0
LINE
  5
4340
  8
240
  6
CONTINUOUS
 10
37.356337648816449
 20
-1.129719894379382
 30
0.0
 11
37.575004418613361
 21
11.397689115256091
 31
0.0
  0
ARC
  5
4341
  8
240
  6
CONTINUOUS
 10
27.99999729617522
 20
2.4000001658356962
 30
0.0
 40
10.000001690969629
 50
270.00000977148989
 51
339.33079484071231
  0
LINE
  5
4358
  8
241
  6
CONTINUOUS
 10
17.27486551722156
 20
23.371929711646018
 30
0.0
 11
10.950295431637439
 21
19.472162354863649
 31
0.0
  0
LINE
  5
435A
  8
241
  6
CONTINUOUS
 10
32.781634479761152
 20
25.693316478282231
 30
0.0
 11
19.75299450067666
 21
24.227130179043421
 31
0.0
  0
LINE
  5
435C
  8
243
  6
HIDDEN2
 10
26.438521221280041
 20
25.026367977261572
 30
0.0
 11
14.90242671815122
 21
20.365482786152949
 31
0.0
  0
LINE
  5
435D
  8
243
  6
HIDDEN2
 10
15.963605611975339
 20
18.637157593641302
 30
0.0
 11
32.755941618233869
 21
25.421701953746378
 31
0.0
  0
ARC
  5
43EA
  8
240
  6
CONTINUOUS
 10
15.99999791383746
 20
-13.60000152513379
 30
0.0
 40
6.0
 50
90.0
 51
180.0
1001
GENIUS_GENOBJ-N-FIL_13
1002
{
1000
OWNER
1000
GEN
1002
}
1001
GENIUS_GENODEF_13
1002
{
1000
HIER
1070
     0
1002
}
1002
{
1000
MANEDIT
1070
     0
1002
}
1002
{
1000
NOSEL
1070
     0
1002
}
1002
{
1000
BEHIND
1070
     0
1002
}
1002
{
1000
OTHER
1070
     0
1002
}
1002
{
1000
REACTOR
1002
}
  0
ARC
  5
43EF
  8
241
  6
CONTINUOUS
 10
40.486279549320599
 20
-0.0000004656613072
 30
0.0
 40
34.063631040405213
 50
169.43602502906521
 51
190.56397497093471
  0
LINE
  5
43F1
  8
241
  6
CONTINUOUS
 10
17.220633829918238
 20
11.31877969041247
 30
0.0
 11
12.68641278147695
 21
12.189656030386701
 31
0.0
  0
ARC
  5
43F3
  8
241
  6
CONTINUOUS
 10
13.71357652886366
 20
15.98392865970005
 30
0.0
 40
3.9308485279265
 50
199.1388242292233
 51
254.85228774355511
  0
LINE
  5
43F4
  8
241
  6
CONTINUOUS
 10
34.328692286393967
 20
18.887280628687488
 30
0.0
 11
33.438939223600833
 21
15.61303482353981
 31
0.0
  0
LINE
  5
43F7
  8
241
  6
CONTINUOUS
 10
12.68641278147695
 20
-4.9339975230396078
 30
0.0
 11
33.18208047721388
 21
-6.1525458887772988
 31
0.0
  0
ARC
  5
43F9
  8
241
  6
CONTINUOUS
 10
12.801900405447199
 20
4.5839558026863632
 30
0.0
 40
9.5186539438088822
 50
252.880889283963
 51
269.30482651961933
  0
ARC
  5
43FB
  8
241
  6
CONTINUOUS
 10
15.029133264785131
 20
5.7051044141742588
 30
0.0
 40
2.0
 50
139.29210700228981
 51
229.67347763112849
1001
GENIUS_GENOBJ-N-FIL_13
1002
{
1000
OWNER
1000
GEN
1002
}
1001
GENIUS_GENODEF_13
1002
{
1000
HIER
1070
     0
1002
}
1002
{
1000
MANEDIT
1070
     0
1002
}
1002
{
1000
NOSEL
1070
     0
1002
}
1002
{
1000
BEHIND
1070
     0
1002
}
1002
{
1000
OTHER
1070
     0
1002
}
1002
{
1000
REACTOR
1002
}
  0
ARC
  5
43FC
  8
241
  6
CONTINUOUS
 10
22.000288238949839
 20
-0.2124149421061041
 30
0.0
 40
2.0
 50
229.67347763112849
 51
319.29211280022679
1001
GENIUS_GENOBJ-N-FIL_13
1002
{
1000
OWNER
1000
GEN
1002
}
1001
GENIUS_GENODEF_13
1002
{
1000
HIER
1070
     0
1002
}
1002
{
1000
MANEDIT
1070
     0
1002
}
1002
{
1000
NOSEL
1070
     0
1002
}
1002
{
1000
BEHIND
1070
     0
1002
}
1002
{
1000
OTHER
1070
     0
1002
}
1002
{
1000
REACTOR
1002
}
  0
CIRCLE
  5
43FD
  8
241
  6
CONTINUOUS
 10
24.571421060802749
 20
10.0092866861199
 30
0.0
 40
3.8232589455988362
  0
LINE
  5
444E
  8
243
  6
HIDDEN2
 10
3.049999999999967
 20
19.999999999999989
 30
0.0
 11
3.049999999999967
 21
-20.000000000000011
 31
0.0
  0
CIRCLE
  5
445D
  8
246
  6
PHANTOM2
 10
33.115869909838189
 20
19.402663305432242
 30
0.0
 40
4.7649999999999979
  0
LINE
  5
445E
  8
246
  6
PHANTOM2
 10
36.812274147677812
 20
26.89969576571151
 30
0.0
 11
24.799229991050929
 21
20.240756654191429
 31
0.0
  0
ARC
  5
445F
  8
246
  6
PHANTOM2
 10
25.187077687247999
 20
19.541060888479912
 30
0.0
 40
0.8000000000000026
 50
119.0000000000001
 51
239.00000000000011
  0
LINE
  5
4460
  8
246
  6
PHANTOM2
 10
24.775047227319948
 20
18.85532704791822
 30
0.0
 11
36.548379738463588
 21
11.78119518725515
 31
0.0
  0
ARC
  5
4461
  8
246
  6
PHANTOM2
 10
36.960410198391621
 20
12.466929027816841
 30
0.0
 40
0.8000000000000056
 50
239.00000000000011
 51
359.00000000000011
  0
LINE
  5
4462
  8
246
  6
PHANTOM2
 10
37.76028835451676
 20
12.452967102667021
 30
0.0
 11
38.0
 21
26.186038074850181
 31
0.0
  0
ARC
  5
4463
  8
246
  6
PHANTOM2
 10
37.200121843874882
 20
26.199999999999989
 30
0.0
 40
0.8000000000000046
 50
359.00000000000011
 51
119.0000000000001
  0
LINE
  5
44EE
  8
250
  6
CONTINUOUS
 10
0.0000000000000596
 20
20.499999087303891
 30
0.0
 11
0.0000000000000606
 21
36.0
 31
0.0
  0
LINE
  5
44EF
  8
250
  6
CONTINUOUS
 10
38.0
 20
26.686038074850181
 30
0.0
 11
38.0
 21
36.0
 31
0.0
  0
LINE
  5
44F0
  8
250
  6
CONTINUOUS
 10
2.230000000000059
 20
35.0
 30
0.0
 11
35.77000000000001
 21
35.0
 31
0.0
  0
LINE
  5
44F4
  8
250
  6
CONTINUOUS
 10
39.740104499645682
 20
-0.0000000000000034
 30
0.0
 11
50.0
 21
-0.0000000000000083
 31
0.0
  0
LINE
  5
44F5
  8
250
  6
CONTINUOUS
 10
37.700121843874882
 20
27.0
 30
0.0
 11
50.0
 21
26.999999999999989
 31
0.0
  0
LINE
  5
44F6
  8
250
  6
CONTINUOUS
 10
49.0
 20
2.2299999999999911
 30
0.0
 11
49.000000000000007
 21
24.769999999999989
 31
0.0
  0
TEXT
  5
44FA
  8
250
  6
CONTINUOUS
 10
48.0
 20
10.83333333333333
 30
0.0
 40
2.799999999999998
  1
27
 50
90.0
  0
LINE
  5
44FB
  8
250
  6
CONTINUOUS
 10
48.62833333333333
 20
24.769999999999989
 30
0.0
 11
49.000000000000007
 21
26.999999999999989
 31
0.0
  0
LINE
  5
44FC
  8
250
  6
CONTINUOUS
 10
49.371666666666677
 20
24.769999999999989
 30
0.0
 11
49.000000000000007
 21
26.999999999999989
 31
0.0
  0
LINE
  5
44FD
  8
250
  6
CONTINUOUS
 10
49.000000000000007
 20
26.999999999999989
 30
0.0
 11
49.000000000000007
 21
24.769999999999989
 31
0.0
  0
LINE
  5
44FE
  8
250
  6
CONTINUOUS
 10
49.37166666666667
 20
2.2299999999999911
 30
0.0
 11
49.0
 21
-0.000000000000008
 31
0.0
  0
LINE
  5
44FF
  8
250
  6
CONTINUOUS
 10
48.62833333333333
 20
2.2299999999999911
 30
0.0
 11
49.0
 21
-0.000000000000008
 31
0.0
  0
LINE
  5
4500
  8
250
  6
CONTINUOUS
 10
49.0
 20
-0.000000000000008
 30
0.0
 11
49.0
 21
2.2299999999999911
 31
0.0
  0
TEXT
  5
4501
  8
250
  6
CONTINUOUS
 10
16.333333333333371
 20
36.0
 30
0.0
 40
2.799999999999998
  1
38
  0
LINE
  5
4502
  8
250
  6
CONTINUOUS
 10
35.77000000000001
 20
35.37166666666667
 30
0.0
 11
38.0
 21
35.0
 31
0.0
  0
LINE
  5
4503
  8
250
  6
CONTINUOUS
 10
35.77000000000001
 20
34.62833333333333
 30
0.0
 11
38.0
 21
35.0
 31
0.0
  0
LINE
  5
4504
  8
250
  6
CONTINUOUS
 10
38.0
 20
35.0
 30
0.0
 11
35.77000000000001
 21
35.0
 31
0.0
  0
LINE
  5
4505
  8
250
  6
CONTINUOUS
 10
2.230000000000059
 20
34.62833333333333
 30
0.0
 11
0.0000000000000605
 21
35.0
 31
0.0
  0
LINE
  5
4506
  8
250
  6
CONTINUOUS
 10
2.230000000000059
 20
35.37166666666667
 30
0.0
 11
0.0000000000000605
 21
35.0
 31
0.0
  0
LINE
  5
4507
  8
250
  6
CONTINUOUS
 10
0.0000000000000605
 20
35.0
 30
0.0
 11
2.230000000000059
 21
35.0
 31
0.0
  0
LINE
  5
4555
  8
250
  6
CONTINUOUS
 10
66.075730960482616
 20
33.585192831111463
 30
0.0
 11
47.954792129934511
 21
33.585192831111463
 31
0.0
1001
ITEMNAME
1000
LNSP2
  0
TEXT
  5
4556
  8
250
  6
CONTINUOUS
 10
48.907998653884313
 20
34.58428473553996
 30
0.0
 40
3.0
  1
TN1604
  7
YOKO
1001
ITEMNAME
1000
LNSP3
  0
LINE
  5
4557
  8
250
  6
CONTINUOUS
 10
40.352724785001712
 20
21.157679472879781
 30
0.0
 11
38.806779955818229
 21
19.508106589909168
 31
0.0
  0
LINE
  5
4558
  8
250
  6
CONTINUOUS
 10
39.734163588947268
 20
21.569900883265198
 30
0.0
 11
38.806779955818229
 21
19.508106589909168
 31
0.0
  0
LINE
  5
4559
  8
250
  6
CONTINUOUS
 10
38.806779955818229
 20
19.508106589909168
 30
0.0
 11
40.043444186974483
 21
21.363790178072492
 31
0.0
  0
LINE
  5
455A
  8
250
  6
CONTINUOUS
 10
40.043444186974483
 20
21.363790178072492
 30
0.0
 11
47.954792129934511
 21
33.585192831111463
 31
0.0
1001
ACAD
1000
DSTYLE
1002
{
1070
    78
1070
     8
1070
   140
1040
3.0
1002
}
  0
TEXT
  5
455B
  8
241
  6
CONTINUOUS
 10
0.0
 20
49.0
 30
0.0
 40
3.0
  1
B40-DTFNR-27038-16
  7
YOKO
  0
ARC
  5
4583
  8
241
  6
CONTINUOUS
 10
20.42397296382164
 20
18.264765891112351
 30
0.0
 40
6.0
 50
96.420803052544585
 51
121.6582294179594
1001
GENIUS_GENODEF_13
1002
{
1000
HIER
1070
     0
1002
}
1002
{
1000
MANEDIT
1070
     0
1002
}
1002
{
1000
NOSEL
1070
     0
1002
}
1002
{
1000
BEHIND
1070
     0
1002
}
1002
{
1000
OTHER
1070
     0
1002
}
1002
{
1000
REACTOR
1002
}
1001
GENIUS_GENOBJ-N-FIL_13
1002
{
1000
OWNER
1000
GEN
1002
}
  0
ARC
  5
45A2
  8
241
  6
CONTINUOUS
 10
11.99999791383746
 20
17.76977441468577
 30
0.0
 40
2.0
 50
121.6582294179594
 51
180.0
1001
GENIUS_GENODEF_13
1002
{
1000
HIER
1070
     0
1002
}
1002
{
1000
MANEDIT
1070
     0
1002
}
1002
{
1000
NOSEL
1070
     0
1002
}
1002
{
1000
BEHIND
1070
     0
1002
}
1002
{
1000
OTHER
1070
     0
1002
}
1002
{
1000
REACTOR
1002
}
1001
GENIUS_GENOBJ-N-FIL_13
1002
{
1000
OWNER
1000
GEN
1002
}
  0
ARC
  5
45A4
  8
241
  6
CONTINUOUS
 10
32.881185461749411
 20
19.280630336463432
 30
0.0
 40
1.5
 50
344.79738996070051
 51
115.8912143396044
1001
GENIUS_GENOBJ-N-FIL_13
1002
{
1000
OWNER
1000
GEN
1002
}
1001
GENIUS_GENODEF_13
1002
{
1000
HIER
1070
     0
1002
}
1002
{
1000
MANEDIT
1070
     0
1002
}
1002
{
1000
NOSEL
1070
     0
1002
}
1002
{
1000
BEHIND
1070
     0
1002
}
1002
{
1000
OTHER
1070
     0
1002
}
1002
{
1000
REACTOR
1002
}
  0
VIEWPORT
  5
22
 67
     1
  8
0
 10
261.51769911504419
 20
148.5
 30
0.0
 40
523.0353982300885
 41
297.0
 68
     1
 69
     1
1001
ACAD
1000
MVIEW
1002
{
1070
    16
1010
0.0
1020
0.0
1030
0.0
1010
0.0
1020
0.0
1030
1.0
1040
0.0
1040
297.0
1040
261.51769911504419
1040
148.5
1040
50.0
1040
0.0
1040
0.0
1070
     0
1070
   100
1070
     1
1070
     1
1070
     0
1070
     0
1070
     0
1070
     0
1040
0.0
1040
0.0
1040
0.0
1040
1.0
1040
1.0
1040
10.0
1040
10.0
1070
     0
1002
{
1002
}
1002
}
1001
GENIUS_GENODEF_13
1002
{
1000
HIER
1070
     0
1002
}
1002
{
1000
MANEDIT
1070
     0
1002
}
1002
{
1000
NOSEL
1070
     0
1002
}
1002
{
1000
BEHIND
1070
     0
1002
}
1002
{
1000
OTHER
1070
     0
1002
}
1002
{
1000
REACTOR
1002
}
1001
GENIUS_GENOBJ-N-SDF_13
1002
{
1000
OWNER
1000
GEN
1002
}
1001
GENIUS_GENSCREG_15
1000
PF
1040
1.0
1000
DF
1040
1.0
1000
MIN
1011
0.0
1021
0.0
1031
0.0
1021
0.0
1031
0.0
1000
MAX
1011
523.0353982300885
1021
0.0
1031
0.0
1021
297.0
1031
0.0
1000
FLAGS
1070
     4
  0
ENDSEC
  0
EOF
