  0
SECTION
  2
HEADER
  9
$ACADVER
  1
AC1009
  9
$INSBASE
 10
0.0
 20
0.0
 30
0.0
  9
$EXTMIN
 10
-1.6065545871304321
 20
-20.00000000000006
 30
0.0
  9
$EXTMAX
 10
59.756531718405981
 20
52.00000000000005
 30
0.0
  9
$LIMMIN
 10
0.0
 20
0.0
  9
$LIMMAX
 10
297.0
 20
210.0
  9
$ORTHOMODE
 70
     1
  9
$REGENMODE
 70
     1
  9
$FILLMODE
 70
     1
  9
$QTEXTMODE
 70
     0
  9
$MIRRTEXT
 70
     1
  9
$DRAGMODE
 70
     2
  9
$LTSCALE
 40
10.0
  9
$OSMODE
 70
    39
  9
$ATTMODE
 70
     1
  9
$TEXTSIZE
 40
3.0
  9
$TRACEWID
 40
1.0
  9
$TEXTSTYLE
  7
YOKO
  9
$CLAYER
  8
240
  9
$CELTYPE
  6
BYLAYER
  9
$CECOLOR
 62
   256
  9
$DIMSCALE
 40
1.0
  9
$DIMASZ
 40
2.2299999999999991
  9
$DIMEXO
 40
0.5
  9
$DIMDLI
 40
7.0
  9
$DIMRND
 40
0.0
  9
$DIMDLE
 40
0.0
  9
$DIMEXE
 40
1.0
  9
$DIMTP
 40
0.0
  9
$DIMTM
 40
0.01
  9
$DIMTXT
 40
2.799999999999998
  9
$DIMCEN
 40
0.0
  9
$DIMTSZ
 40
0.0
  9
$DIMTOL
 70
     0
  9
$DIMLIM
 70
     0
  9
$DIMTIH
 70
     0
  9
$DIMTOH
 70
     0
  9
$DIMSE1
 70
     0
  9
$DIMSE2
 70
     0
  9
$DIMTAD
 70
     3
  9
$DIMZIN
 70
     9
  9
$DIMBLK
  1
OPEN
  9
$DIMASO
 70
     1
  9
$DIMSHO
 70
     1
  9
$DIMPOST
  1

  9
$DIMAPOST
  1

  9
$DIMALT
 70
     0
  9
$DIMALTD
 70
     2
  9
$DIMALTF
 40
25.399999999999999
  9
$DIMLFAC
 40
1.0
  9
$DIMTOFL
 70
     1
  9
$DIMTVP
 40
0.0
  9
$DIMTIX
 70
     1
  9
$DIMSOXD
 70
     0
  9
$DIMSAH
 70
     0
  9
$DIMBLK1
  1

  9
$DIMBLK2
  1

  9
$DIMSTYLE
  2
BIGT
  9
$DIMCLRD
 70
   256
  9
$DIMCLRE
 70
   256
  9
$DIMCLRT
 70
    40
  9
$DIMTFAC
 40
1.0
  9
$DIMGAP
 40
1.0
  9
$LUNITS
 70
     2
  9
$LUPREC
 70
     6
  9
$SKETCHINC
 40
1.0
  9
$FILLETRAD
 40
2.0
  9
$AUNITS
 70
     0
  9
$AUPREC
 70
     6
  9
$MENU
  1
.
  9
$ELEVATION
 40
0.0
  9
$PELEVATION
 40
0.0
  9
$THICKNESS
 40
0.0
  9
$LIMCHECK
 70
     0
  9
$BLIPMODE
 70
     0
  9
$CHAMFERA
 40
0.2
  9
$CHAMFERB
 40
0.2
  9
$SKPOLY
 70
     0
  9
$TDCREATE
 40
2458950.6672700341
  9
$TDUPDATE
 40
2460307.4709974541
  9
$TDINDWG
 40
0.0350201157
  9
$TDUSRTIMER
 40
0.0350200231
  9
$USRTIMER
 70
     1
  9
$ANGBASE
 50
0.0
  9
$ANGDIR
 70
     0
  9
$PDMODE
 70
     1
  9
$PDSIZE
 40
0.0
  9
$PLINEWID
 40
0.0
  9
$COORDS
 70
     1
  9
$SPLFRAME
 70
     0
  9
$SPLINETYPE
 70
     6
  9
$SPLINESEGS
 70
     4
  9
$ATTDIA
 70
     1
  9
$ATTREQ
 70
     1
  9
$HANDLING
 70
     1
  9
$HANDSEED
  5
54BD
  9
$SURFTAB1
 70
     6
  9
$SURFTAB2
 70
     6
  9
$SURFTYPE
 70
     6
  9
$SURFU
 70
     6
  9
$SURFV
 70
     6
  9
$UCSNAME
  2

  9
$UCSORG
 10
0.0
 20
0.0
 30
0.0
  9
$UCSXDIR
 10
1.0
 20
0.0
 30
0.0
  9
$UCSYDIR
 10
0.0
 20
1.0
 30
0.0
  9
$PUCSNAME
  2

  9
$PUCSORG
 10
0.0
 20
0.0
 30
0.0
  9
$PUCSXDIR
 10
1.0
 20
0.0
 30
0.0
  9
$PUCSYDIR
 10
0.0
 20
1.0
 30
0.0
  9
$USERI1
 70
     1
  9
$USERI2
 70
     0
  9
$USERI3
 70
     0
  9
$USERI4
 70
     0
  9
$USERI5
 70
     0
  9
$USERR1
 40
0.0
  9
$USERR2
 40
0.0
  9
$USERR3
 40
0.0
  9
$USERR4
 40
0.0
  9
$USERR5
 40
0.0
  9
$WORLDVIEW
 70
     1
  9
$SHADEDGE
 70
     3
  9
$SHADEDIF
 70
    70
  9
$TILEMODE
 70
     1
  9
$MAXACTVP
 70
    16
  9
$PLIMCHECK
 70
     0
  9
$PEXTMIN
 10
1.0000000000000000E+020
 20
1.0000000000000000E+020
 30
1.0000000000000000E+020
  9
$PEXTMAX
 10
-1.0000000000000000E+020
 20
-1.0000000000000000E+020
 30
-1.0000000000000000E+020
  9
$PLIMMIN
 10
0.0
 20
0.0
  9
$PLIMMAX
 10
420.0
 20
297.0
  9
$UNITMODE
 70
     0
  9
$VISRETAIN
 70
     1
  9
$PLINEGEN
 70
     0
  9
$PSLTSCALE
 70
     1
  0
ENDSEC
  0
SECTION
  2
TABLES
  0
TABLE
  2
VPORT
 70
     1
  0
VPORT
  2
*ACTIVE
 70
     0
 10
0.0
 20
0.0
 11
1.0
 21
1.0
 12
44.366466681364138
 22
27.393288851794878
 13
0.0
 23
0.0
 14
7.0
 24
7.0
 15
7.0
 25
7.0
 16
0.0
 26
0.0
 36
1.0
 17
0.0
 27
0.0
 37
0.0
 40
127.66485153320259
 41
1.954367666232073
 42
50.0
 43
0.0
 44
0.0
 50
0.0
 51
0.0
 71
     0
 72
  2000
 73
     1
 74
     0
 75
     0
 76
     1
 77
     0
 78
     0
  0
ENDTAB
  0
TABLE
  2
LTYPE
 70
    22
  0
LTYPE
  2
CONTINUOUS
 70
     0
  3
Solid line
 72
    65
 73
     0
 40
0.0
  0
LTYPE
  2
CENTER2
 70
     0
  3
___ _ ___ _ ___ _ ___ _ ___ _ ___ _ ___ _ ___ _
 72
    65
 73
     4
 40
1.125
 49
0.75
 49
-0.125
 49
0.125
 49
-0.125
  0
LTYPE
  2
HIDDEN2
 70
     0
  3
_ _ _ _ _ _ _ _ _ _ _ _ _ _ _ _ _ _ _ _ _ _ _ _
 72
    65
 73
     2
 40
0.1875
 49
0.125
 49
-0.0625
  0
LTYPE
  2
PHANTOM2
 70
     0
  3
___ _ _ ___ _ _ ___ _ _ ___ _ _ ___ _ _ ___ _ _
 72
    65
 73
     6
 40
1.25
 49
0.625
 49
-0.125
 49
0.125
 49
-0.125
 49
0.125
 49
-0.125
  0
LTYPE
  2
AMCONSTR
 70
     0
  3
_______________________
 72
    65
 73
     2
 40
9999.0
 49
9999.0
 49
0.0
  0
LTYPE
  2
HIDDEN
 70
     0
  3
Hidden __ __ __ __ __ __ __ __ __ __ __ __ __ _
 72
    65
 73
     2
 40
0.375
 49
0.25
 49
-0.125
  0
LTYPE
  2
CENTER
 70
     0
  3
Center ____ _ ____ _ ____ _ ____ _ ____ _ ____
 72
    65
 73
     4
 40
2.0
 49
1.25
 49
-0.25
 49
0.25
 49
-0.25
  0
LTYPE
  2
AMZIGZAG2
 70
     0
  3
/\/-/\/-/\/-/\/-/\/-/\/
 72
    65
 73
     2
 40
0.4401
 49
0.0001
 49
-0.4400000000000001
  0
LTYPE
  2
ACANSTGB
 70
     0
  3
__ . . __ . .
 72
    65
 73
     6
 40
0.35433070866
 49
0.15748031496
 49
-0.03937007874
 49
0.03937007874
 49
-0.03937007874
 49
0.03937007874
 49
-0.03937007874
  0
LTYPE
  2
ACANSTGL
 70
     0
  3
_ _ _ _ _
 72
    65
 73
     2
 40
0.11811023622
 49
0.07874015748
 49
-0.03937007874
  0
ENDTAB
  0
TABLE
  2
LAYER
 70
     8
  0
LAYER
  2
0
 70
     0
 62
     7
  6
CONTINUOUS
  0
LAYER
  2
240
 70
     0
 62
     4
  6
CONTINUOUS
  0
LAYER
  2
DEFPOINTS
 70
     0
 62
     7
  6
CONTINUOUS
  0
LAYER
  2
245
 70
     0
 62
     2
  6
CENTER2
  0
LAYER
  2
241
 70
     0
 62
   211
  6
CONTINUOUS
  0
LAYER
  2
243
 70
     0
 62
   211
  6
HIDDEN2
  0
LAYER
  2
246
 70
     0
 62
     3
  6
PHANTOM2
  0
LAYER
  2
250
 70
     0
 62
     3
  6
CONTINUOUS
  0
ENDTAB
  0
TABLE
  2
STYLE
 70
    10
  0
STYLE
  2
STANDARD
 70
     0
 40
0.0
 41
1.0
 50
0.0
 71
     0
 42
3.0
  3
romans.shx
  4
extfont.shx
  0
STYLE
  2
YOKO
 70
     0
 40
0.0
 41
1.0
 50
0.0
 71
     0
 42
3.0
  3
romans.shx
  4
extfont.shx
  0
STYLE
  2
ACJISTS
 70
     0
 40
1.0
 41
1.0
 50
0.0
 71
     0
 42
3.0
  3
amgdt.shx
  4
extfont.shx
  0
STYLE
  2

 70
     1
 40
0.0
 41
1.0
 50
0.0
 71
     0
 42
3.0
  3
genltshp.shx
  4

  0
STYLE
  2
ACANSGDT
 70
     0
 40
0.0
 41
1.0
 50
0.0
 71
     0
 42
3.0
  3
amgdt.shx
  4

  0
ENDTAB
  0
TABLE
  2
VIEW
 70
     0
  0
ENDTAB
  0
TABLE
  2
UCS
 70
     0
  0
ENDTAB
  0
TABLE
  2
APPID
 70
    44
  0
APPID
  2
ACAD
 70
     0
  0
APPID
  2
ACADANNOTATIVE
 70
     0
  0
APPID
  2
GLOBAL
 70
     0
  0
APPID
  2
DETAIL
 70
     0
  0
APPID
  2
GRPNAME
 70
     0
  0
APPID
  2
GPARA
 70
     0
  0
APPID
  2
MCAD_NO_VIS
 70
     0
  0
APPID
  2
ACAD_TEMP_GRAPHIC
 70
     0
  0
APPID
  2
ACATTRIBSERVICES
 70
     0
  0
APPID
  2
GENIUS_GENSCREG_15
 70
     0
  0
APPID
  2
GENIUS_GENODEF_13
 70
     0
  0
APPID
  2
GENIUS_GENOBJ-N-SDF_13
 70
     0
  0
APPID
  2
GENIUS_GENREC_14
 70
     0
  0
APPID
  2
GENIUS_GENOBJ-N-REC_13
 70
     0
  0
APPID
  2
GENIUS_GENDIMSH_14
 70
     0
  0
APPID
  2
GENIUS_GENOBJ-N-DIM_13
 70
     0
  0
APPID
  2
GENIUS_GENDIM_13
 70
     0
  0
APPID
  2
GENIUS_GENDTOL_13
 70
     0
  0
APPID
  2
GENIUS_GENOLIS_13
 70
     0
  0
APPID
  2
GENIUS_GENOENT_13
 70
     0
  0
APPID
  2
GENIUS_GENOBJ-F-FEM_13
 70
     0
  0
APPID
  2
GENIUS_GENOREF_13
 70
     0
  0
APPID
  2
GENIUS_GEFFEM_13
 70
     0
  0
APPID
  2
GENIUS_GEFFEMP_13
 70
     0
  0
APPID
  2
AD_DRAW
 70
     0
  0
APPID
  2
DESIGNERASSEMBLIES
 70
     0
  0
APPID
  2
ACADM_DIM_EDIT
 70
     0
  0
APPID
  2
AMDT_DM_ADJ
 70
     0
  0
APPID
  2
ITEMNAME
 70
     0
  0
APPID
  2
GENIUS_GENOBJ-N-FIL_13
 70
     0
  0
APPID
  2
GENIUS_GENFIL_13
 70
     0
  0
APPID
  2
GENIUS_GENOBJ-N-CHA_13
 70
     0
  0
APPID
  2
ACAD_NAV_VCDISPLAY
 70
     0
  0
APPID
  2
ACAD_DSTYLE_DIMINSPECT
 70
     0
  0
APPID
  2
ACAD_DSTYLE_DIMRADIAL_EXTENSION
 70
     0
  0
APPID
  2
HATCH_TYPE
 70
     0
  0
APPID
  2
HATCH_DISPLAY
 70
     0
  0
APPID
  2
HATCH_DISTANCE
 70
     0
  0
APPID
  2
ACAD_EXEMPT_FROM_CAD_STANDARDS
 70
     0
  0
APPID
  2
ACAD_DSTYLE_DIMANGULAR_EXT
 70
     0
  0
APPID
  2
ACAECLAYERSTANDARD
 70
     0
  0
APPID
  2
ACAD_MLEADERVER
 70
     0
  0
APPID
  2
ACAD_DSTYLE_DIMJAG
 70
     0
  0
APPID
  2
ACAD_DSTYLE_DIMBREAK
 70
     0
  0
ENDTAB
  0
TABLE
  2
DIMSTYLE
 70
    31
  0
DIMSTYLE
  2
STANDARD
 70
     0
  3

  4

  5

  6

  7

 40
1.0
 41
0.18
 42
0.0625
 43
0.38
 44
0.18
 45
0.0
 46
0.0
 47
0.0
 48
0.0
140
0.18
141
0.09
142
0.0
143
25.399999999999999
144
1.0
145
0.0
146
1.0
147
0.09
 71
     0
 72
     0
 73
     1
 74
     1
 75
     0
 76
     0
 77
     0
 78
     0
170
     0
171
     2
172
     0
173
     0
174
     0
175
     0
176
     0
177
     0
178
     0
  0
DIMSTYLE
  2
BIGT
 70
     0
  3

  4

  5

  6

  7

 40
1.0
 41
2.2299999999999991
 42
0.5
 43
7.0
 44
1.0
 45
0.0
 46
0.0
 47
0.0
 48
0.01
140
2.799999999999998
141
0.0
142
0.0
143
25.399999999999999
144
1.0
145
0.0
146
1.0
147
1.0
 71
     0
 72
     0
 73
     0
 74
     0
 75
     0
 76
     0
 77
     3
 78
     9
170
     0
171
     2
172
     1
173
     0
174
     1
175
     0
176
   256
177
   256
178
    40
  0
DIMSTYLE
  2
AM_ANSI
 70
     0
  3

  4
mm
  5

  6

  7

 40
1.0
 41
0.12
 42
0.05
 43
0.5
 44
0.1
 45
0.0
 46
0.0
 47
0.1
 48
0.1
140
0.12
141
0.0
142
0.0
143
25.399999999999999
144
1.0
145
0.0
146
0.71
147
0.06
 71
     0
 72
     0
 73
     1
 74
     1
 75
     0
 76
     0
 77
     0
 78
     7
170
     0
171
     2
172
     0
173
     0
174
     0
175
     0
176
   256
177
   256
178
     2
  0
DIMSTYLE
  2
AM_ANSI$3
 70
     0
  3

  4
mm
  5

  6

  7

 40
1.0
 41
0.12
 42
0.05
 43
0.5
 44
0.1
 45
0.0
 46
0.0
 47
0.1
 48
0.1
140
0.12
141
0.0
142
0.0
143
25.399999999999999
144
1.0
145
0.0
146
0.71
147
0.06
 71
     0
 72
     0
 73
     1
 74
     1
 75
     0
 76
     0
 77
     0
 78
     7
170
     0
171
     2
172
     0
173
     0
174
     0
175
     0
176
   256
177
   256
178
     2
  0
DIMSTYLE
  2
AM_ANSI$4
 70
     0
  3

  4
mm
  5

  6

  7

 40
1.0
 41
0.12
 42
0.05
 43
0.5
 44
0.1
 45
0.0
 46
0.0
 47
0.1
 48
0.1
140
0.12
141
0.0
142
0.0
143
25.399999999999999
144
1.0
145
0.0
146
0.71
147
0.06
 71
     0
 72
     0
 73
     1
 74
     1
 75
     0
 76
     0
 77
     0
 78
     7
170
     0
171
     2
172
     0
173
     0
174
     0
175
     0
176
   256
177
   256
178
     2
  0
DIMSTYLE
  2
AM_ANSI$7
 70
     0
  3

  4
mm
  5

  6

  7

 40
1.0
 41
0.12
 42
0.05
 43
0.5
 44
0.1
 45
0.0
 46
0.0
 47
0.1
 48
0.1
140
0.12
141
0.0
142
0.0
143
25.399999999999999
144
1.0
145
0.0
146
0.71
147
0.06
 71
     0
 72
     0
 73
     1
 74
     1
 75
     0
 76
     0
 77
     0
 78
     7
170
     0
171
     2
172
     0
173
     0
174
     0
175
     0
176
   256
177
   256
178
     2
  0
DIMSTYLE
  2
AM_ANSI$SF
 70
     0
  3

  4
mm
  5

  6

  7

 40
1.0
 41
0.12
 42
0.05
 43
0.5
 44
0.1
 45
0.0
 46
0.0
 47
0.1
 48
0.1
140
0.12
141
0.0
142
0.0
143
25.399999999999999
144
1.0
145
0.0
146
0.71
147
0.06
 71
     0
 72
     0
 73
     1
 74
     1
 75
     1
 76
     1
 77
     0
 78
     7
170
     0
171
     2
172
     0
173
     0
174
     0
175
     0
176
   256
177
   256
178
     2
  0
DIMSTYLE
  2
AM_ANSI$SH
 70
     0
  3

  4
mm
  5

  6
GENAXEH
  7

 40
1.0
 41
0.12
 42
0.05
 43
0.5
 44
0.1
 45
0.0
 46
0.0
 47
0.1
 48
0.1
140
0.12
141
0.0
142
0.0
143
25.399999999999999
144
1.0
145
0.0
146
0.71
147
0.06
 71
     0
 72
     0
 73
     1
 74
     1
 75
     1
 76
     1
 77
     0
 78
     7
170
     0
171
     2
172
     0
173
     1
174
     0
175
     0
176
   256
177
   256
178
     2
  0
ENDTAB
  0
ENDSEC
  0
SECTION
  2
BLOCKS
  0
BLOCK
  8
0
  2
$MODEL_SPACE
 70
     0
 10
0.0
 20
0.0
 30
0.0
  3
$MODEL_SPACE
  1

  0
ENDBLK
  5
5380
  8
0
  0
BLOCK
 67
     1
  8
0
  2
$PAPER_SPACE
 70
     0
 10
0.0
 20
0.0
 30
0.0
  3
$PAPER_SPACE
  1

  0
ENDBLK
  5
537C
 67
     1
  8
0
  0
BLOCK
  8
0
  2
_OPEN
 70
     0
 10
0.0
 20
0.0
 30
0.0
  3
_OPEN
  1

  0
LINE
  5
5155
  8
0
  6
BYBLOCK
 62
     0
 10
-1.0
 20
0.1666666666666666
 30
0.0
 11
0.0
 21
0.0
 31
0.0
  0
LINE
  5
5156
  8
0
  6
BYBLOCK
 62
     0
 10
-1.0
 20
-0.1666666666666666
 30
0.0
 11
0.0
 21
0.0
 31
0.0
  0
LINE
  5
5157
  8
0
  6
BYBLOCK
 62
     0
 10
0.0
 20
0.0
 30
0.0
 11
-1.0
 21
0.0
 31
0.0
  0
ENDBLK
  5
5158
  8
0
  0
BLOCK
  8
0
  2
GENAXEH
 70
     0
 10
0.0
 20
0.0
 30
0.0
  3
GENAXEH
  1

  0
LINE
  5
5190
  8
0
 10
-1.0
 20
0.0
 30
0.0
 11
1.0
 21
0.0
 31
0.0
  0
ENDBLK
  5
5191
  8
0
  0
BLOCK
  8
0
  2
_ACMFILLEDHALF
 70
     0
 10
0.0
 20
0.0
 30
0.0
  3
_ACMFILLEDHALF
  1

  0
TRACE
  5
5446
  8
240
 62
     0
 10
-0.8
 20
0.0
 30
0.0
 11
-1.0
 21
0.166666666
 31
0.0
 12
0.0
 22
0.0
 32
0.0
 13
0.0
 23
0.0
 33
0.0
  0
LINE
  5
5447
  8
240
 62
     0
 10
-1.0
 20
0.0
 30
0.0
 11
-0.8
 21
0.0
 31
0.0
  0
ENDBLK
  5
5445
  8
0
  0
ENDSEC
  0
SECTION
  2
ENTITIES
  0
LINE
  5
4262
  8
245
  6
CENTER2
 10
-1.6065545871304321
 20
0.0
 30
0.0
 11
31.284320888727279
 21
0.0
 31
0.0
  0
LINE
  5
427E
  8
240
  6
CONTINUOUS
 10
13.76723315804929
 20
19.99999999999994
 30
0.0
 11
0.0
 21
19.99999999999994
 31
0.0
  0
LINE
  5
427F
  8
240
  6
CONTINUOUS
 10
0.0
 20
-20.00000000000006
 30
0.0
 11
10.00000000000003
 21
-20.000000000000028
 31
0.0
  0
LINE
  5
4281
  8
240
  6
CONTINUOUS
 10
0.0
 20
19.99999999999994
 30
0.0
 11
0.0
 21
-20.00000000000006
 31
0.0
  0
LINE
  5
4288
  8
241
  6
CONTINUOUS
 10
10.0
 20
17.647819024601219
 30
0.0
 11
10.0
 21
-15.00000000000005
 31
0.0
  0
LINE
  5
4289
  8
241
  6
CONTINUOUS
 10
10.0
 20
6.2449979983983308
 30
0.0
 11
7.0
 21
6.2449979983983308
 31
0.0
  0
LINE
  5
428B
  8
241
  6
CONTINUOUS
 10
7.0
 20
-6.2449979983984463
 30
0.0
 11
10.0
 21
-6.2449979983984463
 31
0.0
  0
LINE
  5
428C
  8
240
  6
CONTINUOUS
 10
10.00000000000002
 20
-15.00000000000006
 30
0.0
 11
10.00000000000003
 21
-20.000000000000028
 31
0.0
  0
LINE
  5
428D
  8
241
  6
CONTINUOUS
 10
7.0
 20
6.2449979983983308
 30
0.0
 11
7.0
 21
-6.2449979983984463
 31
0.0
  0
LINE
  5
42A4
  8
240
  6
CONTINUOUS
 10
31.101799958278178
 20
12.15158690281225
 30
0.0
 11
30.32857307916527
 21
-2.6024608681668151
 31
0.0
  0
ARC
  5
42A5
  8
240
  6
CONTINUOUS
 10
21.0
 20
0.9999999999999431
 30
0.0
 40
10.000000000000011
 50
270.0
 51
338.88469017670212
  0
LINE
  5
42D2
  8
240
  6
CONTINUOUS
 10
21.0
 20
-9.0000000000000711
 30
0.0
 11
16.000000000000039
 21
-9.0000000000000533
 31
0.0
  0
ARC
  5
4DAA
  8
240
  6
CONTINUOUS
 10
16.000000000000021
 20
-15.00000000000005
 30
0.0
 40
6.0
 50
89.999999999999815
 51
180.00000000000011
1001
GENIUS_GENODEF_13
1002
{
1000
HIER
1070
     0
1002
}
1002
{
1000
MANEDIT
1070
     0
1002
}
1002
{
1000
NOSEL
1070
     0
1002
}
1002
{
1000
BEHIND
1070
     0
1002
}
1002
{
1000
OTHER
1070
     0
1002
}
1002
{
1000
REACTOR
1002
}
1001
GENIUS_GENOBJ-N-FIL_13
1002
{
1000
OWNER
1000
GEN
1002
}
  0
LINE
  5
4DBB
  8
246
  6
CONTINUOUS
 10
30.91471493219084
 20
11.989534950850411
 30
0.0
 11
19.423137477291888
 21
4.808841976192447
 31
0.0
  0
LINE
  5
4DBC
  8
246
  6
CONTINUOUS
 10
30.776066354098159
 20
26.878439580119181
 30
0.0
 11
19.281840087868009
 21
19.696091452659729
 31
0.0
  0
ARC
  5
4DBD
  8
246
  6
CONTINUOUS
 10
31.199999999999999
 20
26.19999999999995
 30
0.0
 40
0.8
 50
356.9998509054933
 51
121.9998509006432
1001
GENIUS_GENODEF_13
1002
{
1000
HIER
1070
     0
1002
}
1002
{
1000
MANEDIT
1070
     0
1002
}
1002
{
1000
NOSEL
1070
     0
1002
}
1002
{
1000
BEHIND
1070
     0
1002
}
1002
{
1000
OTHER
1070
     0
1002
}
1002
{
1000
REACTOR
1002
}
1001
GENIUS_GENOBJ-N-FIL_13
1002
{
1000
OWNER
1000
GEN
1002
}
  0
LINE
  5
4DBE
  8
246
  6
CONTINUOUS
 10
18.909519019792452
 20
19.061177863483199
 30
0.0
 11
18.20030031257857
 21
5.5291523998787042
 31
0.0
  0
ARC
  5
4DBF
  8
246
  6
CONTINUOUS
 10
19.708422538661921
 20
19.019307019952421
 30
0.0
 40
0.8
 50
121.9998509006432
 51
176.99985093149041
1001
GENIUS_GENOBJ-N-FIL_13
1002
{
1000
OWNER
1000
GEN
1002
}
1001
GENIUS_GENODEF_13
1002
{
1000
HIER
1070
     0
1002
}
1002
{
1000
MANEDIT
1070
     0
1002
}
1002
{
1000
NOSEL
1070
     0
1002
}
1002
{
1000
BEHIND
1070
     0
1002
}
1002
{
1000
OTHER
1070
     0
1002
}
1002
{
1000
REACTOR
1002
}
  0
ARC
  5
4DC0
  8
246
  6
CONTINUOUS
 10
18.99920383144805
 20
5.4872815563479147
 30
0.0
 40
0.8
 50
176.99985093149041
 51
301.99985089574488
1001
GENIUS_GENOBJ-N-FIL_13
1002
{
1000
OWNER
1000
GEN
1002
}
1001
GENIUS_GENODEF_13
1002
{
1000
HIER
1070
     0
1002
}
1002
{
1000
MANEDIT
1070
     0
1002
}
1002
{
1000
NOSEL
1070
     0
1002
}
1002
{
1000
BEHIND
1070
     0
1002
}
1002
{
1000
OTHER
1070
     0
1002
}
1002
{
1000
REACTOR
1002
}
  0
LINE
  5
4DC1
  8
246
  6
CONTINUOUS
 10
31.289684805197471
 20
12.62610368711262
 30
0.0
 11
31.998903518850479
 21
26.158129156106678
 31
0.0
  0
ARC
  5
4DC2
  8
246
  6
CONTINUOUS
 10
30.490781286346991
 20
12.66797453100588
 30
0.0
 40
0.8
 50
301.99985089574488
 51
356.99985090549421
1001
GENIUS_GENOBJ-N-FIL_13
1002
{
1000
OWNER
1000
GEN
1002
}
1001
GENIUS_GENODEF_13
1002
{
1000
HIER
1070
     0
1002
}
1002
{
1000
MANEDIT
1070
     0
1002
}
1002
{
1000
NOSEL
1070
     0
1002
}
1002
{
1000
BEHIND
1070
     0
1002
}
1002
{
1000
OTHER
1070
     0
1002
}
1002
{
1000
REACTOR
1002
}
  0
CIRCLE
  5
4DC3
  8
246
  6
PHANTOM2
 10
25.099601908671399
 20
15.84364077322966
 30
0.0
 40
6.3500000013304483
  0
LINE
  5
4DC4
  8
240
  6
CONTINUOUS
 10
18.01173037973312
 20
19.647819024601208
 30
0.0
 11
19.792879214286479
 21
20.01542229126294
 31
0.0
  0
LINE
  5
4DC5
  8
240
  6
CONTINUOUS
 10
13.76723315804929
 20
19.99999999999994
 30
0.0
 11
18.01173037973312
 21
19.647819024601208
 31
0.0
  0
LINE
  5
4DC6
  8
241
  6
CONTINUOUS
 10
18.01173037973312
 20
19.647819024601208
 30
0.0
 11
12.0
 21
19.647819024601208
 31
0.0
  0
ARC
  5
4DC8
  8
241
  6
CONTINUOUS
 10
12.0
 20
17.647819024601219
 30
0.0
 40
2.0
 50
90.0
 51
180.0
1001
GENIUS_GENOBJ-N-FIL_13
1002
{
1000
OWNER
1000
GEN
1002
}
1001
GENIUS_GENODEF_13
1002
{
1000
HIER
1070
     0
1002
}
1002
{
1000
MANEDIT
1070
     0
1002
}
1002
{
1000
NOSEL
1070
     0
1002
}
1002
{
1000
BEHIND
1070
     0
1002
}
1002
{
1000
OTHER
1070
     0
1002
}
1002
{
1000
REACTOR
1002
}
  0
LINE
  5
4E13
  8
241
  6
CONTINUOUS
 10
28.707971642970591
 20
6.6336459967859138
 30
0.0
 11
27.348798975095981
 21
14.7522597415148
 31
0.0
  0
CIRCLE
  5
4E16
  8
241
  6
CONTINUOUS
 10
20.958449843114121
 20
0.9070796050854708
 30
0.0
 40
4.2499999999999991
  0
LINE
  5
4E17
  8
241
  6
CONTINUOUS
 10
21.53683378030507
 20
-1.328721224639934
 30
0.0
 11
19.311381496489261
 21
-0.7117159969926094
 31
0.0
  0
LINE
  5
4E18
  8
241
  6
CONTINUOUS
 10
19.311381496489261
 20
-0.7117159969926094
 30
0.0
 11
18.732997552870469
 21
1.524084840393243
 31
0.0
  0
LINE
  5
4E1B
  8
241
  6
CONTINUOUS
 10
16.04478344611665
 20
7.5131449700921129
 30
0.0
 11
13.091704031185021
 21
-3.1382028824751398
 31
0.0
  0
LINE
  5
4E1C
  8
241
  6
CONTINUOUS
 10
25.619142431435961
 20
-6.6114271963591857
 30
0.0
 11
28.572221828780471
 21
4.0399206251621962
 31
0.0
  0
LINE
  5
4E1E
  8
241
  6
CONTINUOUS
 10
22.60551818973898
 20
2.52587520716355
 30
0.0
 11
23.183902126929919
 21
0.2900743774381453
 31
0.0
  0
LINE
  5
4E1F
  8
241
  6
CONTINUOUS
 10
23.183902126929919
 20
0.2900743774381453
 30
0.0
 11
21.53683378030507
 21
-1.328721224639934
 31
0.0
  0
LINE
  5
4E20
  8
241
  6
CONTINUOUS
 10
20.380065891834871
 20
3.142880436043455
 30
0.0
 11
22.60551818973898
 21
2.52587520716355
 31
0.0
  0
LINE
  5
4E21
  8
241
  6
CONTINUOUS
 10
18.732997552870469
 20
1.524084840393243
 30
0.0
 11
20.380065891834871
 21
3.142880436043455
 31
0.0
  0
ARC
  5
4E24
  8
241
  6
CONTINUOUS
 10
25.099601908671389
 20
15.84364077322966
 30
0.0
 40
2.4999999999999991
 50
334.11588248476352
 51
174.89211762991411
  0
LINE
  5
4E25
  8
241
  6
CONTINUOUS
 10
17.263970271178419
 20
9.8064881245281157
 30
0.0
 11
22.609529842415551
 21
16.066219084959432
 31
0.0
  0
POLYLINE
  5
524E
  8
241
 66
     1
 10
0.0
 20
0.0
 30
0.0
 70
     8
  0
VERTEX
  5
524F
  8
241
 10
27.4115
 20
16.7941
 30
0.0
 70
    32
  0
VERTEX
  5
5250
  8
241
 10
27.4115
 20
16.7941
 30
0.0
 70
    32
  0
VERTEX
  5
5251
  8
241
 10
27.4115
 20
16.7941
 30
0.0
 70
    32
  0
VERTEX
  5
5252
  8
241
 10
27.4116
 20
16.7941
 30
0.0
 70
    32
  0
VERTEX
  5
5253
  8
241
 10
27.4116
 20
16.794
 30
0.0
 70
    32
  0
VERTEX
  5
5254
  8
241
 10
27.4116
 20
16.794
 30
0.0
 70
    32
  0
VERTEX
  5
5255
  8
241
 10
27.4116
 20
16.794
 30
0.0
 70
    32
  0
VERTEX
  5
5256
  8
241
 10
27.4116
 20
16.794
 30
0.0
 70
    32
  0
VERTEX
  5
5257
  8
241
 10
27.4116
 20
16.793900000000001
 30
0.0
 70
    32
  0
VERTEX
  5
5258
  8
241
 10
27.4116
 20
16.793900000000001
 30
0.0
 70
    32
  0
VERTEX
  5
5259
  8
241
 10
27.4117
 20
16.793900000000001
 30
0.0
 70
    32
  0
VERTEX
  5
525A
  8
241
 10
27.4117
 20
16.793900000000001
 30
0.0
 70
    32
  0
VERTEX
  5
525B
  8
241
 10
27.4117
 20
16.793800000000001
 30
0.0
 70
    32
  0
VERTEX
  5
525C
  8
241
 10
27.4117
 20
16.793800000000001
 30
0.0
 70
    32
  0
VERTEX
  5
525D
  8
241
 10
27.4117
 20
16.793800000000001
 30
0.0
 70
    32
  0
VERTEX
  5
525E
  8
241
 10
27.4117
 20
16.793800000000001
 30
0.0
 70
    32
  0
VERTEX
  5
525F
  8
241
 10
27.4117
 20
16.793700000000001
 30
0.0
 70
    32
  0
VERTEX
  5
5260
  8
241
 10
27.4117
 20
16.793700000000001
 30
0.0
 70
    32
  0
VERTEX
  5
5261
  8
241
 10
27.411799999999999
 20
16.793700000000001
 30
0.0
 70
    32
  0
VERTEX
  5
5262
  8
241
 10
27.411799999999999
 20
16.793700000000001
 30
0.0
 70
    32
  0
VERTEX
  5
5263
  8
241
 10
27.411799999999999
 20
16.793600000000001
 30
0.0
 70
    32
  0
VERTEX
  5
5264
  8
241
 10
27.411799999999999
 20
16.793600000000001
 30
0.0
 70
    32
  0
VERTEX
  5
5265
  8
241
 10
27.411799999999999
 20
16.793600000000001
 30
0.0
 70
    32
  0
VERTEX
  5
5266
  8
241
 10
27.411799999999999
 20
16.793600000000001
 30
0.0
 70
    32
  0
VERTEX
  5
5267
  8
241
 10
27.411799999999999
 20
16.793500000000002
 30
0.0
 70
    32
  0
VERTEX
  5
5268
  8
241
 10
27.411899999999999
 20
16.793500000000002
 30
0.0
 70
    32
  0
VERTEX
  5
5269
  8
241
 10
27.411899999999999
 20
16.793500000000002
 30
0.0
 70
    32
  0
VERTEX
  5
526A
  8
241
 10
27.411899999999999
 20
16.793500000000002
 30
0.0
 70
    32
  0
VERTEX
  5
526B
  8
241
 10
27.411899999999999
 20
16.793399999999998
 30
0.0
 70
    32
  0
VERTEX
  5
526C
  8
241
 10
27.411899999999999
 20
16.793399999999998
 30
0.0
 70
    32
  0
VERTEX
  5
526D
  8
241
 10
27.411899999999999
 20
16.793399999999998
 30
0.0
 70
    32
  0
VERTEX
  5
526E
  8
241
 10
27.411899999999999
 20
16.793399999999998
 30
0.0
 70
    32
  0
VERTEX
  5
526F
  8
241
 10
27.411899999999999
 20
16.793299999999999
 30
0.0
 70
    32
  0
VERTEX
  5
5270
  8
241
 10
27.411999999999999
 20
16.793299999999999
 30
0.0
 70
    32
  0
VERTEX
  5
5271
  8
241
 10
27.411999999999999
 20
16.793299999999999
 30
0.0
 70
    32
  0
VERTEX
  5
5272
  8
241
 10
27.411999999999999
 20
16.793299999999999
 30
0.0
 70
    32
  0
VERTEX
  5
5273
  8
241
 10
27.411999999999999
 20
16.793299999999999
 30
0.0
 70
    32
  0
VERTEX
  5
5274
  8
241
 10
27.411999999999999
 20
16.793199999999999
 30
0.0
 70
    32
  0
VERTEX
  5
5275
  8
241
 10
27.411999999999999
 20
16.793199999999999
 30
0.0
 70
    32
  0
VERTEX
  5
5276
  8
241
 10
27.411999999999999
 20
16.793199999999999
 30
0.0
 70
    32
  0
VERTEX
  5
5277
  8
241
 10
27.412099999999999
 20
16.793199999999999
 30
0.0
 70
    32
  0
VERTEX
  5
5278
  8
241
 10
27.412099999999999
 20
16.793099999999999
 30
0.0
 70
    32
  0
VERTEX
  5
5279
  8
241
 10
27.412099999999999
 20
16.793099999999999
 30
0.0
 70
    32
  0
VERTEX
  5
527A
  8
241
 10
27.412099999999999
 20
16.793099999999999
 30
0.0
 70
    32
  0
VERTEX
  5
527B
  8
241
 10
27.412099999999999
 20
16.793099999999999
 30
0.0
 70
    32
  0
VERTEX
  5
527C
  8
241
 10
27.412099999999999
 20
16.792999999999999
 30
0.0
 70
    32
  0
VERTEX
  5
527D
  8
241
 10
27.412099999999999
 20
16.792999999999999
 30
0.0
 70
    32
  0
VERTEX
  5
527E
  8
241
 10
27.412099999999999
 20
16.792999999999999
 30
0.0
 70
    32
  0
VERTEX
  5
527F
  8
241
 10
27.412199999999999
 20
16.792999999999999
 30
0.0
 70
    32
  0
VERTEX
  5
5280
  8
241
 10
27.412199999999999
 20
16.792899999999999
 30
0.0
 70
    32
  0
VERTEX
  5
5281
  8
241
 10
27.412199999999999
 20
16.792899999999999
 30
0.0
 70
    32
  0
VERTEX
  5
5282
  8
241
 10
27.412199999999999
 20
16.792899999999999
 30
0.0
 70
    32
  0
VERTEX
  5
5283
  8
241
 10
27.412199999999999
 20
16.792899999999999
 30
0.0
 70
    32
  0
VERTEX
  5
5284
  8
241
 10
27.412199999999999
 20
16.7928
 30
0.0
 70
    32
  0
VERTEX
  5
5285
  8
241
 10
27.412199999999999
 20
16.7928
 30
0.0
 70
    32
  0
VERTEX
  5
5286
  8
241
 10
27.412199999999999
 20
16.7928
 30
0.0
 70
    32
  0
VERTEX
  5
5287
  8
241
 10
27.412299999999998
 20
16.7928
 30
0.0
 70
    32
  0
VERTEX
  5
5288
  8
241
 10
27.412299999999998
 20
16.7927
 30
0.0
 70
    32
  0
VERTEX
  5
5289
  8
241
 10
27.412299999999998
 20
16.7927
 30
0.0
 70
    32
  0
VERTEX
  5
528A
  8
241
 10
27.412299999999998
 20
16.7927
 30
0.0
 70
    32
  0
VERTEX
  5
528B
  8
241
 10
27.412299999999998
 20
16.7927
 30
0.0
 70
    32
  0
VERTEX
  5
528C
  8
241
 10
27.412299999999998
 20
16.7926
 30
0.0
 70
    32
  0
VERTEX
  5
528D
  8
241
 10
27.412299999999998
 20
16.7926
 30
0.0
 70
    32
  0
VERTEX
  5
528E
  8
241
 10
27.412400000000002
 20
16.7926
 30
0.0
 70
    32
  0
VERTEX
  5
528F
  8
241
 10
27.412400000000002
 20
16.7926
 30
0.0
 70
    32
  0
VERTEX
  5
5290
  8
241
 10
27.412400000000002
 20
16.7925
 30
0.0
 70
    32
  0
VERTEX
  5
5291
  8
241
 10
27.412400000000002
 20
16.7925
 30
0.0
 70
    32
  0
VERTEX
  5
5292
  8
241
 10
27.412400000000002
 20
16.7925
 30
0.0
 70
    32
  0
VERTEX
  5
5293
  8
241
 10
27.412400000000002
 20
16.7925
 30
0.0
 70
    32
  0
VERTEX
  5
5294
  8
241
 10
27.412400000000002
 20
16.792400000000001
 30
0.0
 70
    32
  0
VERTEX
  5
5295
  8
241
 10
27.412400000000002
 20
16.792400000000001
 30
0.0
 70
    32
  0
VERTEX
  5
5296
  8
241
 10
27.412500000000001
 20
16.792400000000001
 30
0.0
 70
    32
  0
VERTEX
  5
5297
  8
241
 10
27.412500000000001
 20
16.792400000000001
 30
0.0
 70
    32
  0
VERTEX
  5
5298
  8
241
 10
27.412500000000001
 20
16.792300000000001
 30
0.0
 70
    32
  0
VERTEX
  5
5299
  8
241
 10
27.412500000000001
 20
16.792300000000001
 30
0.0
 70
    32
  0
VERTEX
  5
529A
  8
241
 10
27.412500000000001
 20
16.792300000000001
 30
0.0
 70
    32
  0
VERTEX
  5
529B
  8
241
 10
27.412500000000001
 20
16.792200000000001
 30
0.0
 70
    32
  0
VERTEX
  5
529C
  8
241
 10
27.412500000000001
 20
16.792200000000001
 30
0.0
 70
    32
  0
VERTEX
  5
529D
  8
241
 10
27.412500000000001
 20
16.792200000000001
 30
0.0
 70
    32
  0
VERTEX
  5
529E
  8
241
 10
27.412600000000001
 20
16.792200000000001
 30
0.0
 70
    32
  0
VERTEX
  5
529F
  8
241
 10
27.412600000000001
 20
16.792100000000001
 30
0.0
 70
    32
  0
VERTEX
  5
52A0
  8
241
 10
27.412600000000001
 20
16.792100000000001
 30
0.0
 70
    32
  0
VERTEX
  5
52A1
  8
241
 10
27.412600000000001
 20
16.792100000000001
 30
0.0
 70
    32
  0
VERTEX
  5
52A2
  8
241
 10
27.412600000000001
 20
16.792100000000001
 30
0.0
 70
    32
  0
VERTEX
  5
52A3
  8
241
 10
27.412600000000001
 20
16.792000000000002
 30
0.0
 70
    32
  0
VERTEX
  5
52A4
  8
241
 10
27.412600000000001
 20
16.792000000000002
 30
0.0
 70
    32
  0
VERTEX
  5
52A5
  8
241
 10
27.412600000000001
 20
16.792000000000002
 30
0.0
 70
    32
  0
VERTEX
  5
52A6
  8
241
 10
27.412700000000001
 20
16.792000000000002
 30
0.0
 70
    32
  0
VERTEX
  5
52A7
  8
241
 10
27.412700000000001
 20
16.791899999999998
 30
0.0
 70
    32
  0
VERTEX
  5
52A8
  8
241
 10
27.412700000000001
 20
16.791899999999998
 30
0.0
 70
    32
  0
VERTEX
  5
52A9
  8
241
 10
27.412700000000001
 20
16.791899999999998
 30
0.0
 70
    32
  0
VERTEX
  5
52AA
  8
241
 10
27.412700000000001
 20
16.791899999999998
 30
0.0
 70
    32
  0
VERTEX
  5
52AB
  8
241
 10
27.412700000000001
 20
16.791799999999999
 30
0.0
 70
    32
  0
VERTEX
  5
52AC
  8
241
 10
27.412700000000001
 20
16.791799999999999
 30
0.0
 70
    32
  0
VERTEX
  5
52AD
  8
241
 10
27.412700000000001
 20
16.791799999999999
 30
0.0
 70
    32
  0
VERTEX
  5
52AE
  8
241
 10
27.412700000000001
 20
16.791799999999999
 30
0.0
 70
    32
  0
VERTEX
  5
52AF
  8
241
 10
27.412800000000001
 20
16.791699999999999
 30
0.0
 70
    32
  0
VERTEX
  5
52B0
  8
241
 10
27.412800000000001
 20
16.791699999999999
 30
0.0
 70
    32
  0
VERTEX
  5
52B1
  8
241
 10
27.412800000000001
 20
16.791699999999999
 30
0.0
 70
    32
  0
VERTEX
  5
52B2
  8
241
 10
27.412800000000001
 20
16.791699999999999
 30
0.0
 70
    32
  0
VERTEX
  5
52B3
  8
241
 10
27.412800000000001
 20
16.791599999999999
 30
0.0
 70
    32
  0
VERTEX
  5
52B4
  8
241
 10
27.412800000000001
 20
16.791599999999999
 30
0.0
 70
    32
  0
VERTEX
  5
52B5
  8
241
 10
27.412800000000001
 20
16.791599999999999
 30
0.0
 70
    32
  0
VERTEX
  5
52B6
  8
241
 10
27.412800000000001
 20
16.791599999999999
 30
0.0
 70
    32
  0
VERTEX
  5
52B7
  8
241
 10
27.4129
 20
16.791499999999999
 30
0.0
 70
    32
  0
VERTEX
  5
52B8
  8
241
 10
27.4129
 20
16.791499999999999
 30
0.0
 70
    32
  0
VERTEX
  5
52B9
  8
241
 10
27.4129
 20
16.791499999999999
 30
0.0
 70
    32
  0
VERTEX
  5
52BA
  8
241
 10
27.4129
 20
16.791499999999999
 30
0.0
 70
    32
  0
VERTEX
  5
52BB
  8
241
 10
27.4129
 20
16.791399999999999
 30
0.0
 70
    32
  0
VERTEX
  5
52BC
  8
241
 10
27.4129
 20
16.791399999999999
 30
0.0
 70
    32
  0
VERTEX
  5
52BD
  8
241
 10
27.4129
 20
16.791399999999999
 30
0.0
 70
    32
  0
VERTEX
  5
52BE
  8
241
 10
27.4129
 20
16.791399999999999
 30
0.0
 70
    32
  0
VERTEX
  5
52BF
  8
241
 10
27.413
 20
16.7913
 30
0.0
 70
    32
  0
VERTEX
  5
52C0
  8
241
 10
27.413
 20
16.7913
 30
0.0
 70
    32
  0
VERTEX
  5
52C1
  8
241
 10
27.413
 20
16.7913
 30
0.0
 70
    32
  0
VERTEX
  5
52C2
  8
241
 10
27.413
 20
16.7913
 30
0.0
 70
    32
  0
VERTEX
  5
52C3
  8
241
 10
27.413
 20
16.7912
 30
0.0
 70
    32
  0
VERTEX
  5
52C4
  8
241
 10
27.413
 20
16.7912
 30
0.0
 70
    32
  0
VERTEX
  5
52C5
  8
241
 10
27.413
 20
16.7912
 30
0.0
 70
    32
  0
VERTEX
  5
52C6
  8
241
 10
27.413
 20
16.7912
 30
0.0
 70
    32
  0
VERTEX
  5
52C7
  8
241
 10
27.413
 20
16.7911
 30
0.0
 70
    32
  0
VERTEX
  5
52C8
  8
241
 10
27.4131
 20
16.7911
 30
0.0
 70
    32
  0
VERTEX
  5
52C9
  8
241
 10
27.4131
 20
16.7911
 30
0.0
 70
    32
  0
VERTEX
  5
52CA
  8
241
 10
27.4131
 20
16.7911
 30
0.0
 70
    32
  0
VERTEX
  5
52CB
  8
241
 10
27.4131
 20
16.791
 30
0.0
 70
    32
  0
VERTEX
  5
52CC
  8
241
 10
27.4131
 20
16.791
 30
0.0
 70
    32
  0
VERTEX
  5
52CD
  8
241
 10
27.4131
 20
16.791
 30
0.0
 70
    32
  0
VERTEX
  5
52CE
  8
241
 10
27.4131
 20
16.791
 30
0.0
 70
    32
  0
VERTEX
  5
52CF
  8
241
 10
27.4131
 20
16.790900000000001
 30
0.0
 70
    32
  0
VERTEX
  5
52D0
  8
241
 10
27.4132
 20
16.790900000000001
 30
0.0
 70
    32
  0
VERTEX
  5
52D1
  8
241
 10
27.4132
 20
16.790900000000001
 30
0.0
 70
    32
  0
VERTEX
  5
52D2
  8
241
 10
27.4132
 20
16.790900000000001
 30
0.0
 70
    32
  0
VERTEX
  5
52D3
  8
241
 10
27.4132
 20
16.790800000000001
 30
0.0
 70
    32
  0
VERTEX
  5
52D4
  8
241
 10
27.4132
 20
16.790800000000001
 30
0.0
 70
    32
  0
VERTEX
  5
52D5
  8
241
 10
27.4132
 20
16.790800000000001
 30
0.0
 70
    32
  0
VERTEX
  5
52D6
  8
241
 10
27.4132
 20
16.790700000000001
 30
0.0
 70
    32
  0
VERTEX
  5
52D7
  8
241
 10
27.4132
 20
16.790700000000001
 30
0.0
 70
    32
  0
VERTEX
  5
52D8
  8
241
 10
27.4132
 20
16.790700000000001
 30
0.0
 70
    32
  0
VERTEX
  5
52D9
  8
241
 10
27.4133
 20
16.790700000000001
 30
0.0
 70
    32
  0
VERTEX
  5
52DA
  8
241
 10
27.4133
 20
16.790600000000001
 30
0.0
 70
    32
  0
VERTEX
  5
52DB
  8
241
 10
27.4133
 20
16.790600000000001
 30
0.0
 70
    32
  0
VERTEX
  5
52DC
  8
241
 10
27.4133
 20
16.790600000000001
 30
0.0
 70
    32
  0
VERTEX
  5
52DD
  8
241
 10
27.4133
 20
16.790600000000001
 30
0.0
 70
    32
  0
VERTEX
  5
52DE
  8
241
 10
27.4133
 20
16.790500000000002
 30
0.0
 70
    32
  0
VERTEX
  5
52DF
  8
241
 10
27.4133
 20
16.790500000000002
 30
0.0
 70
    32
  0
VERTEX
  5
52E0
  8
241
 10
27.4133
 20
16.790500000000002
 30
0.0
 70
    32
  0
VERTEX
  5
52E1
  8
241
 10
27.413399999999999
 20
16.790500000000002
 30
0.0
 70
    32
  0
VERTEX
  5
52E2
  8
241
 10
27.413399999999999
 20
16.790400000000002
 30
0.0
 70
    32
  0
VERTEX
  5
52E3
  8
241
 10
27.413399999999999
 20
16.790400000000002
 30
0.0
 70
    32
  0
VERTEX
  5
52E4
  8
241
 10
27.413399999999999
 20
16.790400000000002
 30
0.0
 70
    32
  0
VERTEX
  5
52E5
  8
241
 10
27.413399999999999
 20
16.790400000000002
 30
0.0
 70
    32
  0
VERTEX
  5
52E6
  8
241
 10
27.413399999999999
 20
16.790299999999998
 30
0.0
 70
    32
  0
VERTEX
  5
52E7
  8
241
 10
27.413399999999999
 20
16.790299999999998
 30
0.0
 70
    32
  0
VERTEX
  5
52E8
  8
241
 10
27.413399999999999
 20
16.790299999999998
 30
0.0
 70
    32
  0
VERTEX
  5
52E9
  8
241
 10
27.413399999999999
 20
16.790299999999998
 30
0.0
 70
    32
  0
VERTEX
  5
52EA
  8
241
 10
27.413499999999999
 20
16.790199999999999
 30
0.0
 70
    32
  0
VERTEX
  5
52EB
  8
241
 10
27.413499999999999
 20
16.790199999999999
 30
0.0
 70
    32
  0
VERTEX
  5
52EC
  8
241
 10
27.413499999999999
 20
16.790199999999999
 30
0.0
 70
    32
  0
VERTEX
  5
52ED
  8
241
 10
27.413499999999999
 20
16.790199999999999
 30
0.0
 70
    32
  0
VERTEX
  5
52EE
  8
241
 10
27.413499999999999
 20
16.790099999999999
 30
0.0
 70
    32
  0
VERTEX
  5
52EF
  8
241
 10
27.413499999999999
 20
16.790099999999999
 30
0.0
 70
    32
  0
VERTEX
  5
52F0
  8
241
 10
27.413499999999999
 20
16.790099999999999
 30
0.0
 70
    32
  0
VERTEX
  5
52F1
  8
241
 10
27.413499999999999
 20
16.790099999999999
 30
0.0
 70
    32
  0
VERTEX
  5
52F2
  8
241
 10
27.413499999999999
 20
16.789999999999999
 30
0.0
 70
    32
  0
VERTEX
  5
52F3
  8
241
 10
27.413599999999999
 20
16.789999999999999
 30
0.0
 70
    32
  0
VERTEX
  5
52F4
  8
241
 10
27.413599999999999
 20
16.789999999999999
 30
0.0
 70
    32
  0
VERTEX
  5
52F5
  8
241
 10
27.413599999999999
 20
16.789899999999999
 30
0.0
 70
    32
  0
VERTEX
  5
52F6
  8
241
 10
27.413599999999999
 20
16.789899999999999
 30
0.0
 70
    32
  0
VERTEX
  5
52F7
  8
241
 10
27.413599999999999
 20
16.789899999999999
 30
0.0
 70
    32
  0
VERTEX
  5
52F8
  8
241
 10
27.413599999999999
 20
16.789899999999999
 30
0.0
 70
    32
  0
VERTEX
  5
52F9
  8
241
 10
27.413599999999999
 20
16.7898
 30
0.0
 70
    32
  0
VERTEX
  5
52FA
  8
241
 10
27.413599999999999
 20
16.7898
 30
0.0
 70
    32
  0
VERTEX
  5
52FB
  8
241
 10
27.413599999999999
 20
16.7898
 30
0.0
 70
    32
  0
VERTEX
  5
52FC
  8
241
 10
27.413699999999999
 20
16.7898
 30
0.0
 70
    32
  0
VERTEX
  5
52FD
  8
241
 10
27.413699999999999
 20
16.7897
 30
0.0
 70
    32
  0
VERTEX
  5
52FE
  8
241
 10
27.413699999999999
 20
16.7897
 30
0.0
 70
    32
  0
VERTEX
  5
52FF
  8
241
 10
27.413699999999999
 20
16.7897
 30
0.0
 70
    32
  0
VERTEX
  5
5300
  8
241
 10
27.413699999999999
 20
16.7897
 30
0.0
 70
    32
  0
VERTEX
  5
5301
  8
241
 10
27.413699999999999
 20
16.7896
 30
0.0
 70
    32
  0
VERTEX
  5
5302
  8
241
 10
27.413699999999999
 20
16.7896
 30
0.0
 70
    32
  0
VERTEX
  5
5303
  8
241
 10
27.413699999999999
 20
16.7896
 30
0.0
 70
    32
  0
VERTEX
  5
5304
  8
241
 10
27.413699999999999
 20
16.7896
 30
0.0
 70
    32
  0
VERTEX
  5
5305
  8
241
 10
27.413799999999998
 20
16.7895
 30
0.0
 70
    32
  0
VERTEX
  5
5306
  8
241
 10
27.413799999999998
 20
16.7895
 30
0.0
 70
    32
  0
VERTEX
  5
5307
  8
241
 10
27.413799999999998
 20
16.7895
 30
0.0
 70
    32
  0
VERTEX
  5
5308
  8
241
 10
27.413799999999998
 20
16.7895
 30
0.0
 70
    32
  0
VERTEX
  5
5309
  8
241
 10
27.413799999999998
 20
16.789400000000001
 30
0.0
 70
    32
  0
VERTEX
  5
530A
  8
241
 10
27.413799999999998
 20
16.789400000000001
 30
0.0
 70
    32
  0
VERTEX
  5
530B
  8
241
 10
27.413799999999998
 20
16.789400000000001
 30
0.0
 70
    32
  0
VERTEX
  5
530C
  8
241
 10
27.413799999999998
 20
16.789400000000001
 30
0.0
 70
    32
  0
VERTEX
  5
530D
  8
241
 10
27.413799999999998
 20
16.789300000000001
 30
0.0
 70
    32
  0
VERTEX
  5
530E
  8
241
 10
27.413799999999998
 20
16.789300000000001
 30
0.0
 70
    32
  0
SEQEND
  5
530F
  8
241
  0
ARC
  5
4E2A
  8
241
  6
CONTINUOUS
 10
21.826678090884599
 20
5.9101183587086421
 30
0.0
 40
5.9999999999999991
 50
139.50399995680041
 51
164.50399996629341
1001
GENIUS_GENOBJ-N-FIL_13
1002
{
1000
OWNER
1000
GEN
1002
}
1001
GENIUS_GENODEF_13
1002
{
1000
HIER
1070
     0
1002
}
1002
{
1000
MANEDIT
1070
     0
1002
}
1002
{
1000
NOSEL
1070
     0
1002
}
1002
{
1000
BEHIND
1070
     0
1002
}
1002
{
1000
OTHER
1070
     0
1002
}
1002
{
1000
REACTOR
1002
}
  0
ARC
  5
4E2B
  8
241
  6
CONTINUOUS
 10
22.790327182757551
 20
5.642947232019182
 30
0.0
 40
5.9999999999999991
 50
344.50400001114878
 51
9.5039999774361501
1001
GENIUS_GENODEF_13
1002
{
1000
HIER
1070
     0
1002
}
1002
{
1000
MANEDIT
1070
     0
1002
}
1002
{
1000
NOSEL
1070
     0
1002
}
1002
{
1000
BEHIND
1070
     0
1002
}
1002
{
1000
OTHER
1070
     0
1002
}
1002
{
1000
REACTOR
1002
}
1001
GENIUS_GENOBJ-N-FIL_13
1002
{
1000
OWNER
1000
GEN
1002
}
  0
LINE
  5
4E41
  8
241
  6
CONTINUOUS
 10
14.48466004438863
 20
-5.59984330176772
 30
0.0
 11
23.15750201437595
 21
-8.0043832095715999
 31
0.0
  0
ARC
  5
4E43
  8
241
  6
CONTINUOUS
 10
15.019002246107689
 20
-3.6725450862696349
 30
0.0
 40
1.999999999999998
 50
164.50399996629341
 51
254.50400002799341
1001
GENIUS_GENODEF_13
1002
{
1000
HIER
1070
     0
1002
}
1002
{
1000
MANEDIT
1070
     0
1002
}
1002
{
1000
NOSEL
1070
     0
1002
}
1002
{
1000
BEHIND
1070
     0
1002
}
1002
{
1000
OTHER
1070
     0
1002
}
1002
{
1000
REACTOR
1002
}
1001
GENIUS_GENOBJ-N-FIL_13
1002
{
1000
OWNER
1000
GEN
1002
}
  0
ARC
  5
4E44
  8
241
  6
CONTINUOUS
 10
23.691844216094989
 20
-6.0770849940735294
 30
0.0
 40
1.999999999999998
 50
254.50400002799341
 51
344.50400001114878
1001
GENIUS_GENODEF_13
1002
{
1000
HIER
1070
     0
1002
}
1002
{
1000
MANEDIT
1070
     0
1002
}
1002
{
1000
NOSEL
1070
     0
1002
}
1002
{
1000
BEHIND
1070
     0
1002
}
1002
{
1000
OTHER
1070
     0
1002
}
1002
{
1000
REACTOR
1002
}
1001
GENIUS_GENOBJ-N-FIL_13
1002
{
1000
OWNER
1000
GEN
1002
}
  0
LINE
  5
4EF1
  8
250
  6
CONTINUOUS
 10
59.756531718405981
 20
33.121869713110478
 30
0.0
 11
40.45315666962221
 21
33.121869713110478
 31
0.0
  0
LINE
  5
4EF2
  8
250
  6
CONTINUOUS
 10
40.45315666962221
 20
33.121869713110478
 30
0.0
 11
34.04123084960267
 21
24.68259397672432
 31
0.0
  0
LINE
  5
4EF3
  8
250
  6
CONTINUOUS
 10
34.04123084960267
 20
24.68259397672432
 30
0.0
 11
32.692151742630131
 21
22.906957312558411
 31
0.0
  0
LINE
  5
4EF4
  8
250
  6
CONTINUOUS
 10
33.807463849000463
 20
24.86020360980778
 30
0.0
 11
32.692151742630131
 21
22.906957312558411
 31
0.0
  0
LINE
  5
4EF5
  8
250
  6
CONTINUOUS
 10
32.692151742630131
 20
22.906957312558411
 30
0.0
 11
34.274997850204848
 21
24.50498434364086
 31
0.0
  0
TEXT
  5
4EF6
  8
250
  6
CONTINUOUS
 10
41.304762924750577
 20
34.677701131575787
 30
0.0
 40
2.799999999999998
  1
DN1506
  7
ACJISTS
  0
LINE
  5
4EF7
  8
243
  6
HIDDEN2
 10
3.049999999999998
 20
19.99999999999994
 30
0.0
 11
3.049999999999998
 21
-20.00000000000005
 31
0.0
  0
TEXT
  5
4EF8
  8
241
  6
CONTINUOUS
 10
0.0
 20
49.00000000000005
 30
0.0
 40
3.0
  1
B40-DDUNR-27032-15
  7
YOKO
  0
LINE
  5
4F65
  8
250
  6
CONTINUOUS
 10
31.78432088872729
 20
-0.0000000000000001
 30
0.0
 11
50.0
 21
-0.0000000000000053
 31
0.0
  0
LINE
  5
4F66
  8
250
  6
CONTINUOUS
 10
31.699999999999999
 20
26.99999999999995
 30
0.0
 11
50.0
 21
26.99999999999994
 31
0.0
  0
LINE
  5
4F67
  8
250
  6
CONTINUOUS
 10
48.999999999999993
 20
2.2299999999999951
 30
0.0
 11
49.0
 21
24.769999999999929
 31
0.0
  0
LINE
  5
4F6B
  8
250
  6
CONTINUOUS
 10
0.0
 20
20.49999999999994
 30
0.0
 11
0.000000000000001
 21
36.0
 31
0.0
  0
LINE
  5
4F6C
  8
250
  6
CONTINUOUS
 10
32.0
 20
26.69999999999995
 30
0.0
 11
32.0
 21
36.0
 31
0.0
  0
LINE
  5
4F6D
  8
250
  6
CONTINUOUS
 10
2.2299999999999991
 20
35.0
 30
0.0
 11
29.77
 21
35.0
 31
0.0
  0
TEXT
  5
4F71
  8
250
  6
CONTINUOUS
 10
13.33333333333333
 20
36.0
 30
0.0
 40
2.799999999999998
  1
32
  0
LINE
  5
4F72
  8
250
  6
CONTINUOUS
 10
29.77
 20
35.37166666666667
 30
0.0
 11
32.0
 21
35.0
 31
0.0
  0
LINE
  5
4F73
  8
250
  6
CONTINUOUS
 10
29.77
 20
34.62833333333333
 30
0.0
 11
32.0
 21
35.0
 31
0.0
  0
LINE
  5
4F74
  8
250
  6
CONTINUOUS
 10
32.0
 20
35.0
 30
0.0
 11
29.77
 21
35.0
 31
0.0
  0
LINE
  5
4F75
  8
250
  6
CONTINUOUS
 10
2.2299999999999991
 20
34.62833333333333
 30
0.0
 11
0.0000000000000009
 21
35.0
 31
0.0
  0
LINE
  5
4F76
  8
250
  6
CONTINUOUS
 10
2.2299999999999991
 20
35.37166666666667
 30
0.0
 11
0.0000000000000009
 21
35.0
 31
0.0
  0
LINE
  5
4F77
  8
250
  6
CONTINUOUS
 10
0.0000000000000009
 20
35.0
 30
0.0
 11
2.2299999999999991
 21
35.0
 31
0.0
  0
TEXT
  5
4F78
  8
250
  6
CONTINUOUS
 10
47.999999999999993
 20
10.833333333333311
 30
0.0
 40
2.799999999999998
  1
27
 50
90.0
  0
LINE
  5
4F79
  8
250
  6
CONTINUOUS
 10
48.62833333333333
 20
24.769999999999929
 30
0.0
 11
49.0
 21
26.99999999999994
 31
0.0
  0
LINE
  5
4F7A
  8
250
  6
CONTINUOUS
 10
49.37166666666667
 20
24.769999999999929
 30
0.0
 11
49.0
 21
26.99999999999994
 31
0.0
  0
LINE
  5
4F7B
  8
250
  6
CONTINUOUS
 10
49.0
 20
26.99999999999994
 30
0.0
 11
49.0
 21
24.769999999999929
 31
0.0
  0
LINE
  5
4F7C
  8
250
  6
CONTINUOUS
 10
49.371666666666663
 20
2.2299999999999951
 30
0.0
 11
48.999999999999993
 21
-0.000000000000005
 31
0.0
  0
LINE
  5
4F7D
  8
250
  6
CONTINUOUS
 10
48.628333333333323
 20
2.2299999999999951
 30
0.0
 11
48.999999999999993
 21
-0.000000000000005
 31
0.0
  0
LINE
  5
4F7E
  8
250
  6
CONTINUOUS
 10
48.999999999999993
 20
-0.000000000000005
 30
0.0
 11
48.999999999999993
 21
2.2299999999999951
 31
0.0
  0
ARC
  5
4F81
  8
241
  6
CONTINUOUS
 10
40.839285714282319
 20
-0.0000000000000565
 30
0.0
 40
34.410714285710952
 50
169.54378280303371
 51
190.45621719696629
  0
VIEWPORT
  5
22
 67
     1
  8
0
 10
261.51769911504419
 20
148.5
 30
0.0
 40
523.0353982300885
 41
297.0
 68
     1
 69
     1
1001
ACAD
1000
MVIEW
1002
{
1070
    16
1010
0.0
1020
0.0
1030
0.0
1010
0.0
1020
0.0
1030
1.0
1040
0.0
1040
297.0
1040
261.51769911504419
1040
148.5
1040
50.0
1040
0.0
1040
0.0
1070
     0
1070
   100
1070
     1
1070
     1
1070
     0
1070
     0
1070
     0
1070
     0
1040
0.0
1040
0.0
1040
0.0
1040
1.0
1040
1.0
1040
10.0
1040
10.0
1070
     0
1002
{
1002
}
1002
}
1001
GENIUS_GENODEF_13
1002
{
1000
HIER
1070
     0
1002
}
1002
{
1000
MANEDIT
1070
     0
1002
}
1002
{
1000
NOSEL
1070
     0
1002
}
1002
{
1000
BEHIND
1070
     0
1002
}
1002
{
1000
OTHER
1070
     0
1002
}
1002
{
1000
REACTOR
1002
}
1001
GENIUS_GENOBJ-N-SDF_13
1002
{
1000
OWNER
1000
GEN
1002
}
1001
GENIUS_GENSCREG_15
1000
PF
1040
1.0
1000
DF
1040
1.0
1000
MIN
1011
0.0
1021
0.0
1031
0.0
1021
0.0
1031
0.0
1000
MAX
1011
523.0353982300885
1021
0.0
1031
0.0
1021
297.0
1031
0.0
1000
FLAGS
1070
     4
  0
ENDSEC
  0
EOF
