  0
SECTION
  2
HEADER
  9
$ACADVER
  1
AC1009
  9
$INSBASE
 10
0.0
 20
0.0
 30
0.0
  9
$EXTMIN
 10
-3.9635422894960182
 20
-20.0
 30
0.0
  9
$EXTMAX
 10
65.756531718405967
 20
52.0
 30
0.0
  9
$LIMMIN
 10
0.0
 20
0.0
  9
$LIMMAX
 10
297.0
 20
210.0
  9
$ORTHOMODE
 70
     0
  9
$REGENMODE
 70
     1
  9
$FILLMODE
 70
     1
  9
$QTEXTMODE
 70
     0
  9
$MIRRTEXT
 70
     1
  9
$DRAGMODE
 70
     2
  9
$LTSCALE
 40
10.0
  9
$OSMODE
 70
    37
  9
$ATTMODE
 70
     1
  9
$TEXTSIZE
 40
3.0
  9
$TRACEWID
 40
1.0
  9
$TEXTSTYLE
  7
YOKO
  9
$CLAYER
  8
240
  9
$CELTYPE
  6
BYLAYER
  9
$CECOLOR
 62
   256
  9
$DIMSCALE
 40
1.0
  9
$DIMASZ
 40
2.2299999999999991
  9
$DIMEXO
 40
0.5
  9
$DIMDLI
 40
7.0
  9
$DIMRND
 40
0.0
  9
$DIMDLE
 40
0.0
  9
$DIMEXE
 40
1.0
  9
$DIMTP
 40
0.0
  9
$DIMTM
 40
0.01
  9
$DIMTXT
 40
2.7999999999999989
  9
$DIMCEN
 40
0.0
  9
$DIMTSZ
 40
0.0
  9
$DIMTOL
 70
     0
  9
$DIMLIM
 70
     0
  9
$DIMTIH
 70
     0
  9
$DIMTOH
 70
     0
  9
$DIMSE1
 70
     0
  9
$DIMSE2
 70
     0
  9
$DIMTAD
 70
     3
  9
$DIMZIN
 70
     9
  9
$DIMBLK
  1
OPEN
  9
$DIMASO
 70
     1
  9
$DIMSHO
 70
     1
  9
$DIMPOST
  1

  9
$DIMAPOST
  1

  9
$DIMALT
 70
     0
  9
$DIMALTD
 70
     2
  9
$DIMALTF
 40
25.399999999999999
  9
$DIMLFAC
 40
1.0
  9
$DIMTOFL
 70
     1
  9
$DIMTVP
 40
0.0
  9
$DIMTIX
 70
     1
  9
$DIMSOXD
 70
     0
  9
$DIMSAH
 70
     0
  9
$DIMBLK1
  1

  9
$DIMBLK2
  1

  9
$DIMSTYLE
  2
BIGT
  9
$DIMCLRD
 70
   256
  9
$DIMCLRE
 70
   256
  9
$DIMCLRT
 70
    40
  9
$DIMTFAC
 40
1.0
  9
$DIMGAP
 40
1.0
  9
$LUNITS
 70
     2
  9
$LUPREC
 70
     6
  9
$SKETCHINC
 40
1.0
  9
$FILLETRAD
 40
6.0
  9
$AUNITS
 70
     0
  9
$AUPREC
 70
     6
  9
$MENU
  1
.
  9
$ELEVATION
 40
0.0
  9
$PELEVATION
 40
0.0
  9
$THICKNESS
 40
0.0
  9
$LIMCHECK
 70
     0
  9
$BLIPMODE
 70
     0
  9
$CHAMFERA
 40
0.2
  9
$CHAMFERB
 40
0.2
  9
$SKPOLY
 70
     0
  9
$TDCREATE
 40
2458950.6543263779
  9
$TDUPDATE
 40
2458953.4630276151
  9
$TDINDWG
 40
0.0124080093
  9
$TDUSRTIMER
 40
0.0124079398
  9
$USRTIMER
 70
     1
  9
$ANGBASE
 50
0.0
  9
$ANGDIR
 70
     0
  9
$PDMODE
 70
     1
  9
$PDSIZE
 40
0.0
  9
$PLINEWID
 40
0.0
  9
$COORDS
 70
     1
  9
$SPLFRAME
 70
     0
  9
$SPLINETYPE
 70
     6
  9
$SPLINESEGS
 70
     4
  9
$ATTDIA
 70
     1
  9
$ATTREQ
 70
     1
  9
$HANDLING
 70
     1
  9
$HANDSEED
  5
4898
  9
$SURFTAB1
 70
     6
  9
$SURFTAB2
 70
     6
  9
$SURFTYPE
 70
     6
  9
$SURFU
 70
     6
  9
$SURFV
 70
     6
  9
$UCSNAME
  2

  9
$UCSORG
 10
0.0
 20
0.0
 30
0.0
  9
$UCSXDIR
 10
1.0
 20
0.0
 30
0.0
  9
$UCSYDIR
 10
0.0
 20
1.0
 30
0.0
  9
$PUCSNAME
  2

  9
$PUCSORG
 10
0.0
 20
0.0
 30
0.0
  9
$PUCSXDIR
 10
1.0
 20
0.0
 30
0.0
  9
$PUCSYDIR
 10
0.0
 20
1.0
 30
0.0
  9
$USERI1
 70
     1
  9
$USERI2
 70
     0
  9
$USERI3
 70
     0
  9
$USERI4
 70
     0
  9
$USERI5
 70
     0
  9
$USERR1
 40
0.0
  9
$USERR2
 40
0.0
  9
$USERR3
 40
0.0
  9
$USERR4
 40
0.0
  9
$USERR5
 40
0.0
  9
$WORLDVIEW
 70
     1
  9
$SHADEDGE
 70
     3
  9
$SHADEDIF
 70
    70
  9
$TILEMODE
 70
     1
  9
$MAXACTVP
 70
    16
  9
$PLIMCHECK
 70
     0
  9
$PEXTMIN
 10
1.0000000000000000E+020
 20
1.0000000000000000E+020
 30
1.0000000000000000E+020
  9
$PEXTMAX
 10
-1.0000000000000000E+020
 20
-1.0000000000000000E+020
 30
-1.0000000000000000E+020
  9
$PLIMMIN
 10
0.0
 20
0.0
  9
$PLIMMAX
 10
420.0
 20
297.0
  9
$UNITMODE
 70
     0
  9
$VISRETAIN
 70
     1
  9
$PLINEGEN
 70
     0
  9
$PSLTSCALE
 70
     1
  0
ENDSEC
  0
SECTION
  2
TABLES
  0
TABLE
  2
VPORT
 70
     1
  0
VPORT
  2
*ACTIVE
 70
     0
 10
0.0
 20
0.0
 11
1.0
 21
1.0
 12
42.872217460047757
 22
31.144328366460499
 13
0.0
 23
0.0
 14
7.0
 24
7.0
 15
7.0
 25
7.0
 16
0.0
 26
0.0
 36
1.0
 17
0.0
 27
0.0
 37
0.0
 40
110.4423872798033
 41
2.1149732620320849
 42
50.0
 43
0.0
 44
0.0
 50
0.0
 51
0.0
 71
     0
 72
  2000
 73
     1
 74
     0
 75
     0
 76
     1
 77
     0
 78
     0
  0
ENDTAB
  0
TABLE
  2
LTYPE
 70
    13
  0
LTYPE
  2
CONTINUOUS
 70
     0
  3
Solid line
 72
    65
 73
     0
 40
0.0
  0
LTYPE
  2
CENTER2
 70
     0
  3
___ _ ___ _ ___ _ ___ _ ___ _ ___ _ ___ _ ___ _
 72
    65
 73
     4
 40
1.125
 49
0.75
 49
-0.125
 49
0.125
 49
-0.125
  0
LTYPE
  2
HIDDEN2
 70
     0
  3
_ _ _ _ _ _ _ _ _ _ _ _ _ _ _ _ _ _ _ _ _ _ _ _
 72
    65
 73
     2
 40
0.1875
 49
0.125
 49
-0.0625
  0
LTYPE
  2
PHANTOM2
 70
     0
  3
___ _ _ ___ _ _ ___ _ _ ___ _ _ ___ _ _ ___ _ _
 72
    65
 73
     6
 40
1.25
 49
0.625
 49
-0.125
 49
0.125
 49
-0.125
 49
0.125
 49
-0.125
  0
LTYPE
  2
AM_ISO02W050
 70
     0
  3
__ __ __ __ __ __ __ __ __ __ __ __ __ __ __
 72
    65
 73
     2
 40
7.5
 49
6.0
 49
-1.5
  0
LTYPE
  2
AMCONSTR
 70
     0
  3
_______________________
 72
    65
 73
     2
 40
9999.0
 49
9999.0
 49
0.0
  0
LTYPE
  2
ACISOWELD
 70
     0
  3
_ _ _ _ _
 72
    65
 73
     2
 40
2.0
 49
2.0
 49
-1.0
  0
LTYPE
  2
ACISOTGB
 70
     0
  3
__ . . __ . .
 72
    65
 73
     6
 40
9.0
 49
4.0
 49
-1.0
 49
1.0
 49
-1.0
 49
1.0
 49
-1.0
  0
LTYPE
  2
ACISOTGL
 70
     0
  3
_ _ _ _ _
 72
    65
 73
     2
 40
3.0
 49
2.0
 49
-1.0
  0
LTYPE
  2
ACJISTGB
 70
     0
  3
__ . . __ . .
 72
    65
 73
     6
 40
9.0
 49
4.0
 49
-1.0
 49
1.0
 49
-1.0
 49
1.0
 49
-1.0
  0
LTYPE
  2
ACJISTGL
 70
     0
  3
_ _ _ _ _
 72
    65
 73
     2
 40
3.0
 49
2.0
 49
-1.0
  0
ENDTAB
  0
TABLE
  2
LAYER
 70
     8
  0
LAYER
  2
0
 70
     0
 62
     7
  6
CONTINUOUS
  0
LAYER
  2
DEFPOINTS
 70
     0
 62
     7
  6
CONTINUOUS
  0
LAYER
  2
245
 70
     0
 62
     2
  6
CENTER2
  0
LAYER
  2
240
 70
     0
 62
     4
  6
CONTINUOUS
  0
LAYER
  2
241
 70
     0
 62
   211
  6
CONTINUOUS
  0
LAYER
  2
243
 70
     0
 62
   211
  6
HIDDEN2
  0
LAYER
  2
246
 70
     0
 62
     3
  6
PHANTOM2
  0
LAYER
  2
250
 70
     0
 62
     3
  6
CONTINUOUS
  0
ENDTAB
  0
TABLE
  2
STYLE
 70
     6
  0
STYLE
  2
STANDARD
 70
     0
 40
0.0
 41
1.0
 50
0.0
 71
     0
 42
3.0
  3
romans.shx
  4
extfont.shx
  0
STYLE
  2
ACISOTS
 70
     0
 40
1.0
 41
1.0
 50
0.0
 71
     0
 42
3.0
  3
amgdt.shx
  4
extfont.shx
  0
STYLE
  2
ACISOGDT
 70
     0
 40
0.0
 41
1.0
 50
0.0
 71
     0
 42
3.0
  3
amgdt.shx
  4
extfont.shx
  0
STYLE
  2
ACJISTS
 70
     0
 40
1.0
 41
1.0
 50
0.0
 71
     0
 42
3.0
  3
amgdt.shx
  4
extfont.shx
  0
STYLE
  2
ACJISGDT
 70
     0
 40
0.0
 41
1.0
 50
0.0
 71
     0
 42
3.0
  3
amgdt.shx
  4
extfont.shx
  0
STYLE
  2
YOKO
 70
     0
 40
0.0
 41
1.0
 50
0.0
 71
     0
 42
3.0
  3
romans.shx
  4
extfont.shx
  0
ENDTAB
  0
TABLE
  2
VIEW
 70
     0
  0
ENDTAB
  0
TABLE
  2
UCS
 70
     0
  0
ENDTAB
  0
TABLE
  2
APPID
 70
    48
  0
APPID
  2
ACAD
 70
     0
  0
APPID
  2
GLOBAL
 70
     0
  0
APPID
  2
DETAIL
 70
     0
  0
APPID
  2
GRPNAME
 70
     0
  0
APPID
  2
GPARA
 70
     0
  0
APPID
  2
MCAD_NO_VIS
 70
     0
  0
APPID
  2
ACAD_TEMP_GRAPHIC
 70
     0
  0
APPID
  2
ACATTRIBSERVICES
 70
     0
  0
APPID
  2
GENIUS_GENSCREG_15
 70
     0
  0
APPID
  2
GENIUS_GENODEF_13
 70
     0
  0
APPID
  2
GENIUS_GENOBJ-N-SDF_13
 70
     0
  0
APPID
  2
GENIUS_GENREC_14
 70
     0
  0
APPID
  2
GENIUS_GENOBJ-N-REC_13
 70
     0
  0
APPID
  2
GENIUS_GENDIMSH_14
 70
     0
  0
APPID
  2
GENIUS_GENOBJ-N-DIM_13
 70
     0
  0
APPID
  2
GENIUS_GENDIM_13
 70
     0
  0
APPID
  2
GENIUS_GENDTOL_13
 70
     0
  0
APPID
  2
GENIUS_GENOLIS_13
 70
     0
  0
APPID
  2
GENIUS_GENOENT_13
 70
     0
  0
APPID
  2
GENIUS_GENOBJ-F-FEM_13
 70
     0
  0
APPID
  2
GENIUS_GENOREF_13
 70
     0
  0
APPID
  2
GENIUS_GEFFEM_13
 70
     0
  0
APPID
  2
GENIUS_GEFFEMP_13
 70
     0
  0
APPID
  2
AD_DRAW
 70
     0
  0
APPID
  2
DESIGNERASSEMBLIES
 70
     0
  0
APPID
  2
ACADM_DIM_EDIT
 70
     0
  0
APPID
  2
AMDT_DM_ADJ
 70
     0
  0
APPID
  2
ITEMNAME
 70
     0
  0
APPID
  2
GENIUS_GENOBJ-N-FIL_13
 70
     0
  0
APPID
  2
GENIUS_GENFIL_13
 70
     0
  0
APPID
  2
GENIUS_GENOBJ-N-CHA_13
 70
     0
  0
APPID
  2
ACAD_NAV_VCDISPLAY
 70
     0
  0
APPID
  2
ACAD_PSEXT
 70
     0
  0
APPID
  2
ACAD_DSTYLE_DIMJAG
 70
     0
  0
APPID
  2
ACAD_DSTYLE_DIMTALN
 70
     0
  0
APPID
  2
ACAD_DSTYLE_DIMRADIAL_EXTENSION
 70
     0
  0
APPID
  2
ASKLEADERCHILD
 70
     0
  0
APPID
  2
ASK_MEN_XD
 70
     0
  0
APPID
  2
ACAD_DSTYLE_DIMINSPECT
 70
     0
  0
APPID
  2
ACAD_EXEMPT_FROM_CAD_STANDARDS
 70
     0
  0
APPID
  2
ACAECLAYERSTANDARD
 70
     0
  0
APPID
  2
ACAD_DSTYLE_DIMANGULAR_EXT
 70
     0
  0
APPID
  2
ACAD_DSTYLE_DIMBREAK
 70
     0
  0
APPID
  2
ACAD_MLEADERVER
 70
     0
  0
APPID
  2
ACAD_DSTYLE_DIMARC_LENGTH_
 70
     0
  0
APPID
  2
ACAD_DSTYLE_DIM_LINETYPE
 70
     0
  0
APPID
  2
ACAD_DSTYLE_DIM_EXT1_LINETYPE
 70
     0
  0
APPID
  2
ACAD_DSTYLE_DIM_EXT2_LINETYPE
 70
     0
  0
ENDTAB
  0
TABLE
  2
DIMSTYLE
 70
    23
  0
DIMSTYLE
  2
BIGT
 70
     0
  3

  4

  5
OPEN
  6

  7

 40
1.0
 41
2.2299999999999991
 42
0.5
 43
7.0
 44
1.0
 45
0.0
 46
0.0
 47
0.0
 48
0.01
140
2.7999999999999989
141
0.0
142
0.0
143
25.399999999999999
144
1.0
145
0.0
146
1.0
147
1.0
 71
     0
 72
     0
 73
     0
 74
     0
 75
     0
 76
     0
 77
     3
 78
     9
170
     0
171
     2
172
     1
173
     0
174
     1
175
     0
176
   256
177
   256
178
    40
  0
DIMSTYLE
  2
AM_ISO
 70
     0
  3

  4
"
  5

  6

  7

 40
1.0
 41
2.5
 42
1.0
 43
10.0
 44
1.0
 45
0.0
 46
0.0
 47
0.1
 48
0.1
140
3.5
141
0.0
142
0.0
143
0.0393701
144
1.0
145
0.0
146
0.71
147
1.5
 71
     0
 72
     0
 73
     0
 74
     0
 75
     0
 76
     0
 77
     1
 78
     8
170
     0
171
     2
172
     1
173
     0
174
     0
175
     0
176
   256
177
   256
178
     2
  0
DIMSTYLE
  2
AM_ISO$3
 70
     0
  3

  4
"
  5

  6

  7

 40
1.0
 41
2.5
 42
1.0
 43
10.0
 44
1.0
 45
0.0
 46
0.0
 47
0.1
 48
0.1
140
3.5
141
0.0
142
0.0
143
0.0393701
144
1.0
145
0.0
146
0.71
147
1.5
 71
     0
 72
     0
 73
     0
 74
     1
 75
     0
 76
     0
 77
     1
 78
     8
170
     0
171
     2
172
     0
173
     0
174
     0
175
     0
176
   256
177
   256
178
     2
  0
DIMSTYLE
  2
AM_ISO$4
 70
     0
  3

  4
"
  5

  6

  7

 40
1.0
 41
2.5
 42
1.0
 43
10.0
 44
1.0
 45
0.0
 46
0.0
 47
0.1
 48
0.1
140
3.5
141
0.0
142
0.0
143
0.0393701
144
1.0
145
0.0
146
0.71
147
1.5
 71
     0
 72
     0
 73
     0
 74
     1
 75
     0
 76
     0
 77
     1
 78
     8
170
     0
171
     2
172
     0
173
     0
174
     0
175
     0
176
   256
177
   256
178
     2
  0
DIMSTYLE
  2
AM_ISO$6
 70
     0
  3

  4
"
  5

  6

  7

 40
1.0
 41
2.5
 42
1.0
 43
10.0
 44
1.0
 45
0.0
 46
0.0
 47
0.1
 48
0.1
140
3.5
141
0.0
142
0.0
143
0.0393701
144
1.0
145
0.0
146
0.71
147
1.5
 71
     0
 72
     0
 73
     0
 74
     0
 75
     0
 76
     0
 77
     0
 78
     8
170
     0
171
     2
172
     1
173
     0
174
     0
175
     0
176
   256
177
   256
178
     2
  0
DIMSTYLE
  2
AM_ISO$7
 70
     0
  3

  4
"
  5

  6

  7

 40
1.0
 41
2.5
 42
1.0
 43
10.0
 44
1.0
 45
0.0
 46
0.0
 47
0.1
 48
0.1
140
5.0
141
0.0
142
0.0
143
0.0393701
144
1.0
145
0.0
146
0.71
147
1.5
 71
     0
 72
     0
 73
     0
 74
     0
 75
     0
 76
     0
 77
     1
 78
     8
170
     0
171
     2
172
     1
173
     0
174
     0
175
     0
176
   256
177
   256
178
     2
  0
DIMSTYLE
  2
AM_ISO$SF
 70
     0
  3

  4
"
  5

  6

  7

 40
1.0
 41
2.5
 42
1.0
 43
10.0
 44
1.0
 45
0.0
 46
0.0
 47
0.1
 48
0.1
140
3.5
141
0.0
142
0.0
143
0.0393701
144
1.0
145
0.0
146
0.71
147
1.5
 71
     0
 72
     0
 73
     0
 74
     0
 75
     1
 76
     1
 77
     1
 78
     8
170
     0
171
     2
172
     1
173
     0
174
     0
175
     0
176
   256
177
   256
178
     2
  0
DIMSTYLE
  2
AM_ISO$SH
 70
     0
  3

  4
"
  5

  6
GENAXEH
  7

 40
1.0
 41
2.5
 42
1.0
 43
10.0
 44
1.0
 45
0.0
 46
0.0
 47
0.1
 48
0.1
140
3.5
141
0.0
142
0.0
143
0.0393701
144
2.0
145
0.0
146
0.71
147
1.5
 71
     0
 72
     0
 73
     0
 74
     0
 75
     1
 76
     1
 77
     1
 78
     8
170
     0
171
     2
172
     1
173
     1
174
     0
175
     0
176
   256
177
   256
178
     2
  0
DIMSTYLE
  2
BIGT$2
 70
     0
  3

  4

  5
OPEN
  6

  7

 40
1.0
 41
2.2299999999999991
 42
0.5
 43
7.0
 44
1.0
 45
0.0
 46
0.0
 47
0.0
 48
0.01
140
2.7999999999999989
141
0.0
142
0.0
143
25.399999999999999
144
1.0
145
0.0
146
1.0
147
1.0
 71
     0
 72
     0
 73
     0
 74
     0
 75
     0
 76
     0
 77
     3
 78
     9
170
     0
171
     2
172
     1
173
     0
174
     0
175
     0
176
   256
177
   256
178
    40
  0
DIMSTYLE
  2
BIGT$3
 70
     0
  3

  4

  5
OPEN
  6

  7

 40
1.0
 41
2.2299999999999991
 42
0.5
 43
2.5
 44
1.0
 45
0.0
 46
0.0
 47
0.0
 48
0.01
140
2.7999999999999989
141
0.0
142
0.0
143
25.399999999999999
144
1.0
145
0.0
146
1.0
147
1.0
 71
     0
 72
     0
 73
     0
 74
     0
 75
     0
 76
     0
 77
     3
 78
     9
170
     0
171
     2
172
     1
173
     0
174
     0
175
     0
176
   256
177
   256
178
    40
  0
DIMSTYLE
  2
BIGT$7
 70
     0
  3

  4

  5
OPEN
  6

  7

 40
0.0
 41
2.2299999999999991
 42
0.5
 43
7.0
 44
1.0
 45
0.0
 46
0.0
 47
0.0
 48
0.01
140
2.7999999999999989
141
0.0
142
0.0
143
25.399999999999999
144
1.0
145
0.0
146
1.0
147
1.0
 71
     0
 72
     0
 73
     0
 74
     0
 75
     0
 76
     0
 77
     3
 78
     9
170
     0
171
     2
172
     0
173
     0
174
     0
175
     0
176
   256
177
   256
178
    40
  0
DIMSTYLE
  2
BIGT$6
 70
     0
  3

  4

  5
OPEN
  6

  7

 40
1.0
 41
2.2299999999999991
 42
0.5
 43
2.5
 44
1.0
 45
0.0
 46
0.0
 47
0.0
 48
0.01
140
2.7999999999999989
141
0.0
142
0.0
143
25.399999999999999
144
1.0
145
0.0
146
1.0
147
1.0
 71
     0
 72
     0
 73
     0
 74
     0
 75
     0
 76
     0
 77
     3
 78
     9
170
     0
171
     2
172
     1
173
     0
174
     0
175
     0
176
   256
177
   256
178
    40
  0
DIMSTYLE
  2
BIGT$0
 70
     0
  3

  4

  5
OPEN
  6

  7

 40
1.0
 41
2.2299999999999991
 42
0.5
 43
7.0
 44
1.0
 45
0.0
 46
0.0
 47
0.0
 48
0.01
140
2.7999999999999989
141
0.0
142
0.0
143
25.399999999999999
144
1.0
145
0.0
146
1.0
147
1.0
 71
     0
 72
     0
 73
     0
 74
     0
 75
     0
 76
     0
 77
     3
 78
     9
170
     0
171
     2
172
     1
173
     0
174
     1
175
     0
176
   256
177
   256
178
    40
  0
DIMSTYLE
  2
BIGT$4
 70
     0
  3

  4

  5
OPEN
  6

  7

 40
1.0
 41
2.2299999999999991
 42
0.5
 43
2.5
 44
1.0
 45
0.0
 46
0.0
 47
0.0
 48
0.01
140
2.7999999999999989
141
0.0
142
0.0
143
25.399999999999999
144
1.0
145
0.0
146
1.0
147
1.0
 71
     0
 72
     0
 73
     0
 74
     0
 75
     0
 76
     0
 77
     3
 78
     9
170
     0
171
     2
172
     1
173
     0
174
     0
175
     0
176
   256
177
   256
178
    40
  0
DIMSTYLE
  2
BIGT$SH
 70
     0
  3

  4

  5
OPEN
  6

  7

 40
1.0
 41
2.2299999999999991
 42
0.5
 43
7.0
 44
1.0
 45
0.0
 46
0.0
 47
0.0
 48
0.0
140
2.7999999999999989
141
0.0
142
0.0
143
25.399999999999999
144
1.0
145
0.0
146
1.0
147
1.0
 71
     0
 72
     0
 73
     0
 74
     0
 75
     0
 76
     0
 77
     3
 78
     9
170
     0
171
     2
172
     1
173
     0
174
     0
175
     0
176
   256
177
   256
178
    40
  0
DIMSTYLE
  2
BIGT$SF
 70
     0
  3

  4

  5
OPEN
  6

  7

 40
1.0
 41
2.2299999999999991
 42
0.5
 43
7.0
 44
1.0
 45
0.0
 46
0.0
 47
0.0
 48
0.0
140
2.7999999999999989
141
0.0
142
0.0
143
25.399999999999999
144
1.0
145
0.0
146
1.0
147
1.0
 71
     0
 72
     0
 73
     0
 74
     0
 75
     0
 76
     0
 77
     3
 78
     9
170
     0
171
     2
172
     1
173
     0
174
     0
175
     0
176
   256
177
   256
178
    40
  0
DIMSTYLE
  2
TECHNICAL_OSAKA
 70
     0
  3

  4
"
  5
OPEN30
  6

  7

 40
1.0
 41
2.5
 42
1.0
 43
10.0
 44
1.0
 45
0.0
 46
0.0
 47
0.1
 48
0.1
140
2.7999999999999989
141
0.0
142
0.0
143
0.0393701
144
1.0
145
0.0
146
0.71
147
1.5
 71
     0
 72
     0
 73
     0
 74
     0
 75
     0
 76
     0
 77
     3
 78
     8
170
     0
171
     2
172
     1
173
     0
174
     0
175
     0
176
   256
177
   256
178
    40
  0
DIMSTYLE
  2
TECHNICAL_OSAKA$3
 70
     0
  3

  4
"
  5
OPEN30
  6

  7

 40
1.0
 41
2.5
 42
1.0
 43
10.0
 44
1.0
 45
0.0
 46
0.0
 47
0.1
 48
0.1
140
2.7999999999999989
141
0.0
142
0.0
143
0.0393701
144
1.0
145
0.0
146
0.71
147
1.5
 71
     0
 72
     0
 73
     0
 74
     1
 75
     0
 76
     0
 77
     3
 78
     8
170
     0
171
     2
172
     0
173
     0
174
     0
175
     0
176
   256
177
   256
178
    40
  0
DIMSTYLE
  2
TECHNICAL_OSAKA$4
 70
     0
  3

  4
"
  5
OPEN30
  6

  7

 40
1.0
 41
2.5
 42
1.0
 43
10.0
 44
1.0
 45
0.0
 46
0.0
 47
0.1
 48
0.1
140
2.7999999999999989
141
0.0
142
0.0
143
0.0393701
144
1.0
145
0.0
146
0.71
147
1.5
 71
     0
 72
     0
 73
     0
 74
     1
 75
     0
 76
     0
 77
     3
 78
     8
170
     0
171
     2
172
     0
173
     0
174
     0
175
     0
176
   256
177
   256
178
    40
  0
DIMSTYLE
  2
TECHNICAL_OSAKA$6
 70
     0
  3

  4
"
  5
OPEN30
  6

  7

 40
1.0
 41
2.5
 42
1.0
 43
10.0
 44
1.0
 45
0.0
 46
0.0
 47
0.1
 48
0.1
140
2.7999999999999989
141
0.0
142
0.0
143
0.0393701
144
1.0
145
0.0
146
0.71
147
1.5
 71
     0
 72
     0
 73
     0
 74
     0
 75
     0
 76
     0
 77
     0
 78
     8
170
     0
171
     2
172
     1
173
     0
174
     0
175
     0
176
   256
177
   256
178
    40
  0
DIMSTYLE
  2
TECHNICAL_OSAKA$7
 70
     0
  3

  4
"
  5
OPEN30
  6

  7

 40
1.0
 41
2.5
 42
1.0
 43
10.0
 44
1.0
 45
0.0
 46
0.0
 47
0.1
 48
0.1
140
2.7999999999999989
141
0.0
142
0.0
143
0.0393701
144
1.0
145
0.0
146
0.71
147
1.5
 71
     0
 72
     0
 73
     0
 74
     0
 75
     0
 76
     0
 77
     3
 78
     8
170
     0
171
     2
172
     1
173
     0
174
     0
175
     0
176
   256
177
   256
178
    40
  0
DIMSTYLE
  2
TECHNICAL_OSAKA$SF
 70
     0
  3

  4
"
  5
OPEN30
  6
OPEN30
  7
OPEN30
 40
1.0
 41
2.5
 42
1.0
 43
10.0
 44
1.0
 45
0.0
 46
0.0
 47
0.1
 48
0.1
140
3.5
141
0.0
142
0.0
143
0.0393701
144
1.0
145
0.0
146
0.71
147
1.5
 71
     0
 72
     0
 73
     0
 74
     0
 75
     1
 76
     1
 77
     3
 78
     8
170
     0
171
     2
172
     1
173
     0
174
     0
175
     0
176
   256
177
   256
178
    40
  0
DIMSTYLE
  2
TECHNICAL_OSAKA$SH
 70
     0
  3

  4
"
  5
OPEN30
  6
GENAXEH
  7
OPEN30
 40
1.0
 41
2.5
 42
1.0
 43
10.0
 44
1.0
 45
0.0
 46
0.0
 47
0.1
 48
0.1
140
3.5
141
0.0
142
0.0
143
0.0393701
144
2.0
145
0.0
146
0.71
147
1.5
 71
     0
 72
     0
 73
     0
 74
     0
 75
     1
 76
     1
 77
     3
 78
     8
170
     0
171
     2
172
     1
173
     1
174
     0
175
     0
176
   256
177
   256
178
    40
  0
ENDTAB
  0
ENDSEC
  0
SECTION
  2
BLOCKS
  0
BLOCK
  8
0
  2
$MODEL_SPACE
 70
     0
 10
0.0
 20
0.0
 30
0.0
  3
$MODEL_SPACE
  1

  0
ENDBLK
  5
1C
  8
0
  0
BLOCK
 67
     1
  8
0
  2
$PAPER_SPACE
 70
     0
 10
0.0
 20
0.0
 30
0.0
  3
$PAPER_SPACE
  1

  0
ENDBLK
  5
19
 67
     1
  8
0
  0
BLOCK
  8
0
  2
_OPEN
 70
     0
 10
0.0
 20
0.0
 30
0.0
  3
_OPEN
  1

  0
LINE
  5
471D
  8
0
  6
BYBLOCK
 62
     0
 10
-1.0
 20
0.1666666666666666
 30
0.0
 11
0.0
 21
0.0
 31
0.0
  0
LINE
  5
471E
  8
0
  6
BYBLOCK
 62
     0
 10
-1.0
 20
-0.1666666666666666
 30
0.0
 11
0.0
 21
0.0
 31
0.0
  0
LINE
  5
471F
  8
0
  6
BYBLOCK
 62
     0
 10
0.0
 20
0.0
 30
0.0
 11
-1.0
 21
0.0
 31
0.0
  0
ENDBLK
  5
4720
  8
0
  0
BLOCK
  8
0
  2
GENAXEH
 70
     0
 10
0.0
 20
0.0
 30
0.0
  3
GENAXEH
  1

  0
LINE
  5
4758
  8
0
 10
-1.0
 20
0.0
 30
0.0
 11
1.0
 21
0.0
 31
0.0
  0
ENDBLK
  5
4759
  8
0
  0
BLOCK
  8
0
  2
_OPEN30
 70
     0
 10
0.0
 20
0.0
 30
0.0
  3
_OPEN30
  1

  0
LINE
  5
4794
  8
0
  6
BYBLOCK
 62
     0
 10
-1.0
 20
0.26794919
 30
0.0
 11
0.0
 21
0.0
 31
0.0
  0
LINE
  5
4795
  8
0
  6
BYBLOCK
 62
     0
 10
0.0
 20
0.0
 30
0.0
 11
-1.0
 21
-0.26794919
 31
0.0
  0
LINE
  5
4796
  8
0
  6
BYBLOCK
 62
     0
 10
0.0
 20
0.0
 30
0.0
 11
-1.0
 21
0.0
 31
0.0
  0
ENDBLK
  5
4797
  8
0
  0
ENDSEC
  0
SECTION
  2
ENTITIES
  0
LINE
  5
4285
  8
245
  6
CENTER2
 10
40.693102047565127
 20
0.0
 30
0.0
 11
-3.9635422894960182
 21
0.0
 31
0.0
  0
LINE
  5
42AB
  8
240
  6
CONTINUOUS
 10
10.19615242270671
 20
20.0
 30
0.0
 11
-0.0000000000000284
 21
20.0
 31
0.0
  0
LINE
  5
42AC
  8
240
  6
CONTINUOUS
 10
-0.0000000000000284
 20
-19.999999999999972
 30
0.0
 11
9.9999999999999112
 21
-19.999999999999972
 31
0.0
  0
ARC
  5
42AD
  8
240
  6
CONTINUOUS
 10
10.19615242270671
 20
23.0
 30
0.0
 40
3.000000000000024
 50
270.0
 51
300.00000000000051
  0
LINE
  5
42AE
  8
240
  6
CONTINUOUS
 10
18.43066929364667
 20
24.290098916945912
 30
0.0
 11
11.696152422706721
 21
20.401923788646631
 31
0.0
  0
LINE
  5
42AF
  8
240
  6
CONTINUOUS
 10
25.232661198208611
 20
25.12527850621278
 30
0.0
 11
18.43066929364667
 21
24.290098916945912
 31
0.0
  0
ARC
  5
42B0
  8
241
  6
CONTINUOUS
 10
25.999999999999972
 20
0.0
 30
0.0
 40
19.99999999999994
 50
161.8051276612351
 51
198.1948723387649
  0
LINE
  5
42B1
  8
241
  6
CONTINUOUS
 10
6.9999999999999707
 20
-6.2449979983983894
 30
0.0
 11
9.9999999999999716
 21
-6.2449979983983894
 31
0.0
  0
LINE
  5
42B2
  8
241
  6
CONTINUOUS
 10
9.9999999999999716
 20
15.36321612607615
 30
0.0
 11
9.9999999999999716
 21
-13.599999999999991
 31
0.0
  0
LINE
  5
42B5
  8
240
  6
CONTINUOUS
 10
9.9999999999999716
 20
-13.599999999999939
 30
0.0
 11
9.9999999999999112
 21
-19.999999999999972
 31
0.0
  0
LINE
  5
42B8
  8
241
  6
CONTINUOUS
 10
9.9999999999999716
 20
6.2449979983983894
 30
0.0
 11
6.9999999999999707
 21
6.2449979983983894
 31
0.0
  0
LINE
  5
42B9
  8
240
  6
CONTINUOUS
 10
-0.0000000000000284
 20
20.0
 30
0.0
 11
-0.0000000000000284
 21
-19.999999999999972
 31
0.0
  0
LINE
  5
42BC
  8
241
  6
CONTINUOUS
 10
6.9999999999999707
 20
6.2449979983983894
 30
0.0
 11
6.9999999999999707
 21
-6.2449979983983894
 31
0.0
  0
LINE
  5
42CE
  8
240
  6
CONTINUOUS
 10
15.99999999999997
 20
-7.5999999999999943
 30
0.0
 11
26.999999999999972
 21
-7.5999999999999943
 31
0.0
  0
LINE
  5
42DD
  8
240
  6
CONTINUOUS
 10
35.359400498673239
 20
-3.088207658496799
 30
0.0
 11
36.71829579450079
 21
14.372994362284089
 31
0.0
  0
ARC
  5
42DE
  8
240
  6
CONTINUOUS
 10
26.999999999999972
 20
2.3999999999999768
 30
0.0
 40
10.00000000000006
 50
270.00000000000171
 51
326.71384986178538
  0
POLYLINE
  5
42E4
  8
241
  6
CONTINUOUS
 10
15.372829220394253
 20
17.452686837847065
 30
0.0
 66
     1
 70
     8
  0
VERTEX
  8
241
  5
4816
 10
15.3728
 20
17.4527
 30
0.000000
  70
    32
  0
VERTEX
  8
241
  5
4817
 10
15.5716
 20
17.5309
 30
0.000000
  70
    32
  0
VERTEX
  8
241
  5
4818
 10
15.7692
 20
17.6093
 30
0.000000
  70
    32
  0
VERTEX
  8
241
  5
4819
 10
15.9656
 20
17.6878
 30
0.000000
  70
    32
  0
VERTEX
  8
241
  5
481A
 10
16.1606
 20
17.7664
 30
0.000000
  70
    32
  0
VERTEX
  8
241
  5
481B
 10
16.3543
 20
17.8449
 30
0.000000
  70
    32
  0
VERTEX
  8
241
  5
481C
 10
16.5465
 20
17.9235
 30
0.000000
  70
    32
  0
VERTEX
  8
241
  5
481D
 10
16.7372
 20
18.0021
 30
0.000000
  70
    32
  0
VERTEX
  8
241
  5
481E
 10
16.9262
 20
18.0805
 30
0.000000
  70
    32
  0
VERTEX
  8
241
  5
481F
 10
17.1135
 20
18.1589
 30
0.000000
  70
    32
  0
VERTEX
  8
241
  5
4820
 10
17.2990
 20
18.2371
 30
0.000000
  70
    32
  0
VERTEX
  8
241
  5
4821
 10
17.4826
 20
18.3152
 30
0.000000
  70
    32
  0
VERTEX
  8
241
  5
4822
 10
17.6643
 20
18.3930
 30
0.000000
  70
    32
  0
VERTEX
  8
241
  5
4823
 10
17.8439
 20
18.4707
 30
0.000000
  70
    32
  0
VERTEX
  8
241
  5
4824
 10
18.0215
 20
18.5480
 30
0.000000
  70
    32
  0
VERTEX
  8
241
  5
4825
 10
18.1968
 20
18.6251
 30
0.000000
  70
    32
  0
VERTEX
  8
241
  5
4826
 10
18.3699
 20
18.7018
 30
0.000000
  70
    32
  0
VERTEX
  8
241
  5
4827
 10
18.5407
 20
18.7781
 30
0.000000
  70
    32
  0
VERTEX
  8
241
  5
4828
 10
18.7091
 20
18.8541
 30
0.000000
  70
    32
  0
VERTEX
  8
241
  5
4829
 10
18.8749
 20
18.9296
 30
0.000000
  70
    32
  0
VERTEX
  8
241
  5
482A
 10
19.0383
 20
19.0046
 30
0.000000
  70
    32
  0
VERTEX
  8
241
  5
482B
 10
19.1990
 20
19.0792
 30
0.000000
  70
    32
  0
VERTEX
  8
241
  5
482C
 10
19.3571
 20
19.1532
 30
0.000000
  70
    32
  0
VERTEX
  8
241
  5
482D
 10
19.5124
 20
19.2267
 30
0.000000
  70
    32
  0
VERTEX
  8
241
  5
482E
 10
19.6649
 20
19.2996
 30
0.000000
  70
    32
  0
VERTEX
  8
241
  5
482F
 10
19.8145
 20
19.3718
 30
0.000000
  70
    32
  0
VERTEX
  8
241
  5
4830
 10
19.9611
 20
19.4434
 30
0.000000
  70
    32
  0
VERTEX
  8
241
  5
4831
 10
20.1048
 20
19.5144
 30
0.000000
  70
    32
  0
VERTEX
  8
241
  5
4832
 10
20.2454
 20
19.5846
 30
0.000000
  70
    32
  0
VERTEX
  8
241
  5
4833
 10
20.3829
 20
19.6540
 30
0.000000
  70
    32
  0
VERTEX
  8
241
  5
4834
 10
20.5171
 20
19.7227
 30
0.000000
  70
    32
  0
VERTEX
  8
241
  5
4835
 10
20.6482
 20
19.7906
 30
0.000000
  70
    32
  0
VERTEX
  8
241
  5
4836
 10
20.7759
 20
19.8577
 30
0.000000
  70
    32
  0
VERTEX
  8
241
  5
4837
 10
20.9003
 20
19.9239
 30
0.000000
  70
    32
  0
VERTEX
  8
241
  5
4838
 10
21.0213
 20
19.9893
 30
0.000000
  70
    32
  0
VERTEX
  8
241
  5
4839
 10
21.1388
 20
20.0537
 30
0.000000
  70
    32
  0
VERTEX
  8
241
  5
483A
 10
21.2529
 20
20.1171
 30
0.000000
  70
    32
  0
VERTEX
  8
241
  5
483B
 10
21.3633
 20
20.1796
 30
0.000000
  70
    32
  0
VERTEX
  8
241
  5
483C
 10
21.4702
 20
20.2412
 30
0.000000
  70
    32
  0
VERTEX
  8
241
  5
483D
 10
21.5734
 20
20.3016
 30
0.000000
  70
    32
  0
VERTEX
  8
241
  5
483E
 10
21.6730
 20
20.3611
 30
0.000000
  70
    32
  0
VERTEX
  8
241
  5
483F
 10
21.7688
 20
20.4194
 30
0.000000
  70
    32
  0
VERTEX
  8
241
  5
4840
 10
21.8608
 20
20.4767
 30
0.000000
  70
    32
  0
VERTEX
  8
241
  5
4841
 10
21.9490
 20
20.5329
 30
0.000000
  70
    32
  0
VERTEX
  8
241
  5
4842
 10
22.0334
 20
20.5879
 30
0.000000
  70
    32
  0
VERTEX
  8
241
  5
4843
 10
22.1139
 20
20.6417
 30
0.000000
  70
    32
  0
VERTEX
  8
241
  5
4844
 10
22.1905
 20
20.6944
 30
0.000000
  70
    32
  0
VERTEX
  8
241
  5
4845
 10
22.2631
 20
20.7458
 30
0.000000
  70
    32
  0
VERTEX
  8
241
  5
4846
 10
22.3317
 20
20.7960
 30
0.000000
  70
    32
  0
VERTEX
  8
241
  5
4847
 10
22.3963
 20
20.8450
 30
0.000000
  70
    32
  0
VERTEX
  8
241
  5
4848
 10
22.4569
 20
20.8926
 30
0.000000
  70
    32
  0
VERTEX
  8
241
  5
4849
 10
22.5134
 20
20.9390
 30
0.000000
  70
    32
  0
VERTEX
  8
241
  5
484A
 10
22.5658
 20
20.9840
 30
0.000000
  70
    32
  0
VERTEX
  8
241
  5
484B
 10
22.6141
 20
21.0278
 30
0.000000
  70
    32
  0
VERTEX
  8
241
  5
484C
 10
22.6583
 20
21.0701
 30
0.000000
  70
    32
  0
VERTEX
  8
241
  5
484D
 10
22.6983
 20
21.1111
 30
0.000000
  70
    32
  0
VERTEX
  8
241
  5
484E
 10
22.7342
 20
21.1507
 30
0.000000
  70
    32
  0
VERTEX
  8
241
  5
484F
 10
22.7659
 20
21.1889
 30
0.000000
  70
    32
  0
VERTEX
  8
241
  5
4850
 10
22.7934
 20
21.2257
 30
0.000000
  70
    32
  0
VERTEX
  8
241
  5
4851
 10
22.8166
 20
21.2610
 30
0.000000
  70
    32
  0
VERTEX
  8
241
  5
4852
 10
22.8357
 20
21.2949
 30
0.000000
  70
    32
  0
VERTEX
  8
241
  5
4853
 10
22.8505
 20
21.3273
 30
0.000000
  70
    32
  0
VERTEX
  8
241
  5
4854
 10
22.8611
 20
21.3582
 30
0.000000
  70
    32
  0
VERTEX
  8
241
  5
4855
 10
22.8675
 20
21.3877
 30
0.000000
  70
    32
  0
VERTEX
  8
241
  5
4856
 10
22.8696
 20
21.4156
 30
0.000000
  70
    32
  0
VERTEX
  8
241
  5
4857
 10
22.8675
 20
21.4420
 30
0.000000
  70
    32
  0
VERTEX
  8
241
  5
4858
 10
22.8611
 20
21.4669
 30
0.000000
  70
    32
  0
VERTEX
  8
241
  5
4859
 10
22.8505
 20
21.4902
 30
0.000000
  70
    32
  0
VERTEX
  8
241
  5
485A
 10
22.8357
 20
21.5120
 30
0.000000
  70
    32
  0
VERTEX
  8
241
  5
485B
 10
22.8166
 20
21.5322
 30
0.000000
  70
    32
  0
VERTEX
  8
241
  5
485C
 10
22.7934
 20
21.5508
 30
0.000000
  70
    32
  0
VERTEX
  8
241
  5
485D
 10
22.7659
 20
21.5679
 30
0.000000
  70
    32
  0
VERTEX
  8
241
  5
485E
 10
22.7342
 20
21.5834
 30
0.000000
  70
    32
  0
VERTEX
  8
241
  5
485F
 10
22.6983
 20
21.5973
 30
0.000000
  70
    32
  0
VERTEX
  8
241
  5
4860
 10
22.6583
 20
21.6096
 30
0.000000
  70
    32
  0
VERTEX
  8
241
  5
4861
 10
22.6141
 20
21.6203
 30
0.000000
  70
    32
  0
VERTEX
  8
241
  5
4862
 10
22.5658
 20
21.6294
 30
0.000000
  70
    32
  0
VERTEX
  8
241
  5
4863
 10
22.5134
 20
21.6369
 30
0.000000
  70
    32
  0
VERTEX
  8
241
  5
4864
 10
22.4569
 20
21.6428
 30
0.000000
  70
    32
  0
VERTEX
  8
241
  5
4865
 10
22.3963
 20
21.6470
 30
0.000000
  70
    32
  0
VERTEX
  8
241
  5
4866
 10
22.3317
 20
21.6497
 30
0.000000
  70
    32
  0
VERTEX
  8
241
  5
4867
 10
22.2631
 20
21.6507
 30
0.000000
  70
    32
  0
VERTEX
  8
241
  5
4868
 10
22.1905
 20
21.6501
 30
0.000000
  70
    32
  0
VERTEX
  8
241
  5
4869
 10
22.1139
 20
21.6479
 30
0.000000
  70
    32
  0
VERTEX
  8
241
  5
486A
 10
22.0334
 20
21.6440
 30
0.000000
  70
    32
  0
VERTEX
  8
241
  5
486B
 10
21.9490
 20
21.6386
 30
0.000000
  70
    32
  0
VERTEX
  8
241
  5
486C
 10
21.8608
 20
21.6315
 30
0.000000
  70
    32
  0
VERTEX
  8
241
  5
486D
 10
21.7688
 20
21.6228
 30
0.000000
  70
    32
  0
VERTEX
  8
241
  5
486E
 10
21.6730
 20
21.6126
 30
0.000000
  70
    32
  0
VERTEX
  8
241
  5
486F
 10
21.5734
 20
21.6007
 30
0.000000
  70
    32
  0
VERTEX
  8
241
  5
4870
 10
21.4702
 20
21.5872
 30
0.000000
  70
    32
  0
VERTEX
  8
241
  5
4871
 10
21.3633
 20
21.5721
 30
0.000000
  70
    32
  0
VERTEX
  8
241
  5
4872
 10
21.2529
 20
21.5554
 30
0.000000
  70
    32
  0
VERTEX
  8
241
  5
4873
 10
21.1388
 20
21.5372
 30
0.000000
  70
    32
  0
VERTEX
  8
241
  5
4874
 10
21.0213
 20
21.5174
 30
0.000000
  70
    32
  0
VERTEX
  8
241
  5
4875
 10
20.9003
 20
21.4960
 30
0.000000
  70
    32
  0
VERTEX
  8
241
  5
4876
 10
20.7759
 20
21.4731
 30
0.000000
  70
    32
  0
VERTEX
  8
241
  5
4877
 10
20.6482
 20
21.4486
 30
0.000000
  70
    32
  0
VERTEX
  8
241
  5
4878
 10
20.5171
 20
21.4226
 30
0.000000
  70
    32
  0
VERTEX
  8
241
  5
4879
 10
20.3829
 20
21.3951
 30
0.000000
  70
    32
  0
VERTEX
  8
241
  5
487A
 10
20.2454
 20
21.3660
 30
0.000000
  70
    32
  0
VERTEX
  8
241
  5
487B
 10
20.1048
 20
21.3355
 30
0.000000
  70
    32
  0
VERTEX
  8
241
  5
487C
 10
19.9611
 20
21.3034
 30
0.000000
  70
    32
  0
VERTEX
  8
241
  5
487D
 10
19.8145
 20
21.2700
 30
0.000000
  70
    32
  0
VERTEX
  8
241
  5
487E
 10
19.6649
 20
21.2350
 30
0.000000
  70
    32
  0
VERTEX
  8
241
  5
487F
 10
19.5124
 20
21.1986
 30
0.000000
  70
    32
  0
VERTEX
  8
241
  5
4880
 10
19.3571
 20
21.1608
 30
0.000000
  70
    32
  0
VERTEX
  8
241
  5
4881
 10
19.1990
 20
21.1215
 30
0.000000
  70
    32
  0
VERTEX
  8
241
  5
4882
 10
19.0383
 20
21.0809
 30
0.000000
  70
    32
  0
VERTEX
  8
241
  5
4883
 10
18.8749
 20
21.0389
 30
0.000000
  70
    32
  0
VERTEX
  8
241
  5
4884
 10
18.7091
 20
20.9955
 30
0.000000
  70
    32
  0
VERTEX
  8
241
  5
4885
 10
18.5407
 20
20.9508
 30
0.000000
  70
    32
  0
VERTEX
  8
241
  5
4886
 10
18.3699
 20
20.9048
 30
0.000000
  70
    32
  0
VERTEX
  8
241
  5
4887
 10
18.1968
 20
20.8575
 30
0.000000
  70
    32
  0
VERTEX
  8
241
  5
4888
 10
18.0215
 20
20.8089
 30
0.000000
  70
    32
  0
VERTEX
  8
241
  5
4889
 10
17.8439
 20
20.7590
 30
0.000000
  70
    32
  0
VERTEX
  8
241
  5
488A
 10
17.6643
 20
20.7079
 30
0.000000
  70
    32
  0
VERTEX
  8
241
  5
488B
 10
17.4826
 20
20.6555
 30
0.000000
  70
    32
  0
VERTEX
  8
241
  5
488C
 10
17.2990
 20
20.6020
 30
0.000000
  70
    32
  0
VERTEX
  8
241
  5
488D
 10
17.1135
 20
20.5473
 30
0.000000
  70
    32
  0
VERTEX
  8
241
  5
488E
 10
16.9262
 20
20.4914
 30
0.000000
  70
    32
  0
VERTEX
  8
241
  5
488F
 10
16.7372
 20
20.4344
 30
0.000000
  70
    32
  0
VERTEX
  8
241
  5
4890
 10
16.5465
 20
20.3763
 30
0.000000
  70
    32
  0
VERTEX
  8
241
  5
4891
 10
16.3543
 20
20.3172
 30
0.000000
  70
    32
  0
VERTEX
  8
241
  5
4892
 10
16.1606
 20
20.2570
 30
0.000000
  70
    32
  0
VERTEX
  8
241
  5
4893
 10
15.9656
 20
20.1957
 30
0.000000
  70
    32
  0
VERTEX
  8
241
  5
4894
 10
15.7692
 20
20.1335
 30
0.000000
  70
    32
  0
VERTEX
  8
241
  5
4895
 10
15.5716
 20
20.0702
 30
0.000000
  70
    32
  0
VERTEX
  8
241
  5
4896
 10
15.3728
 20
20.0061
 30
0.000000
  70
    32
  0
SEQEND
  8
241
  5
4897
  0
LINE
  5
42FB
  8
241
  6
CONTINUOUS
 10
18.43066929364667
 20
24.290098916945912
 30
0.0
 11
18.43066929364667
 21
24.176486317845391
 31
0.0
  0
ARC
  5
434E
  8
240
  6
CONTINUOUS
 10
15.99999999999997
 20
-13.599999999999991
 30
0.0
 40
6.0
 50
90.0
 51
179.9999999999994
1001
GENIUS_GENOBJ-N-FIL_13
1002
{
1000
OWNER
1000
GEN
1002
}
1001
GENIUS_GENODEF_13
1002
{
1000
HIER
1070
     0
1002
}
1002
{
1000
MANEDIT
1070
     0
1002
}
1002
{
1000
NOSEL
1070
     0
1002
}
1002
{
1000
BEHIND
1070
     0
1002
}
1002
{
1000
OTHER
1070
     0
1002
}
1002
{
1000
REACTOR
1002
}
  0
LINE
  5
4357
  8
241
  6
CONTINUOUS
 10
25.22932241499413
 20
25.082376622314371
 30
0.0
 11
18.43066929364667
 21
24.176486317845391
 31
0.0
  0
LINE
  5
4358
  8
241
  6
CONTINUOUS
 10
18.43066929364667
 20
24.176486317845391
 30
0.0
 11
12.682803425057591
 21
20.362836800006381
 31
0.0
  0
ARC
  5
4359
  8
241
  6
CONTINUOUS
 10
15.99999999999997
 20
15.36321612607615
 30
0.0
 40
6.0
 50
123.5638621791888
 51
180.0
1001
GENIUS_GENOBJ-N-FIL_13
1002
{
1000
OWNER
1000
GEN
1002
}
1001
GENIUS_GENODEF_13
1002
{
1000
HIER
1070
     0
1002
}
1002
{
1000
MANEDIT
1070
     0
1002
}
1002
{
1000
NOSEL
1070
     0
1002
}
1002
{
1000
BEHIND
1070
     0
1002
}
1002
{
1000
OTHER
1070
     0
1002
}
1002
{
1000
REACTOR
1002
}
  0
LINE
  5
4395
  8
246
  6
PHANTOM2
 10
37.996955758473391
 20
26.130275405801981
 30
0.0
 11
37.014602866206118
 21
14.901930467415481
 31
0.0
  0
ARC
  5
4396
  8
246
  6
PHANTOM2
 10
36.217647107732702
 20
14.97165506161355
 30
0.0
 40
0.8
 50
274.99999999999977
 51
355.00000000000182
1001
GENIUS_GENOBJ-N-FIL_13
1002
{
1000
OWNER
1000
GEN
1002
}
1001
GENIUS_GENODEF_13
1002
{
1000
HIER
1070
     0
1002
}
1002
{
1000
MANEDIT
1070
     0
1002
}
1002
{
1000
NOSEL
1070
     0
1002
}
1002
{
1000
BEHIND
1070
     0
1002
}
1002
{
1000
OTHER
1070
     0
1002
}
1002
{
1000
REACTOR
1002
}
  0
LINE
  5
4397
  8
246
  6
PHANTOM2
 10
25.17469930314018
 20
25.287371701930638
 30
0.0
 11
24.19234641087295
 21
14.059026763544191
 31
0.0
  0
ARC
  5
4398
  8
246
  6
PHANTOM2
 10
25.971655061613578
 20
25.2176471077325
 30
0.0
 40
0.8
 50
94.999999999999801
 51
175.0000000000019
1001
GENIUS_GENODEF_13
1002
{
1000
HIER
1070
     0
1002
}
1002
{
1000
MANEDIT
1070
     0
1002
}
1002
{
1000
NOSEL
1070
     0
1002
}
1002
{
1000
BEHIND
1070
     0
1002
}
1002
{
1000
OTHER
1070
     0
1002
}
1002
{
1000
REACTOR
1002
}
1001
GENIUS_GENOBJ-N-FIL_13
1002
{
1000
OWNER
1000
GEN
1002
}
  0
LINE
  5
4399
  8
246
  6
PHANTOM2
 10
36.287371701930837
 20
14.174699303140139
 30
0.0
 11
25.059026763544431
 21
13.19234641087264
 31
0.0
  0
ARC
  5
439A
  8
246
  6
PHANTOM2
 10
24.98930216934631
 20
13.989302169346059
 30
0.0
 40
0.8
 50
175.0000000000019
 51
274.99999999999977
1001
GENIUS_GENODEF_13
1002
{
1000
HIER
1070
     0
1002
}
1002
{
1000
MANEDIT
1070
     0
1002
}
1002
{
1000
NOSEL
1070
     0
1002
}
1002
{
1000
BEHIND
1070
     0
1002
}
1002
{
1000
OTHER
1070
     0
1002
}
1002
{
1000
REACTOR
1002
}
1001
GENIUS_GENOBJ-N-FIL_13
1002
{
1000
OWNER
1000
GEN
1002
}
  0
LINE
  5
439B
  8
246
  6
PHANTOM2
 10
25.90193046741545
 20
26.014602866205919
 30
0.0
 11
37.130275405801839
 21
26.996955758473408
 31
0.0
  0
ARC
  5
439C
  8
246
  6
PHANTOM2
 10
37.199999999999967
 20
26.199999999999999
 30
0.0
 40
0.8
 50
355.00000000000182
 51
94.999999999999801
1001
GENIUS_GENODEF_13
1002
{
1000
HIER
1070
     0
1002
}
1002
{
1000
MANEDIT
1070
     0
1002
}
1002
{
1000
NOSEL
1070
     0
1002
}
1002
{
1000
BEHIND
1070
     0
1002
}
1002
{
1000
OTHER
1070
     0
1002
}
1002
{
1000
REACTOR
1002
}
1001
GENIUS_GENOBJ-N-FIL_13
1002
{
1000
OWNER
1000
GEN
1002
}
  0
CIRCLE
  5
439D
  8
246
  6
PHANTOM2
 10
31.094651084673139
 20
20.09465108467306
 30
0.0
 40
6.349999999999997
  0
LINE
  5
439E
  8
250
  6
CONTINUOUS
 10
65.756531718405967
 20
34.906671255150862
 30
0.0
 11
46.453156669622182
 21
34.906671255150862
 31
0.0
  0
LINE
  5
439F
  8
250
  6
CONTINUOUS
 10
46.453156669622182
 20
34.906671255150862
 30
0.0
 11
40.041230849602648
 21
26.46739551876469
 31
0.0
  0
LINE
  5
43A0
  8
250
  6
CONTINUOUS
 10
40.041230849602648
 20
26.46739551876469
 30
0.0
 11
38.692151742630116
 21
24.691758854598788
 31
0.0
  0
LINE
  5
43A1
  8
250
  6
CONTINUOUS
 10
39.807463849000442
 20
26.645005151848149
 30
0.0
 11
38.692151742630116
 21
24.691758854598788
 31
0.0
  0
LINE
  5
43A2
  8
250
  6
CONTINUOUS
 10
38.692151742630116
 20
24.691758854598788
 30
0.0
 11
40.274997850204826
 21
26.28978588568123
 31
0.0
  0
TEXT
  5
43A3
  8
250
  6
CONTINUOUS
 10
47.304762924750563
 20
36.462502673616157
 30
0.0
 40
2.799999999999998
  1
CN1204
  7
ACJISTS
  0
LINE
  5
43A4
  8
241
  6
CONTINUOUS
 10
13.39565836018603
 20
3.131583655882674
 30
0.0
 11
21.642057392860298
 21
-2.5249968501638591
 31
0.0
  0
ARC
  5
43A6
  8
241
  6
CONTINUOUS
 10
24.103749791552978
 20
10.78694979243984
 30
0.0
 40
6.0
 50
120.5519999808494
 51
145.5520000066488
1001
GENIUS_GENOBJ-N-FIL_13
1002
{
1000
OWNER
1000
GEN
1002
}
1001
GENIUS_GENODEF_13
1002
{
1000
HIER
1070
     0
1002
}
1002
{
1000
MANEDIT
1070
     0
1002
}
1002
{
1000
NOSEL
1070
     0
1002
}
1002
{
1000
BEHIND
1070
     0
1002
}
1002
{
1000
OTHER
1070
     0
1002
}
1002
{
1000
REACTOR
1002
}
  0
LINE
  5
43A7
  8
241
  6
CONTINUOUS
 10
19.155910372346401
 20
14.180898095190701
 30
0.0
 11
13.00718557592298
 21
5.2170305891885622
 31
0.0
  0
ARC
  5
43A8
  8
241
  6
CONTINUOUS
 10
14.244145430219231
 20
4.3685435092030911
 30
0.0
 40
1.5
 50
145.55199999999991
 51
235.55199999999959
  0
LINE
  5
43AA
  8
241
  6
CONTINUOUS
 10
23.72750431621391
 20
-2.1365240668766372
 30
0.0
 11
29.876229112905591
 21
6.8273434395165822
 31
0.0
  0
ARC
  5
43AB
  8
241
  6
CONTINUOUS
 10
22.490544462893489
 20
-1.2880369968434391
 30
0.0
 40
1.5
 50
235.55199999999959
 51
325.55199999999979
  0
ARC
  5
43AC
  8
241
  6
CONTINUOUS
 10
31.094651084673139
 20
20.09465108467306
 30
0.0
 40
1.9999999999999989
 50
310.82154328350538
 51
160.28245734670591
  0
LINE
  5
43AD
  8
241
  6
CONTINUOUS
 10
30.846999619673952
 20
9.2363772565627826
 30
0.0
 11
32.402061462403672
 21
18.581152454279721
 31
0.0
  0
ARC
  5
43AE
  8
241
  6
CONTINUOUS
 10
24.928389693699
 20
10.221291742267439
 30
0.0
 40
6.0
 50
325.55200000664883
 51
350.55199995980502
1001
GENIUS_GENOBJ-N-FIL_13
1002
{
1000
OWNER
1000
GEN
1002
}
1001
GENIUS_GENODEF_13
1002
{
1000
HIER
1070
     0
1002
}
1002
{
1000
MANEDIT
1070
     0
1002
}
1002
{
1000
NOSEL
1070
     0
1002
}
1002
{
1000
BEHIND
1070
     0
1002
}
1002
{
1000
OTHER
1070
     0
1002
}
1002
{
1000
REACTOR
1002
}
  0
CIRCLE
  5
43AF
  8
241
  6
CONTINUOUS
 10
21.761293255570148
 20
6.4880926823412439
 30
0.0
 40
4.25
  0
LINE
  5
43B0
  8
241
  6
CONTINUOUS
 10
21.940397213108959
 20
8.7905381370954174
 30
0.0
 11
23.844821495064071
 21
7.4842068340999228
 31
0.0
  0
LINE
  5
43B1
  8
241
  6
CONTINUOUS
 10
19.677765016076219
 20
5.491978530582573
 30
0.0
 11
19.856868972639202
 21
7.7944239952890122
 31
0.0
  0
LINE
  5
43B2
  8
241
  6
CONTINUOUS
 10
21.582189289054881
 20
4.185647216658972
 30
0.0
 11
19.677765016076219
 21
5.491978530582573
 31
0.0
  0
LINE
  5
43B3
  8
241
  6
CONTINUOUS
 10
23.665717538501081
 20
5.1817613693934774
 30
0.0
 11
21.582189289054881
 21
4.185647216658972
 31
0.0
  0
LINE
  5
43B4
  8
241
  6
CONTINUOUS
 10
23.844821495064071
 20
7.4842068340999228
 30
0.0
 11
23.665717538501081
 21
5.1817613693934774
 31
0.0
  0
LINE
  5
43B5
  8
241
  6
CONTINUOUS
 10
19.856868972639202
 20
7.7944239952890122
 30
0.0
 11
21.940397213108959
 21
8.7905381370954174
 31
0.0
  0
LINE
  5
43B6
  8
241
  6
CONTINUOUS
 10
21.053828931392129
 20
15.953958864113281
 30
0.0
 11
29.211916504973431
 21
20.76941808327549
 31
0.0
  0
LINE
  5
44A7
  8
243
  6
HIDDEN2
 10
3.0499999999999692
 20
20.0
 30
0.0
 11
3.0499999999999692
 21
-20.0
 31
0.0
  0
TEXT
  5
44A8
  8
241
  6
CONTINUOUS
 10
-0.0000000000000284
 20
49.0
 30
0.0
 40
3.0
  1
B40-DCLNR-27038-12
  7
YOKO
  0
LINE
  5
450C
  8
250
  6
CONTINUOUS
 10
41.193102047565127
 20
-0.0000000000000001
 30
0.0
 11
50.0
 21
-0.0000000000000026
 31
0.0
  0
LINE
  5
450D
  8
250
  6
CONTINUOUS
 10
37.699999999999982
 20
27.0
 30
0.0
 11
50.0
 21
27.0
 31
0.0
  0
LINE
  5
450E
  8
250
  6
CONTINUOUS
 10
48.999999999999993
 20
2.2299999999999969
 30
0.0
 11
49.0
 21
24.77
 31
0.0
  0
LINE
  5
4512
  8
250
  6
CONTINUOUS
 10
-0.0000000000000284
 20
20.5
 30
0.0
 11
-0.0000000000000274
 21
36.0
 31
0.0
  0
LINE
  5
4513
  8
250
  6
CONTINUOUS
 10
37.999999999999972
 20
26.699999999999999
 30
0.0
 11
37.999999999999972
 21
36.0
 31
0.0
  0
LINE
  5
4514
  8
250
  6
CONTINUOUS
 10
2.229999999999972
 20
35.0
 30
0.0
 11
35.769999999999982
 21
35.0
 31
0.0
  0
TEXT
  5
4518
  8
250
  6
CONTINUOUS
 10
16.333333333333311
 20
36.0
 30
0.0
 40
2.7999999999999989
  1
38
  0
LINE
  5
4519
  8
250
  6
CONTINUOUS
 10
35.769999999999982
 20
35.37166666666667
 30
0.0
 11
37.999999999999972
 21
35.0
 31
0.0
  0
LINE
  5
451A
  8
250
  6
CONTINUOUS
 10
35.769999999999982
 20
34.62833333333333
 30
0.0
 11
37.999999999999972
 21
35.0
 31
0.0
  0
LINE
  5
451B
  8
250
  6
CONTINUOUS
 10
37.999999999999972
 20
35.0
 30
0.0
 11
35.769999999999982
 21
35.0
 31
0.0
  0
LINE
  5
451C
  8
250
  6
CONTINUOUS
 10
2.229999999999972
 20
34.62833333333333
 30
0.0
 11
-0.0000000000000275
 21
35.0
 31
0.0
  0
LINE
  5
451D
  8
250
  6
CONTINUOUS
 10
2.229999999999972
 20
35.37166666666667
 30
0.0
 11
-0.0000000000000275
 21
35.0
 31
0.0
  0
LINE
  5
451E
  8
250
  6
CONTINUOUS
 10
-0.0000000000000275
 20
35.0
 30
0.0
 11
2.229999999999972
 21
35.0
 31
0.0
  0
TEXT
  5
451F
  8
250
  6
CONTINUOUS
 10
47.999999999999993
 20
10.83333333333333
 30
0.0
 40
2.7999999999999989
  1
27
 50
90.0
  0
LINE
  5
4520
  8
250
  6
CONTINUOUS
 10
48.62833333333333
 20
24.77
 30
0.0
 11
49.0
 21
27.0
 31
0.0
  0
LINE
  5
4521
  8
250
  6
CONTINUOUS
 10
49.37166666666667
 20
24.77
 30
0.0
 11
49.0
 21
27.0
 31
0.0
  0
LINE
  5
4522
  8
250
  6
CONTINUOUS
 10
49.0
 20
27.0
 30
0.0
 11
49.0
 21
24.77
 31
0.0
  0
LINE
  5
4523
  8
250
  6
CONTINUOUS
 10
49.371666666666663
 20
2.2299999999999969
 30
0.0
 11
48.999999999999993
 21
-0.0000000000000024
 31
0.0
  0
LINE
  5
4524
  8
250
  6
CONTINUOUS
 10
48.628333333333323
 20
2.2299999999999969
 30
0.0
 11
48.999999999999993
 21
-0.0000000000000024
 31
0.0
  0
LINE
  5
4525
  8
250
  6
CONTINUOUS
 10
48.999999999999993
 20
-0.0000000000000024
 30
0.0
 11
48.999999999999993
 21
2.2299999999999969
 31
0.0
  0
LINE
  5
4527
  8
241
  6
CONTINUOUS
 10
15.372829220394269
 20
20.006078392196851
 30
0.0
 11
12.70929026986844
 21
18.973617309850599
 31
0.0
  0
LINE
  5
452A
  8
241
  6
CONTINUOUS
 10
15.37282922039425
 20
17.452686837847061
 30
0.0
 11
13.657066513486299
 21
16.691611159734219
 31
0.0
  0
ARC
  5
452B
  8
241
  6
CONTINUOUS
 10
13.155956929469109
 20
17.821308456674231
 30
0.0
 40
1.235850637377933
 50
111.1877032996541
 51
293.92105103576091
  0
VIEWPORT
  5
22
 67
     1
  8
0
 10
261.51769911504419
 20
148.5
 30
0.0
 40
523.0353982300885
 41
297.0
 68
     1
 69
     1
1001
ACAD
1000
MVIEW
1002
{
1070
    16
1010
0.0
1020
0.0
1030
0.0
1010
0.0
1020
0.0
1030
1.0
1040
0.0
1040
297.0
1040
261.51769911504419
1040
148.5
1040
50.0
1040
0.0
1040
0.0
1070
     0
1070
   100
1070
     1
1070
     1
1070
     0
1070
     0
1070
     0
1070
     0
1040
0.0
1040
0.0
1040
0.0
1040
1.0
1040
1.0
1040
10.0
1040
10.0
1070
     0
1002
{
1002
}
1002
}
1001
GENIUS_GENODEF_13
1002
{
1000
HIER
1070
     0
1002
}
1002
{
1000
MANEDIT
1070
     0
1002
}
1002
{
1000
NOSEL
1070
     0
1002
}
1002
{
1000
BEHIND
1070
     0
1002
}
1002
{
1000
OTHER
1070
     0
1002
}
1002
{
1000
REACTOR
1002
}
1001
GENIUS_GENOBJ-N-SDF_13
1002
{
1000
OWNER
1000
GEN
1002
}
1001
GENIUS_GENSCREG_15
1000
PF
1040
1.0
1000
DF
1040
1.0
1000
MIN
1011
0.0
1021
0.0
1031
0.0
1021
0.0
1031
0.0
1000
MAX
1011
523.0353982300885
1021
0.0
1031
0.0
1021
297.0
1031
0.0
1000
FLAGS
1070
     4
  0
ENDSEC
  0
EOF
