  0
SECTION
  2
HEADER
  9
$ACADVER
  1
AC1009
  9
$INSBASE
 10
0.0
 20
0.0
 30
0.0
  9
$EXTMIN
 10
-2.6241544148626872
 20
-16.0
 30
0.0
  9
$EXTMAX
 10
68.230698576527573
 20
52.0
 30
0.0
  9
$LIMMIN
 10
0.0
 20
0.0
  9
$LIMMAX
 10
297.0
 20
210.0
  9
$ORTHOMODE
 70
     0
  9
$REGENMODE
 70
     1
  9
$FILLMODE
 70
     1
  9
$QTEXTMODE
 70
     0
  9
$MIRRTEXT
 70
     1
  9
$DRAGMODE
 70
     2
  9
$LTSCALE
 40
10.0
  9
$OSMODE
 70
   103
  9
$ATTMODE
 70
     1
  9
$TEXTSIZE
 40
3.0
  9
$TRACEWID
 40
1.0
  9
$TEXTSTYLE
  7
YOKO
  9
$CLAYER
  8
240
  9
$CELTYPE
  6
BYLAYER
  9
$CECOLOR
 62
   256
  9
$DIMSCALE
 40
1.0
  9
$DIMASZ
 40
2.2299999999999991
  9
$DIMEXO
 40
0.5
  9
$DIMDLI
 40
7.0
  9
$DIMRND
 40
0.0
  9
$DIMDLE
 40
0.0
  9
$DIMEXE
 40
1.0
  9
$DIMTP
 40
0.0
  9
$DIMTM
 40
0.01
  9
$DIMTXT
 40
2.799999999999998
  9
$DIMCEN
 40
0.0
  9
$DIMTSZ
 40
0.0
  9
$DIMTOL
 70
     0
  9
$DIMLIM
 70
     0
  9
$DIMTIH
 70
     0
  9
$DIMTOH
 70
     0
  9
$DIMSE1
 70
     0
  9
$DIMSE2
 70
     0
  9
$DIMTAD
 70
     3
  9
$DIMZIN
 70
     9
  9
$DIMBLK
  1
OPEN
  9
$DIMASO
 70
     1
  9
$DIMSHO
 70
     1
  9
$DIMPOST
  1

  9
$DIMAPOST
  1

  9
$DIMALT
 70
     0
  9
$DIMALTD
 70
     2
  9
$DIMALTF
 40
25.399999999999999
  9
$DIMLFAC
 40
1.0
  9
$DIMTOFL
 70
     1
  9
$DIMTVP
 40
0.0
  9
$DIMTIX
 70
     1
  9
$DIMSOXD
 70
     0
  9
$DIMSAH
 70
     0
  9
$DIMBLK1
  1

  9
$DIMBLK2
  1

  9
$DIMSTYLE
  2
BIGT
  9
$DIMCLRD
 70
   256
  9
$DIMCLRE
 70
   256
  9
$DIMCLRT
 70
    40
  9
$DIMTFAC
 40
1.0
  9
$DIMGAP
 40
1.0
  9
$LUNITS
 70
     2
  9
$LUPREC
 70
     6
  9
$SKETCHINC
 40
1.0
  9
$FILLETRAD
 40
6.0
  9
$AUNITS
 70
     0
  9
$AUPREC
 70
     6
  9
$MENU
  1
.
  9
$ELEVATION
 40
0.0
  9
$PELEVATION
 40
0.0
  9
$THICKNESS
 40
0.0
  9
$LIMCHECK
 70
     0
  9
$BLIPMODE
 70
     0
  9
$CHAMFERA
 40
0.2
  9
$CHAMFERB
 40
0.2
  9
$SKPOLY
 70
     0
  9
$TDCREATE
 40
2458065.4723595721
  9
$TDUPDATE
 40
2458914.4515013308
  9
$TDINDWG
 40
0.0784768287
  9
$TDUSRTIMER
 40
0.0784768056
  9
$USRTIMER
 70
     1
  9
$ANGBASE
 50
0.0
  9
$ANGDIR
 70
     0
  9
$PDMODE
 70
     1
  9
$PDSIZE
 40
0.0
  9
$PLINEWID
 40
0.0
  9
$COORDS
 70
     1
  9
$SPLFRAME
 70
     0
  9
$SPLINETYPE
 70
     6
  9
$SPLINESEGS
 70
     4
  9
$ATTDIA
 70
     1
  9
$ATTREQ
 70
     1
  9
$HANDLING
 70
     1
  9
$HANDSEED
  5
588E
  9
$SURFTAB1
 70
     6
  9
$SURFTAB2
 70
     6
  9
$SURFTYPE
 70
     6
  9
$SURFU
 70
     6
  9
$SURFV
 70
     6
  9
$UCSNAME
  2

  9
$UCSORG
 10
0.0
 20
0.0
 30
0.0
  9
$UCSXDIR
 10
1.0
 20
0.0
 30
0.0
  9
$UCSYDIR
 10
0.0
 20
1.0
 30
0.0
  9
$PUCSNAME
  2

  9
$PUCSORG
 10
0.0
 20
0.0
 30
0.0
  9
$PUCSXDIR
 10
1.0
 20
0.0
 30
0.0
  9
$PUCSYDIR
 10
0.0
 20
1.0
 30
0.0
  9
$USERI1
 70
     1
  9
$USERI2
 70
     0
  9
$USERI3
 70
     0
  9
$USERI4
 70
     0
  9
$USERI5
 70
     0
  9
$USERR1
 40
0.0
  9
$USERR2
 40
0.0
  9
$USERR3
 40
0.0
  9
$USERR4
 40
0.0
  9
$USERR5
 40
0.0
  9
$WORLDVIEW
 70
     1
  9
$SHADEDGE
 70
     3
  9
$SHADEDIF
 70
    70
  9
$TILEMODE
 70
     1
  9
$MAXACTVP
 70
    16
  9
$PLIMCHECK
 70
     0
  9
$PEXTMIN
 10
1.0000000000000000E+020
 20
1.0000000000000000E+020
 30
1.0000000000000000E+020
  9
$PEXTMAX
 10
-1.0000000000000000E+020
 20
-1.0000000000000000E+020
 30
-1.0000000000000000E+020
  9
$PLIMMIN
 10
0.0
 20
0.0
  9
$PLIMMAX
 10
420.0
 20
297.0
  9
$UNITMODE
 70
     0
  9
$VISRETAIN
 70
     1
  9
$PLINEGEN
 70
     0
  9
$PSLTSCALE
 70
     1
  0
ENDSEC
  0
SECTION
  2
TABLES
  0
TABLE
  2
VPORT
 70
     1
  0
VPORT
  2
*ACTIVE
 70
     0
 10
0.0
 20
0.0
 11
1.0
 21
1.0
 12
43.515340362055937
 22
14.624856034400221
 13
0.0
 23
0.0
 14
7.0
 24
7.0
 15
7.0
 25
7.0
 16
0.0
 26
0.0
 36
1.0
 17
0.0
 27
0.0
 37
0.0
 40
148.8537300679416
 41
1.806861499364675
 42
50.0
 43
0.0
 44
0.0
 50
0.0
 51
0.0
 71
     0
 72
  2000
 73
     1
 74
     0
 75
     0
 76
     1
 77
     0
 78
     0
  0
ENDTAB
  0
TABLE
  2
LTYPE
 70
    22
  0
LTYPE
  2
CONTINUOUS
 70
     0
  3
Solid line
 72
    65
 73
     0
 40
0.0
  0
LTYPE
  2
CENTER2
 70
     0
  3
___ _ ___ _ ___ _ ___ _ ___ _ ___ _ ___ _ ___ _
 72
    65
 73
     4
 40
1.125
 49
0.75
 49
-0.125
 49
0.125
 49
-0.125
  0
LTYPE
  2
HIDDEN2
 70
     0
  3
_ _ _ _ _ _ _ _ _ _ _ _ _ _ _ _ _ _ _ _ _ _ _ _
 72
    65
 73
     2
 40
0.1875
 49
0.125
 49
-0.0625
  0
LTYPE
  2
PHANTOM2
 70
     0
  3
___ _ _ ___ _ _ ___ _ _ ___ _ _ ___ _ _ ___ _ _
 72
    65
 73
     6
 40
1.25
 49
0.625
 49
-0.125
 49
0.125
 49
-0.125
 49
0.125
 49
-0.125
  0
LTYPE
  2
AM_ISO02W050
 70
     0
  3
__ __ __ __ __ __ __ __ __ __ __ __ __ __ __
 72
    65
 73
     2
 40
7.5
 49
6.0
 49
-1.5
  0
LTYPE
  2
AMCONSTR
 70
     0
  3
_______________________
 72
    65
 73
     2
 40
9999.0
 49
9999.0
 49
0.0
  0
LTYPE
  2
HIDDEN
 70
     0
  3
Hidden __ __ __ __ __ __ __ __ __ __ __ __ __ _
 72
    65
 73
     2
 40
0.375
 49
0.25
 49
-0.125
  0
LTYPE
  2
CENTER
 70
     0
  3
Center ____ _ ____ _ ____ _ ____ _ ____ _ ____
 72
    65
 73
     4
 40
2.0
 49
1.25
 49
-0.25
 49
0.25
 49
-0.25
  0
LTYPE
  2
AMZIGZAG2
 70
     0
  3
/\/-/\/-/\/-/\/-/\/-/\/
 72
    65
 73
     2
 40
0.4401
 49
0.0001
 49
-0.4400000000000001
  0
LTYPE
  2
ACANSTGB
 70
     0
  3
__ . . __ . .
 72
    65
 73
     6
 40
0.35433070866
 49
0.15748031496
 49
-0.03937007874
 49
0.03937007874
 49
-0.03937007874
 49
0.03937007874
 49
-0.03937007874
  0
LTYPE
  2
ACANSTGL
 70
     0
  3
_ _ _ _ _
 72
    65
 73
     2
 40
0.11811023622
 49
0.07874015748
 49
-0.03937007874
  0
LTYPE
  2
ACJISTGB
 70
     0
  3
__ . . __ . .
 72
    65
 73
     6
 40
9.0
 49
4.0
 49
-1.0
 49
1.0
 49
-1.0
 49
1.0
 49
-1.0
  0
LTYPE
  2
ACJISTGL
 70
     0
  3
_ _ _ _ _
 72
    65
 73
     2
 40
3.0
 49
2.0
 49
-1.0
  0
ENDTAB
  0
TABLE
  2
LAYER
 70
    11
  0
LAYER
  2
0
 70
     0
 62
     7
  6
CONTINUOUS
  0
LAYER
  2
240
 70
     0
 62
     4
  6
CONTINUOUS
  0
LAYER
  2
DEFPOINTS
 70
     0
 62
     7
  6
CONTINUOUS
  0
LAYER
  2
245
 70
     0
 62
     2
  6
CENTER2
  0
LAYER
  2
241
 70
     0
 62
   211
  6
CONTINUOUS
  0
LAYER
  2
242
 70
     0
 62
     3
  6
CONTINUOUS
  0
LAYER
  2
243
 70
     0
 62
   211
  6
HIDDEN2
  0
LAYER
  2
246
 70
     0
 62
     3
  6
PHANTOM2
  0
LAYER
  2
250
 70
     0
 62
     3
  6
CONTINUOUS
  0
ENDTAB
  0
TABLE
  2
STYLE
 70
     9
  0
STYLE
  2
STANDARD
 70
     0
 40
0.0
 41
1.0
 50
0.0
 71
     0
 42
3.0
  3
romans.shx
  4
extfont.shx
  0
STYLE
  2
YOKO
 70
     0
 40
0.0
 41
1.0
 50
0.0
 71
     0
 42
3.0
  3
romans.shx
  4
extfont.shx
  0
STYLE
  2
ACJISTS
 70
     0
 40
1.0
 41
1.0
 50
0.0
 71
     0
 42
3.0
  3
amgdt.shx
  4
extfont.shx
  0
STYLE
  2

 70
     1
 40
0.0
 41
1.0
 50
0.0
 71
     0
 42
3.0
  3
genltshp.shx
  4

  0
STYLE
  2
ACANSGDT
 70
     0
 40
0.0
 41
1.0
 50
0.0
 71
     0
 42
3.0
  3
amgdt.shx
  4

  0
STYLE
  2
ACJISGDT
 70
     0
 40
0.0
 41
1.0
 50
0.0
 71
     0
 42
3.0
  3
amgdt.shx
  4
extfont.shx
  0
ENDTAB
  0
TABLE
  2
VIEW
 70
     0
  0
ENDTAB
  0
TABLE
  2
UCS
 70
     0
  0
ENDTAB
  0
TABLE
  2
APPID
 70
    46
  0
APPID
  2
ACAD
 70
     0
  0
APPID
  2
ACADANNOTATIVE
 70
     0
  0
APPID
  2
GLOBAL
 70
     0
  0
APPID
  2
DETAIL
 70
     0
  0
APPID
  2
GRPNAME
 70
     0
  0
APPID
  2
GPARA
 70
     0
  0
APPID
  2
MCAD_NO_VIS
 70
     0
  0
APPID
  2
ACAD_TEMP_GRAPHIC
 70
     0
  0
APPID
  2
ACATTRIBSERVICES
 70
     0
  0
APPID
  2
GENIUS_GENSCREG_15
 70
     0
  0
APPID
  2
GENIUS_GENODEF_13
 70
     0
  0
APPID
  2
GENIUS_GENOBJ-N-SDF_13
 70
     0
  0
APPID
  2
GENIUS_GENREC_14
 70
     0
  0
APPID
  2
GENIUS_GENOBJ-N-REC_13
 70
     0
  0
APPID
  2
GENIUS_GENDIMSH_14
 70
     0
  0
APPID
  2
GENIUS_GENOBJ-N-DIM_13
 70
     0
  0
APPID
  2
GENIUS_GENDIM_13
 70
     0
  0
APPID
  2
GENIUS_GENDTOL_13
 70
     0
  0
APPID
  2
GENIUS_GENOLIS_13
 70
     0
  0
APPID
  2
GENIUS_GENOENT_13
 70
     0
  0
APPID
  2
GENIUS_GENOBJ-F-FEM_13
 70
     0
  0
APPID
  2
GENIUS_GENOREF_13
 70
     0
  0
APPID
  2
GENIUS_GEFFEM_13
 70
     0
  0
APPID
  2
GENIUS_GEFFEMP_13
 70
     0
  0
APPID
  2
AD_DRAW
 70
     0
  0
APPID
  2
DESIGNERASSEMBLIES
 70
     0
  0
APPID
  2
ACADM_DIM_EDIT
 70
     0
  0
APPID
  2
AMDT_DM_ADJ
 70
     0
  0
APPID
  2
ITEMNAME
 70
     0
  0
APPID
  2
GENIUS_GENOBJ-N-FIL_13
 70
     0
  0
APPID
  2
GENIUS_GENFIL_13
 70
     0
  0
APPID
  2
GENIUS_GENOBJ-N-CHA_13
 70
     0
  0
APPID
  2
ACAECLAYERSTANDARD
 70
     0
  0
APPID
  2
ACAD_NAV_VCDISPLAY
 70
     0
  0
APPID
  2
ACAD_PSEXT
 70
     0
  0
APPID
  2
ACAD_DSTYLE_DIMJAG
 70
     0
  0
APPID
  2
ACAD_DSTYLE_DIMTALN
 70
     0
  0
APPID
  2
ACAD_DSTYLE_DIMRADIAL_EXTENSION
 70
     0
  0
APPID
  2
ASKLEADERCHILD
 70
     0
  0
APPID
  2
ASK_MEN_XD
 70
     0
  0
APPID
  2
ACAD_DSTYLE_DIMINSPECT
 70
     0
  0
APPID
  2
ACAD_DSTYLE_DIMANGULAR_EXT
 70
     0
  0
APPID
  2
ACAD_EXEMPT_FROM_CAD_STANDARDS
 70
     0
  0
APPID
  2
ACAD_MLEADERVER
 70
     0
  0
APPID
  2
ACAD_DSTYLE_DIMBREAK
 70
     0
  0
APPID
  2
ACAD_DSTYLE_DIMANGULAR_EX0
 70
     0
  0
ENDTAB
  0
TABLE
  2
DIMSTYLE
 70
    26
  0
DIMSTYLE
  2
STANDARD
 70
     0
  3

  4

  5

  6

  7

 40
1.0
 41
0.18
 42
0.0625
 43
0.38
 44
0.18
 45
0.0
 46
0.0
 47
0.0
 48
0.0
140
0.18
141
0.09
142
0.0
143
25.399999999999999
144
1.0
145
0.0
146
1.0
147
0.09
 71
     0
 72
     0
 73
     1
 74
     1
 75
     0
 76
     0
 77
     0
 78
     0
170
     0
171
     2
172
     0
173
     0
174
     0
175
     0
176
     0
177
     0
178
     0
  0
DIMSTYLE
  2
BIGT
 70
     0
  3

  4

  5

  6

  7

 40
1.0
 41
2.2299999999999991
 42
0.5
 43
7.0
 44
1.0
 45
0.0
 46
0.0
 47
0.0
 48
0.01
140
2.799999999999998
141
0.0
142
0.0
143
25.399999999999999
144
1.0
145
0.0
146
1.0
147
1.0
 71
     0
 72
     0
 73
     0
 74
     0
 75
     0
 76
     0
 77
     3
 78
     9
170
     0
171
     2
172
     1
173
     0
174
     1
175
     0
176
   256
177
   256
178
    40
  0
DIMSTYLE
  2
AM_ANSI
 70
     0
  3

  4
mm
  5

  6

  7

 40
1.0
 41
0.12
 42
0.05
 43
0.5
 44
0.1
 45
0.0
 46
0.0
 47
0.1
 48
0.1
140
0.12
141
0.0
142
0.0
143
25.399999999999999
144
1.0
145
0.0
146
0.71
147
0.06
 71
     0
 72
     0
 73
     1
 74
     1
 75
     0
 76
     0
 77
     0
 78
     7
170
     0
171
     2
172
     0
173
     0
174
     0
175
     0
176
   256
177
   256
178
     2
  0
DIMSTYLE
  2
AM_ANSI$3
 70
     0
  3

  4
mm
  5

  6

  7

 40
1.0
 41
0.12
 42
0.05
 43
0.5
 44
0.1
 45
0.0
 46
0.0
 47
0.1
 48
0.1
140
0.12
141
0.0
142
0.0
143
25.399999999999999
144
1.0
145
0.0
146
0.71
147
0.06
 71
     0
 72
     0
 73
     1
 74
     1
 75
     0
 76
     0
 77
     0
 78
     7
170
     0
171
     2
172
     0
173
     0
174
     0
175
     0
176
   256
177
   256
178
     2
  0
DIMSTYLE
  2
AM_ANSI$4
 70
     0
  3

  4
mm
  5

  6

  7

 40
1.0
 41
0.12
 42
0.05
 43
0.5
 44
0.1
 45
0.0
 46
0.0
 47
0.1
 48
0.1
140
0.12
141
0.0
142
0.0
143
25.399999999999999
144
1.0
145
0.0
146
0.71
147
0.06
 71
     0
 72
     0
 73
     1
 74
     1
 75
     0
 76
     0
 77
     0
 78
     7
170
     0
171
     2
172
     0
173
     0
174
     0
175
     0
176
   256
177
   256
178
     2
  0
DIMSTYLE
  2
AM_ANSI$7
 70
     0
  3

  4
mm
  5

  6

  7

 40
1.0
 41
0.12
 42
0.05
 43
0.5
 44
0.1
 45
0.0
 46
0.0
 47
0.1
 48
0.1
140
0.12
141
0.0
142
0.0
143
25.399999999999999
144
1.0
145
0.0
146
0.71
147
0.06
 71
     0
 72
     0
 73
     1
 74
     1
 75
     0
 76
     0
 77
     0
 78
     7
170
     0
171
     2
172
     0
173
     0
174
     0
175
     0
176
   256
177
   256
178
     2
  0
DIMSTYLE
  2
AM_ANSI$SF
 70
     0
  3

  4
mm
  5

  6

  7

 40
1.0
 41
0.12
 42
0.05
 43
0.5
 44
0.1
 45
0.0
 46
0.0
 47
0.1
 48
0.1
140
0.12
141
0.0
142
0.0
143
25.399999999999999
144
1.0
145
0.0
146
0.71
147
0.06
 71
     0
 72
     0
 73
     1
 74
     1
 75
     1
 76
     1
 77
     0
 78
     7
170
     0
171
     2
172
     0
173
     0
174
     0
175
     0
176
   256
177
   256
178
     2
  0
DIMSTYLE
  2
AM_ANSI$SH
 70
     0
  3

  4
mm
  5

  6
GENAXEH
  7

 40
1.0
 41
0.12
 42
0.05
 43
0.5
 44
0.1
 45
0.0
 46
0.0
 47
0.1
 48
0.1
140
0.12
141
0.0
142
0.0
143
25.399999999999999
144
1.0
145
0.0
146
0.71
147
0.06
 71
     0
 72
     0
 73
     1
 74
     1
 75
     1
 76
     1
 77
     0
 78
     7
170
     0
171
     2
172
     0
173
     1
174
     0
175
     0
176
   256
177
   256
178
     2
  0
DIMSTYLE
  2
BIGT$3
 70
     0
  3

  4

  5

  6

  7

 40
1.0
 41
2.2299999999999991
 42
0.5
 43
7.0
 44
1.0
 45
0.0
 46
0.0
 47
0.0
 48
0.01
140
2.799999999999998
141
0.0
142
0.0
143
25.399999999999999
144
1.0
145
0.0
146
1.0
147
1.0
 71
     0
 72
     0
 73
     0
 74
     0
 75
     0
 76
     0
 77
     3
 78
     9
170
     0
171
     2
172
     1
173
     0
174
     1
175
     0
176
   256
177
   256
178
    40
  0
DIMSTYLE
  2
BIGT$2
 70
     0
  3

  4

  5
OPEN
  6

  7

 40
1.0
 41
2.2299999999999991
 42
0.5
 43
7.0
 44
1.0
 45
0.0
 46
0.0
 47
0.0
 48
0.01
140
2.7999999999999989
141
0.0
142
0.0
143
25.399999999999999
144
1.0
145
0.0
146
1.0
147
1.0
 71
     0
 72
     0
 73
     0
 74
     0
 75
     0
 76
     0
 77
     3
 78
     9
170
     0
171
     2
172
     1
173
     0
174
     0
175
     0
176
   256
177
   256
178
    40
  0
DIMSTYLE
  2
BIGT$7
 70
     0
  3

  4

  5
OPEN
  6

  7

 40
0.0
 41
2.2299999999999991
 42
0.5
 43
7.0
 44
1.0
 45
0.0
 46
0.0
 47
0.0
 48
0.01
140
2.7999999999999989
141
0.0
142
0.0
143
25.399999999999999
144
1.0
145
0.0
146
1.0
147
1.0
 71
     0
 72
     0
 73
     0
 74
     0
 75
     0
 76
     0
 77
     3
 78
     9
170
     0
171
     2
172
     0
173
     0
174
     0
175
     0
176
   256
177
   256
178
    40
  0
DIMSTYLE
  2
BIGT$6
 70
     0
  3

  4

  5
OPEN
  6

  7

 40
1.0
 41
2.2299999999999991
 42
0.5
 43
2.5
 44
1.0
 45
0.0
 46
0.0
 47
0.0
 48
0.01
140
2.7999999999999989
141
0.0
142
0.0
143
25.399999999999999
144
1.0
145
0.0
146
1.0
147
1.0
 71
     0
 72
     0
 73
     0
 74
     0
 75
     0
 76
     0
 77
     3
 78
     9
170
     0
171
     2
172
     1
173
     0
174
     0
175
     0
176
   256
177
   256
178
    40
  0
DIMSTYLE
  2
BIGT$0
 70
     0
  3

  4

  5
OPEN
  6

  7

 40
1.0
 41
2.2299999999999991
 42
0.5
 43
7.0
 44
1.0
 45
0.0
 46
0.0
 47
0.0
 48
0.01
140
2.7999999999999989
141
0.0
142
0.0
143
25.399999999999999
144
1.0
145
0.0
146
1.0
147
1.0
 71
     0
 72
     0
 73
     0
 74
     0
 75
     0
 76
     0
 77
     3
 78
     9
170
     0
171
     2
172
     1
173
     0
174
     1
175
     0
176
   256
177
   256
178
    40
  0
DIMSTYLE
  2
BIGT$4
 70
     0
  3

  4

  5
OPEN
  6

  7

 40
1.0
 41
2.2299999999999991
 42
0.5
 43
2.5
 44
1.0
 45
0.0
 46
0.0
 47
0.0
 48
0.01
140
2.7999999999999989
141
0.0
142
0.0
143
25.399999999999999
144
1.0
145
0.0
146
1.0
147
1.0
 71
     0
 72
     0
 73
     0
 74
     0
 75
     0
 76
     0
 77
     3
 78
     9
170
     0
171
     2
172
     1
173
     0
174
     0
175
     0
176
   256
177
   256
178
    40
  0
DIMSTYLE
  2
BIGT$SH
 70
     0
  3

  4

  5
OPEN
  6

  7

 40
1.0
 41
2.2299999999999991
 42
0.5
 43
7.0
 44
1.0
 45
0.0
 46
0.0
 47
0.0
 48
0.0
140
2.7999999999999989
141
0.0
142
0.0
143
25.399999999999999
144
1.0
145
0.0
146
1.0
147
1.0
 71
     0
 72
     0
 73
     0
 74
     0
 75
     0
 76
     0
 77
     3
 78
     9
170
     0
171
     2
172
     1
173
     0
174
     0
175
     0
176
   256
177
   256
178
    40
  0
DIMSTYLE
  2
BIGT$SF
 70
     0
  3

  4

  5
OPEN
  6

  7

 40
1.0
 41
2.2299999999999991
 42
0.5
 43
7.0
 44
1.0
 45
0.0
 46
0.0
 47
0.0
 48
0.0
140
2.7999999999999989
141
0.0
142
0.0
143
25.399999999999999
144
1.0
145
0.0
146
1.0
147
1.0
 71
     0
 72
     0
 73
     0
 74
     0
 75
     0
 76
     0
 77
     3
 78
     9
170
     0
171
     2
172
     1
173
     0
174
     0
175
     0
176
   256
177
   256
178
    40
  0
ENDTAB
  0
ENDSEC
  0
SECTION
  2
BLOCKS
  0
BLOCK
  8
0
  2
$MODEL_SPACE
 70
     0
 10
0.0
 20
0.0
 30
0.0
  3
$MODEL_SPACE
  1

  0
ENDBLK
  5
5526
  8
0
  0
BLOCK
 67
     1
  8
0
  2
$PAPER_SPACE
 70
     0
 10
0.0
 20
0.0
 30
0.0
  3
$PAPER_SPACE
  1

  0
ENDBLK
  5
5522
 67
     1
  8
0
  0
BLOCK
  8
0
  2
_OPEN
 70
     0
 10
0.0
 20
0.0
 30
0.0
  3
_OPEN
  1

  0
LINE
  5
3E1A
  8
0
  6
BYBLOCK
 62
     0
 10
-1.0
 20
0.1666666666666666
 30
0.0
 11
0.0
 21
0.0
 31
0.0
  0
LINE
  5
3E1B
  8
0
  6
BYBLOCK
 62
     0
 10
-1.0
 20
-0.1666666666666666
 30
0.0
 11
0.0
 21
0.0
 31
0.0
  0
LINE
  5
3E1C
  8
0
  6
BYBLOCK
 62
     0
 10
0.0
 20
0.0
 30
0.0
 11
-1.0
 21
0.0
 31
0.0
  0
ENDBLK
  5
3E1D
  8
0
  0
BLOCK
  8
0
  2
GENAXEH
 70
     0
 10
0.0
 20
0.0
 30
0.0
  3
GENAXEH
  1

  0
LINE
  5
3E45
  8
0
 10
-1.0
 20
0.0
 30
0.0
 11
1.0
 21
0.0
 31
0.0
  0
ENDBLK
  5
3E46
  8
0
  0
BLOCK
  8
0
  2
*U4
 70
     1
 10
0.0
 20
0.0
 30
0.0
  3
*U4
  1

  0
TEXT
  5
469D
  8
250
 10
13.33333333333333
 20
36.0
 30
0.0
 40
2.799999999999998
  1
32
  0
ENDBLK
  5
469F
  8
0
  0
BLOCK
  8
0
  2
*U5
 70
     1
 10
0.0
 20
0.0
 30
0.0
  3
*U5
  1

  0
TEXT
  5
46A1
  8
250
 10
44.293519471520689
 20
30.715611504234651
 30
0.0
 40
2.799999999999998
  1
TP1604
  7
ACJISTS
  0
ENDBLK
  5
46A3
  8
0
  0
BLOCK
  8
0
  2
_ACMFILLEDHALF
 70
     0
 10
0.0
 20
0.0
 30
0.0
  3
_ACMFILLEDHALF
  1

  0
TRACE
  5
55DD
  8
240
 62
     0
 10
-0.8
 20
0.0
 30
0.0
 11
-1.0
 21
0.166666666
 31
0.0
 12
0.0
 22
0.0
 32
0.0
 13
0.0
 23
0.0
 33
0.0
  0
LINE
  5
55DE
  8
240
 62
     0
 10
-1.0
 20
0.0
 30
0.0
 11
-0.8
 21
0.0
 31
0.0
  0
ENDBLK
  5
55DC
  8
0
  0
ENDSEC
  0
SECTION
  2
ENTITIES
  0
LINE
  5
42B3
  8
245
  6
CENTER2
 10
33.400168668438489
 20
0.0
 30
0.0
 11
-2.6241544148626872
 21
0.0
 31
0.0
  0
LINE
  5
42DB
  8
240
  6
CONTINUOUS
 10
10.19615242270652
 20
16.0
 30
0.0
 11
0.0
 21
16.0
 31
0.0
  0
LINE
  5
42DC
  8
240
  6
CONTINUOUS
 10
0.0
 20
-16.0
 30
0.0
 11
10.0
 21
-16.0
 31
0.0
  0
ARC
  5
42DD
  8
240
  6
CONTINUOUS
 10
10.19615242270652
 20
19.0
 30
0.0
 40
3.0
 50
270.0
 51
299.99999999999972
  0
LINE
  5
42DE
  8
240
  6
CONTINUOUS
 10
18.2058
 20
20.1602705697263
 30
0.0
 11
11.69615242270652
 21
16.40192378864668
 31
0.0
  0
LINE
  5
42E0
  8
240
  6
CONTINUOUS
 10
10.0
 20
-12.0
 30
0.0
 11
10.0
 21
-16.0
 31
0.0
  0
LINE
  5
42E1
  8
240
  6
CONTINUOUS
 10
0.0
 20
16.0
 30
0.0
 11
0.0
 21
-16.0
 31
0.0
  0
LINE
  5
42E4
  8
240
  6
CONTINUOUS
 10
16.0
 20
-6.0
 30
0.0
 11
20.237078037090669
 21
-6.0
 31
0.0
  0
LINE
  5
42EC
  8
240
  6
CONTINUOUS
 10
30.223373384636272
 20
3.4766404375705511
 30
0.0
 11
30.39067567922622
 21
6.6689583888111201
 31
0.0
  0
ARC
  5
42ED
  8
240
  6
CONTINUOUS
 10
20.237078037090669
 20
4.0
 30
0.0
 40
9.9999999999999964
 50
270.0
 51
357.00000000000091
  0
LINE
  5
44A2
  8
250
  6
CONTINUOUS
 10
33.900168668438482
 20
-0.0000000000000001
 30
0.0
 11
42.999999999999993
 21
-0.0000000000000027
 31
0.0
  0
LINE
  5
44A3
  8
250
  6
CONTINUOUS
 10
31.700008
 20
22.0
 30
0.0
 11
43.0
 21
22.0
 31
0.0
  0
LINE
  5
44A4
  8
250
  6
CONTINUOUS
 10
41.999999999999993
 20
2.229999999999996
 30
0.0
 11
42.0
 21
19.769999999999989
 31
0.0
  0
LINE
  5
44A8
  8
250
  6
CONTINUOUS
 10
0.0
 20
16.5
 30
0.0
 11
0.0000000000000012
 21
36.0
 31
0.0
  0
LINE
  5
44A9
  8
250
  6
CONTINUOUS
 10
32.0
 20
21.700008
 30
0.0
 11
32.0
 21
36.0
 31
0.0
  0
LINE
  5
44AA
  8
250
  6
CONTINUOUS
 10
2.23
 20
35.0
 30
0.0
 11
29.77
 21
35.0
 31
0.0
  0
INSERT
  5
44AD
  8
240
  2
*U4
 10
0.0
 20
0.0
 30
0.0
  0
LINE
  5
44AE
  8
250
  6
CONTINUOUS
 10
29.77
 20
35.37166666666667
 30
0.0
 11
32.0
 21
35.0
 31
0.0
  0
LINE
  5
44AF
  8
250
  6
CONTINUOUS
 10
29.77
 20
34.62833333333333
 30
0.0
 11
32.0
 21
35.0
 31
0.0
  0
LINE
  5
44B0
  8
250
  6
CONTINUOUS
 10
32.0
 20
35.0
 30
0.0
 11
29.77
 21
35.0
 31
0.0
  0
LINE
  5
44B1
  8
250
  6
CONTINUOUS
 10
2.23
 20
34.62833333333333
 30
0.0
 11
0.0000000000000012
 21
35.0
 31
0.0
  0
LINE
  5
44B2
  8
250
  6
CONTINUOUS
 10
2.23
 20
35.37166666666667
 30
0.0
 11
0.0000000000000012
 21
35.0
 31
0.0
  0
LINE
  5
44B3
  8
250
  6
CONTINUOUS
 10
0.0000000000000012
 20
35.0
 30
0.0
 11
2.23
 21
35.0
 31
0.0
  0
TEXT
  5
44B4
  8
250
  6
CONTINUOUS
 10
40.999999999999993
 20
8.3333333333333375
 30
0.0
 40
2.799999999999998
  1
22
 50
90.0
  0
LINE
  5
44B5
  8
250
  6
CONTINUOUS
 10
41.62833333333333
 20
19.769999999999989
 30
0.0
 11
42.0
 21
22.0
 31
0.0
  0
LINE
  5
44B6
  8
250
  6
CONTINUOUS
 10
42.371666666666663
 20
19.769999999999989
 30
0.0
 11
42.0
 21
22.0
 31
0.0
  0
LINE
  5
44B7
  8
250
  6
CONTINUOUS
 10
42.0
 20
22.0
 30
0.0
 11
42.0
 21
19.769999999999989
 31
0.0
  0
LINE
  5
44B8
  8
250
  6
CONTINUOUS
 10
42.371666666666663
 20
2.229999999999996
 30
0.0
 11
41.999999999999993
 21
-0.0000000000000024
 31
0.0
  0
LINE
  5
44B9
  8
250
  6
CONTINUOUS
 10
41.628333333333323
 20
2.229999999999996
 30
0.0
 11
41.999999999999993
 21
-0.0000000000000024
 31
0.0
  0
LINE
  5
44BA
  8
250
  6
CONTINUOUS
 10
41.999999999999993
 20
-0.0000000000000024
 30
0.0
 11
41.999999999999993
 21
2.229999999999996
 31
0.0
  0
LINE
  5
4556
  8
250
  6
CONTINUOUS
 10
59.626852804854018
 20
29.315611504234649
 30
0.0
 11
41.626852804854011
 21
29.315611504234649
 31
0.0
  0
LINE
  5
4557
  8
250
  6
CONTINUOUS
 10
41.626852804854011
 20
29.315611504234649
 30
0.0
 11
40.32347775607024
 21
29.315611504234649
 31
0.0
  0
LINE
  5
4558
  8
250
  6
CONTINUOUS
 10
40.32347775607024
 20
29.315611504234649
 30
0.0
 11
33.911551936050692
 21
20.876335767848492
 31
0.0
  0
LINE
  5
4559
  8
250
  6
CONTINUOUS
 10
33.911551936050692
 20
20.876335767848492
 30
0.0
 11
32.56247282907816
 21
19.10069910368259
 31
0.0
  0
LINE
  5
455A
  8
250
  6
CONTINUOUS
 10
33.677784935448493
 20
21.053945400931951
 30
0.0
 11
32.56247282907816
 21
19.10069910368259
 31
0.0
  0
LINE
  5
455B
  8
250
  6
CONTINUOUS
 10
32.56247282907816
 20
19.10069910368259
 30
0.0
 11
34.145318936652878
 21
20.698726134765032
 31
0.0
  0
INSERT
  5
455C
  8
240
  2
*U5
 10
0.0
 20
0.0
 30
0.0
  0
LINE
  5
455D
  8
241
  6
CONTINUOUS
 10
10.0
 20
13.946855348853219
 30
0.0
 11
10.0
 21
-12.0
 31
0.0
  0
TEXT
  5
4560
  8
241
  6
CONTINUOUS
 10
0.0
 20
49.0
 30
0.0
 40
3.0
  1
B32-STUPR-22032-16
  7
YOKO
  0
LINE
  5
4589
  8
243
  6
HIDDEN2
 10
3.049999999999998
 20
16.0
 30
0.0
 11
3.049999999999998
 21
-16.0
 31
0.0
  0
CIRCLE
  5
5747
  8
246
  6
PHANTOM2
 10
26.88373564750589
 20
14.553535749032569
 30
0.0
 40
4.7624999999999993
  0
LINE
  5
5748
  8
246
  6
PHANTOM2
 10
31.280513985745412
 20
7.4504402798454592
 30
0.0
 11
31.99890362780366
 21
21.158131235005619
 31
0.0
  0
ARC
  5
5749
  8
246
  6
PHANTOM2
 10
31.199999999999928
 20
21.199999999999939
 30
0.0
 40
0.8000000000000628
 50
357.00000000000108
 51
117.0000000000018
  0
LINE
  5
574A
  8
246
  6
PHANTOM2
 10
30.836807600208321
 20
21.912805219350741
 30
0.0
 11
18.60640418478431
 21
15.68110342160856
 31
0.0
  0
ARC
  5
574B
  8
246
  6
PHANTOM2
 10
18.969596584575921
 20
14.96829820225787
 30
0.0
 40
0.7999999999999644
 50
116.9999999999945
 51
236.99999999999881
  0
LINE
  5
574C
  8
246
  6
PHANTOM2
 10
18.533885356563928
 20
14.29736174790157
 30
0.0
 11
30.045899129929811
 21
6.8213725904834703
 31
0.0
  0
ARC
  5
574D
  8
246
  6
PHANTOM2
 10
30.481610357941921
 20
7.4923090448397209
 30
0.0
 40
0.7999999999999545
 50
236.99999999999881
 51
357.00000000000432
  0
CIRCLE
  5
574E
  8
241
  6
CONTINUOUS
 10
26.88373564750589
 20
14.553535749032569
 30
0.0
 40
1.9999999999999989
  0
CIRCLE
  5
574F
  8
242
  6
CONTINUOUS
 10
26.88373564750589
 20
14.553535749032569
 30
0.0
 40
1.649999999999999
  0
LINE
  5
575D
  8
240
  6
CONTINUOUS
 10
30.026631739983209
 20
21.5
 30
0.0
 11
23.00498596204179
 21
21.50010955830367
 31
0.0
  0
ARC
  5
57A0
  8
240
  6
CONTINUOUS
 10
23.175455568557751
 20
11.624418315063229
 30
0.0
 40
9.8771580013450002
 50
91.023644373893859
 51
120.2083772010896
  0
LINE
  5
57A1
  8
241
  6
CONTINUOUS
 10
11.6145
 20
16.232199999999999
 30
0.0
 11
18.2058
 21
20.118099999999998
 31
0.0
  0
ARC
  5
57A3
  8
241
  6
CONTINUOUS
 10
13.36051526087155
 20
13.285753017676869
 30
0.0
 40
3.4249261467712571
 50
120.65027368731251
 51
168.87052572547461
  0
ARC
  5
57A5
  8
241
  6
CONTINUOUS
 10
20.16967120704885
 20
14.7187970480968
 30
0.0
 40
2.399999999999999
 50
67.765954735825304
 51
295.76947860739813
  0
ARC
  5
57A6
  8
240
  6
CONTINUOUS
 10
16.0
 20
-12.0
 30
0.0
 40
6.0
 50
90.0
 51
180.0
1001
GENIUS_GENODEF_13
1002
{
1000
HIER
1070
     0
1002
}
1002
{
1000
MANEDIT
1070
     0
1002
}
1002
{
1000
NOSEL
1070
     0
1002
}
1002
{
1000
BEHIND
1070
     0
1002
}
1002
{
1000
OTHER
1070
     0
1002
}
1002
{
1000
REACTOR
1002
}
1001
GENIUS_GENOBJ-N-FIL_13
1002
{
1000
OWNER
1000
GEN
1002
}
  0
POLYLINE
  5
57A7
  8
241
  6
CONTINUOUS
 10
11.448545617700608
 20
13.540438409148273
 30
0.0
 66
     1
 70
     8
  0
VERTEX
  8
241
  5
580C
 10
11.4485
 20
13.5404
 30
0.000000
  70
    32
  0
VERTEX
  8
241
  5
580D
 10
11.4851
 20
13.5261
 30
0.000000
  70
    32
  0
VERTEX
  8
241
  5
580E
 10
11.5226
 20
13.5145
 30
0.000000
  70
    32
  0
VERTEX
  8
241
  5
580F
 10
11.5612
 20
13.5055
 30
0.000000
  70
    32
  0
VERTEX
  8
241
  5
5810
 10
11.6006
 20
13.4993
 30
0.000000
  70
    32
  0
VERTEX
  8
241
  5
5811
 10
11.6408
 20
13.4958
 30
0.000000
  70
    32
  0
VERTEX
  8
241
  5
5812
 10
11.6817
 20
13.4950
 30
0.000000
  70
    32
  0
VERTEX
  8
241
  5
5813
 10
11.7231
 20
13.4970
 30
0.000000
  70
    32
  0
VERTEX
  8
241
  5
5814
 10
11.7651
 20
13.5018
 30
0.000000
  70
    32
  0
VERTEX
  8
241
  5
5815
 10
11.8074
 20
13.5092
 30
0.000000
  70
    32
  0
VERTEX
  8
241
  5
5816
 10
11.8500
 20
13.5194
 30
0.000000
  70
    32
  0
VERTEX
  8
241
  5
5817
 10
11.8929
 20
13.5323
 30
0.000000
  70
    32
  0
VERTEX
  8
241
  5
5818
 10
11.9357
 20
13.5478
 30
0.000000
  70
    32
  0
VERTEX
  8
241
  5
5819
 10
11.9786
 20
13.5660
 30
0.000000
  70
    32
  0
VERTEX
  8
241
  5
581A
 10
12.0213
 20
13.5867
 30
0.000000
  70
    32
  0
VERTEX
  8
241
  5
581B
 10
12.0638
 20
13.6100
 30
0.000000
  70
    32
  0
VERTEX
  8
241
  5
581C
 10
12.1060
 20
13.6357
 30
0.000000
  70
    32
  0
VERTEX
  8
241
  5
581D
 10
12.1477
 20
13.6638
 30
0.000000
  70
    32
  0
VERTEX
  8
241
  5
581E
 10
12.1889
 20
13.6943
 30
0.000000
  70
    32
  0
VERTEX
  8
241
  5
581F
 10
12.2295
 20
13.7270
 30
0.000000
  70
    32
  0
VERTEX
  8
241
  5
5820
 10
12.2693
 20
13.7619
 30
0.000000
  70
    32
  0
VERTEX
  8
241
  5
5821
 10
12.3083
 20
13.7990
 30
0.000000
  70
    32
  0
VERTEX
  8
241
  5
5822
 10
12.3464
 20
13.8380
 30
0.000000
  70
    32
  0
VERTEX
  8
241
  5
5823
 10
12.3835
 20
13.8790
 30
0.000000
  70
    32
  0
VERTEX
  8
241
  5
5824
 10
12.4194
 20
13.9218
 30
0.000000
  70
    32
  0
VERTEX
  8
241
  5
5825
 10
12.4542
 20
13.9663
 30
0.000000
  70
    32
  0
VERTEX
  8
241
  5
5826
 10
12.4877
 20
14.0124
 30
0.000000
  70
    32
  0
VERTEX
  8
241
  5
5827
 10
12.5198
 20
14.0600
 30
0.000000
  70
    32
  0
VERTEX
  8
241
  5
5828
 10
12.5506
 20
14.1091
 30
0.000000
  70
    32
  0
VERTEX
  8
241
  5
5829
 10
12.5798
 20
14.1593
 30
0.000000
  70
    32
  0
VERTEX
  8
241
  5
582A
 10
12.6074
 20
14.2108
 30
0.000000
  70
    32
  0
VERTEX
  8
241
  5
582B
 10
12.6334
 20
14.2632
 30
0.000000
  70
    32
  0
VERTEX
  8
241
  5
582C
 10
12.6577
 20
14.3165
 30
0.000000
  70
    32
  0
VERTEX
  8
241
  5
582D
 10
12.6802
 20
14.3707
 30
0.000000
  70
    32
  0
VERTEX
  8
241
  5
582E
 10
12.7009
 20
14.4254
 30
0.000000
  70
    32
  0
VERTEX
  8
241
  5
582F
 10
12.7197
 20
14.4807
 30
0.000000
  70
    32
  0
VERTEX
  8
241
  5
5830
 10
12.7366
 20
14.5363
 30
0.000000
  70
    32
  0
VERTEX
  8
241
  5
5831
 10
12.7516
 20
14.5922
 30
0.000000
  70
    32
  0
VERTEX
  8
241
  5
5832
 10
12.7645
 20
14.6481
 30
0.000000
  70
    32
  0
VERTEX
  8
241
  5
5833
 10
12.7755
 20
14.7041
 30
0.000000
  70
    32
  0
VERTEX
  8
241
  5
5834
 10
12.7844
 20
14.7599
 30
0.000000
  70
    32
  0
VERTEX
  8
241
  5
5835
 10
12.7912
 20
14.8153
 30
0.000000
  70
    32
  0
VERTEX
  8
241
  5
5836
 10
12.7959
 20
14.8704
 30
0.000000
  70
    32
  0
VERTEX
  8
241
  5
5837
 10
12.7986
 20
14.9249
 30
0.000000
  70
    32
  0
VERTEX
  8
241
  5
5838
 10
12.7991
 20
14.9786
 30
0.000000
  70
    32
  0
VERTEX
  8
241
  5
5839
 10
12.7976
 20
15.0316
 30
0.000000
  70
    32
  0
VERTEX
  8
241
  5
583A
 10
12.7939
 20
15.0836
 30
0.000000
  70
    32
  0
VERTEX
  8
241
  5
583B
 10
12.7882
 20
15.1345
 30
0.000000
  70
    32
  0
VERTEX
  8
241
  5
583C
 10
12.7803
 20
15.1842
 30
0.000000
  70
    32
  0
VERTEX
  8
241
  5
583D
 10
12.7704
 20
15.2326
 30
0.000000
  70
    32
  0
VERTEX
  8
241
  5
583E
 10
12.7585
 20
15.2796
 30
0.000000
  70
    32
  0
VERTEX
  8
241
  5
583F
 10
12.7446
 20
15.3250
 30
0.000000
  70
    32
  0
VERTEX
  8
241
  5
5840
 10
12.7286
 20
15.3687
 30
0.000000
  70
    32
  0
VERTEX
  8
241
  5
5841
 10
12.7108
 20
15.4107
 30
0.000000
  70
    32
  0
VERTEX
  8
241
  5
5842
 10
12.6911
 20
15.4508
 30
0.000000
  70
    32
  0
VERTEX
  8
241
  5
5843
 10
12.6695
 20
15.4889
 30
0.000000
  70
    32
  0
VERTEX
  8
241
  5
5844
 10
12.6461
 20
15.5250
 30
0.000000
  70
    32
  0
VERTEX
  8
241
  5
5845
 10
12.6210
 20
15.5590
 30
0.000000
  70
    32
  0
VERTEX
  8
241
  5
5846
 10
12.5942
 20
15.5907
 30
0.000000
  70
    32
  0
VERTEX
  8
241
  5
5847
 10
12.5658
 20
15.6201
 30
0.000000
  70
    32
  0
VERTEX
  8
241
  5
5848
 10
12.5359
 20
15.6472
 30
0.000000
  70
    32
  0
VERTEX
  8
241
  5
5849
 10
12.5044
 20
15.6718
 30
0.000000
  70
    32
  0
VERTEX
  8
241
  5
584A
 10
12.4716
 20
15.6939
 30
0.000000
  70
    32
  0
VERTEX
  8
241
  5
584B
 10
12.4375
 20
15.7134
 30
0.000000
  70
    32
  0
VERTEX
  8
241
  5
584C
 10
12.4022
 20
15.7304
 30
0.000000
  70
    32
  0
VERTEX
  8
241
  5
584D
 10
12.3656
 20
15.7447
 30
0.000000
  70
    32
  0
VERTEX
  8
241
  5
584E
 10
12.3281
 20
15.7564
 30
0.000000
  70
    32
  0
VERTEX
  8
241
  5
584F
 10
12.2895
 20
15.7653
 30
0.000000
  70
    32
  0
VERTEX
  8
241
  5
5850
 10
12.2501
 20
15.7716
 30
0.000000
  70
    32
  0
VERTEX
  8
241
  5
5851
 10
12.2099
 20
15.7751
 30
0.000000
  70
    32
  0
VERTEX
  8
241
  5
5852
 10
12.1690
 20
15.7758
 30
0.000000
  70
    32
  0
VERTEX
  8
241
  5
5853
 10
12.1276
 20
15.7738
 30
0.000000
  70
    32
  0
VERTEX
  8
241
  5
5854
 10
12.0856
 20
15.7691
 30
0.000000
  70
    32
  0
VERTEX
  8
241
  5
5855
 10
12.0433
 20
15.7616
 30
0.000000
  70
    32
  0
VERTEX
  8
241
  5
5856
 10
12.0007
 20
15.7514
 30
0.000000
  70
    32
  0
VERTEX
  8
241
  5
5857
 10
11.9578
 20
15.7386
 30
0.000000
  70
    32
  0
VERTEX
  8
241
  5
5858
 10
11.9150
 20
15.7230
 30
0.000000
  70
    32
  0
VERTEX
  8
241
  5
5859
 10
11.8721
 20
15.7049
 30
0.000000
  70
    32
  0
VERTEX
  8
241
  5
585A
 10
11.8294
 20
15.6842
 30
0.000000
  70
    32
  0
VERTEX
  8
241
  5
585B
 10
11.7869
 20
15.6609
 30
0.000000
  70
    32
  0
VERTEX
  8
241
  5
585C
 10
11.7447
 20
15.6352
 30
0.000000
  70
    32
  0
VERTEX
  8
241
  5
585D
 10
11.7030
 20
15.6070
 30
0.000000
  70
    32
  0
VERTEX
  8
241
  5
585E
 10
11.6618
 20
15.5766
 30
0.000000
  70
    32
  0
VERTEX
  8
241
  5
585F
 10
11.6212
 20
15.5438
 30
0.000000
  70
    32
  0
VERTEX
  8
241
  5
5860
 10
11.5814
 20
15.5089
 30
0.000000
  70
    32
  0
VERTEX
  8
241
  5
5861
 10
11.5424
 20
15.4719
 30
0.000000
  70
    32
  0
VERTEX
  8
241
  5
5862
 10
11.5043
 20
15.4328
 30
0.000000
  70
    32
  0
VERTEX
  8
241
  5
5863
 10
11.4672
 20
15.3919
 30
0.000000
  70
    32
  0
VERTEX
  8
241
  5
5864
 10
11.4313
 20
15.3491
 30
0.000000
  70
    32
  0
VERTEX
  8
241
  5
5865
 10
11.3965
 20
15.3045
 30
0.000000
  70
    32
  0
VERTEX
  8
241
  5
5866
 10
11.3630
 20
15.2584
 30
0.000000
  70
    32
  0
VERTEX
  8
241
  5
5867
 10
11.3309
 20
15.2108
 30
0.000000
  70
    32
  0
VERTEX
  8
241
  5
5868
 10
11.3001
 20
15.1618
 30
0.000000
  70
    32
  0
VERTEX
  8
241
  5
5869
 10
11.2709
 20
15.1115
 30
0.000000
  70
    32
  0
VERTEX
  8
241
  5
586A
 10
11.2433
 20
15.0601
 30
0.000000
  70
    32
  0
VERTEX
  8
241
  5
586B
 10
11.2173
 20
15.0076
 30
0.000000
  70
    32
  0
VERTEX
  8
241
  5
586C
 10
11.1930
 20
14.9543
 30
0.000000
  70
    32
  0
VERTEX
  8
241
  5
586D
 10
11.1705
 20
14.9002
 30
0.000000
  70
    32
  0
VERTEX
  8
241
  5
586E
 10
11.1498
 20
14.8454
 30
0.000000
  70
    32
  0
VERTEX
  8
241
  5
586F
 10
11.1310
 20
14.7902
 30
0.000000
  70
    32
  0
VERTEX
  8
241
  5
5870
 10
11.1141
 20
14.7346
 30
0.000000
  70
    32
  0
VERTEX
  8
241
  5
5871
 10
11.0991
 20
14.6787
 30
0.000000
  70
    32
  0
VERTEX
  8
241
  5
5872
 10
11.0862
 20
14.6227
 30
0.000000
  70
    32
  0
VERTEX
  8
241
  5
5873
 10
11.0752
 20
14.5668
 30
0.000000
  70
    32
  0
VERTEX
  8
241
  5
5874
 10
11.0663
 20
14.5110
 30
0.000000
  70
    32
  0
VERTEX
  8
241
  5
5875
 10
11.0595
 20
14.4555
 30
0.000000
  70
    32
  0
VERTEX
  8
241
  5
5876
 10
11.0548
 20
14.4005
 30
0.000000
  70
    32
  0
VERTEX
  8
241
  5
5877
 10
11.0521
 20
14.3460
 30
0.000000
  70
    32
  0
VERTEX
  8
241
  5
5878
 10
11.0516
 20
14.2922
 30
0.000000
  70
    32
  0
VERTEX
  8
241
  5
5879
 10
11.0531
 20
14.2393
 30
0.000000
  70
    32
  0
VERTEX
  8
241
  5
587A
 10
11.0568
 20
14.1873
 30
0.000000
  70
    32
  0
VERTEX
  8
241
  5
587B
 10
11.0625
 20
14.1363
 30
0.000000
  70
    32
  0
VERTEX
  8
241
  5
587C
 10
11.0704
 20
14.0866
 30
0.000000
  70
    32
  0
VERTEX
  8
241
  5
587D
 10
11.0803
 20
14.0382
 30
0.000000
  70
    32
  0
VERTEX
  8
241
  5
587E
 10
11.0922
 20
13.9913
 30
0.000000
  70
    32
  0
VERTEX
  8
241
  5
587F
 10
11.1061
 20
13.9459
 30
0.000000
  70
    32
  0
VERTEX
  8
241
  5
5880
 10
11.1221
 20
13.9021
 30
0.000000
  70
    32
  0
VERTEX
  8
241
  5
5881
 10
11.1399
 20
13.8602
 30
0.000000
  70
    32
  0
VERTEX
  8
241
  5
5882
 10
11.1596
 20
13.8200
 30
0.000000
  70
    32
  0
VERTEX
  8
241
  5
5883
 10
11.1812
 20
13.7819
 30
0.000000
  70
    32
  0
VERTEX
  8
241
  5
5884
 10
11.2046
 20
13.7458
 30
0.000000
  70
    32
  0
VERTEX
  8
241
  5
5885
 10
11.2297
 20
13.7119
 30
0.000000
  70
    32
  0
VERTEX
  8
241
  5
5886
 10
11.2565
 20
13.6802
 30
0.000000
  70
    32
  0
VERTEX
  8
241
  5
5887
 10
11.2849
 20
13.6507
 30
0.000000
  70
    32
  0
VERTEX
  8
241
  5
5888
 10
11.3148
 20
13.6237
 30
0.000000
  70
    32
  0
VERTEX
  8
241
  5
5889
 10
11.3463
 20
13.5991
 30
0.000000
  70
    32
  0
VERTEX
  8
241
  5
588A
 10
11.3791
 20
13.5770
 30
0.000000
  70
    32
  0
VERTEX
  8
241
  5
588B
 10
11.4132
 20
13.5574
 30
0.000000
  70
    32
  0
VERTEX
  8
241
  5
588C
 10
11.4485
 20
13.5404
 30
0.000000
  70
    32
  0
SEQEND
  8
241
  5
588D
  0
VIEWPORT
  5
22
 67
     1
  8
0
 10
261.51769911504419
 20
148.5
 30
0.0
 40
523.0353982300885
 41
297.0
 68
     1
 69
     1
1001
ACAD
1000
MVIEW
1002
{
1070
    16
1010
0.0
1020
0.0
1030
0.0
1010
0.0
1020
0.0
1030
1.0
1040
0.0
1040
297.0
1040
261.51769911504419
1040
148.5
1040
50.0
1040
0.0
1040
0.0
1070
     0
1070
   100
1070
     1
1070
     1
1070
     0
1070
     0
1070
     0
1070
     0
1040
0.0
1040
0.0
1040
0.0
1040
1.0
1040
1.0
1040
10.0
1040
10.0
1070
     0
1002
{
1002
}
1002
}
1001
GENIUS_GENODEF_13
1002
{
1000
HIER
1070
     0
1002
}
1002
{
1000
MANEDIT
1070
     0
1002
}
1002
{
1000
NOSEL
1070
     0
1002
}
1002
{
1000
BEHIND
1070
     0
1002
}
1002
{
1000
OTHER
1070
     0
1002
}
1002
{
1000
REACTOR
1002
}
1001
GENIUS_GENOBJ-N-SDF_13
1002
{
1000
OWNER
1000
GEN
1002
}
1001
GENIUS_GENSCREG_15
1000
PF
1040
1.0
1000
DF
1040
1.0
1000
MIN
1011
0.0
1021
0.0
1031
0.0
1021
0.0
1031
0.0
1000
MAX
1011
523.0353982300885
1021
0.0
1031
0.0
1021
297.0
1031
0.0
1000
FLAGS
1070
     4
  0
ENDSEC
  0
EOF
