  0
SECTION
  2
HEADER
  9
$ACADVER
  1
AC1009
  9
$INSBASE
 10
0.0
 20
0.0
 30
0.0
  9
$EXTMIN
 10
-2.624154414862744
 20
-16.0
 30
0.0
  9
$EXTMAX
 10
59.756531718405981
 20
52.0
 30
0.0
  9
$LIMMIN
 10
0.0
 20
0.0
  9
$LIMMAX
 10
297.0
 20
210.0
  9
$ORTHOMODE
 70
     0
  9
$REGENMODE
 70
     1
  9
$FILLMODE
 70
     1
  9
$QTEXTMODE
 70
     0
  9
$MIRRTEXT
 70
     1
  9
$DRAGMODE
 70
     2
  9
$LTSCALE
 40
10.0
  9
$OSMODE
 70
   103
  9
$ATTMODE
 70
     1
  9
$TEXTSIZE
 40
3.0
  9
$TRACEWID
 40
1.0
  9
$TEXTSTYLE
  7
YOKO
  9
$CLAYER
  8
240
  9
$CELTYPE
  6
BYLAYER
  9
$CECOLOR
 62
   256
  9
$DIMSCALE
 40
1.0
  9
$DIMASZ
 40
2.2299999999999991
  9
$DIMEXO
 40
0.5
  9
$DIMDLI
 40
7.0
  9
$DIMRND
 40
0.0
  9
$DIMDLE
 40
0.0
  9
$DIMEXE
 40
1.0
  9
$DIMTP
 40
0.0
  9
$DIMTM
 40
0.01
  9
$DIMTXT
 40
2.7999999999999989
  9
$DIMCEN
 40
0.0
  9
$DIMTSZ
 40
0.0
  9
$DIMTOL
 70
     0
  9
$DIMLIM
 70
     0
  9
$DIMTIH
 70
     0
  9
$DIMTOH
 70
     0
  9
$DIMSE1
 70
     0
  9
$DIMSE2
 70
     0
  9
$DIMTAD
 70
     3
  9
$DIMZIN
 70
     9
  9
$DIMBLK
  1
OPEN
  9
$DIMASO
 70
     1
  9
$DIMSHO
 70
     1
  9
$DIMPOST
  1

  9
$DIMAPOST
  1

  9
$DIMALT
 70
     0
  9
$DIMALTD
 70
     2
  9
$DIMALTF
 40
25.399999999999999
  9
$DIMLFAC
 40
1.0
  9
$DIMTOFL
 70
     1
  9
$DIMTVP
 40
0.0
  9
$DIMTIX
 70
     1
  9
$DIMSOXD
 70
     0
  9
$DIMSAH
 70
     0
  9
$DIMBLK1
  1

  9
$DIMBLK2
  1

  9
$DIMSTYLE
  2
BIGT
  9
$DIMCLRD
 70
   256
  9
$DIMCLRE
 70
   256
  9
$DIMCLRT
 70
    40
  9
$DIMTFAC
 40
1.0
  9
$DIMGAP
 40
1.0
  9
$LUNITS
 70
     2
  9
$LUPREC
 70
     6
  9
$SKETCHINC
 40
1.0
  9
$FILLETRAD
 40
6.0
  9
$AUNITS
 70
     0
  9
$AUPREC
 70
     6
  9
$MENU
  1
.
  9
$ELEVATION
 40
0.0
  9
$PELEVATION
 40
0.0
  9
$THICKNESS
 40
0.0
  9
$LIMCHECK
 70
     0
  9
$BLIPMODE
 70
     0
  9
$CHAMFERA
 40
0.2
  9
$CHAMFERB
 40
0.2
  9
$SKPOLY
 70
     0
  9
$TDCREATE
 40
2458914.439338102
  9
$TDUPDATE
 40
2458914.4857993061
  9
$TDINDWG
 40
0.0462335417
  9
$TDUSRTIMER
 40
0.0462331829
  9
$USRTIMER
 70
     1
  9
$ANGBASE
 50
0.0
  9
$ANGDIR
 70
     0
  9
$PDMODE
 70
     1
  9
$PDSIZE
 40
0.0
  9
$PLINEWID
 40
0.0
  9
$COORDS
 70
     1
  9
$SPLFRAME
 70
     0
  9
$SPLINETYPE
 70
     6
  9
$SPLINESEGS
 70
     4
  9
$ATTDIA
 70
     1
  9
$ATTREQ
 70
     1
  9
$HANDLING
 70
     1
  9
$HANDSEED
  5
456E
  9
$SURFTAB1
 70
     6
  9
$SURFTAB2
 70
     6
  9
$SURFTYPE
 70
     6
  9
$SURFU
 70
     6
  9
$SURFV
 70
     6
  9
$UCSNAME
  2

  9
$UCSORG
 10
0.0
 20
0.0
 30
0.0
  9
$UCSXDIR
 10
1.0
 20
0.0
 30
0.0
  9
$UCSYDIR
 10
0.0
 20
1.0
 30
0.0
  9
$PUCSNAME
  2

  9
$PUCSORG
 10
0.0
 20
0.0
 30
0.0
  9
$PUCSXDIR
 10
1.0
 20
0.0
 30
0.0
  9
$PUCSYDIR
 10
0.0
 20
1.0
 30
0.0
  9
$USERI1
 70
     1
  9
$USERI2
 70
     0
  9
$USERI3
 70
     0
  9
$USERI4
 70
     0
  9
$USERI5
 70
     0
  9
$USERR1
 40
0.0
  9
$USERR2
 40
0.0
  9
$USERR3
 40
0.0
  9
$USERR4
 40
0.0
  9
$USERR5
 40
0.0
  9
$WORLDVIEW
 70
     1
  9
$SHADEDGE
 70
     3
  9
$SHADEDIF
 70
    70
  9
$TILEMODE
 70
     1
  9
$MAXACTVP
 70
    16
  9
$PLIMCHECK
 70
     0
  9
$PEXTMIN
 10
1.0000000000000000E+020
 20
1.0000000000000000E+020
 30
1.0000000000000000E+020
  9
$PEXTMAX
 10
-1.0000000000000000E+020
 20
-1.0000000000000000E+020
 30
-1.0000000000000000E+020
  9
$PLIMMIN
 10
0.0
 20
0.0
  9
$PLIMMAX
 10
420.0
 20
297.0
  9
$UNITMODE
 70
     0
  9
$VISRETAIN
 70
     1
  9
$PLINEGEN
 70
     0
  9
$PSLTSCALE
 70
     1
  0
ENDSEC
  0
SECTION
  2
TABLES
  0
TABLE
  2
VPORT
 70
     1
  0
VPORT
  2
*ACTIVE
 70
     0
 10
0.0
 20
0.0
 11
1.0
 21
1.0
 12
40.070161776855798
 22
17.38020761200681
 13
0.0
 23
0.0
 14
7.0
 24
7.0
 15
7.0
 25
7.0
 16
0.0
 26
0.0
 36
1.0
 17
0.0
 27
0.0
 37
0.0
 40
106.71597315606989
 41
1.806861499364675
 42
50.0
 43
0.0
 44
0.0
 50
0.0
 51
0.0
 71
     0
 72
  2000
 73
     1
 74
     0
 75
     1
 76
     1
 77
     0
 78
     0
  0
ENDTAB
  0
TABLE
  2
LTYPE
 70
    21
  0
LTYPE
  2
CONTINUOUS
 70
     0
  3
Solid line
 72
    65
 73
     0
 40
0.0
  0
LTYPE
  2
CENTER2
 70
     0
  3
___ _ ___ _ ___ _ ___ _ ___ _ ___ _ ___ _ ___ _
 72
    65
 73
     4
 40
1.125
 49
0.75
 49
-0.125
 49
0.125
 49
-0.125
  0
LTYPE
  2
HIDDEN2
 70
     0
  3
_ _ _ _ _ _ _ _ _ _ _ _ _ _ _ _ _ _ _ _ _ _ _ _
 72
    65
 73
     2
 40
0.1875
 49
0.125
 49
-0.0625
  0
LTYPE
  2
PHANTOM2
 70
     0
  3
___ _ _ ___ _ _ ___ _ _ ___ _ _ ___ _ _ ___ _ _
 72
    65
 73
     6
 40
1.25
 49
0.625
 49
-0.125
 49
0.125
 49
-0.125
 49
0.125
 49
-0.125
  0
LTYPE
  2
AM_ISO02W050
 70
     0
  3
__ __ __ __ __ __ __ __ __ __ __ __ __ __ __
 72
    65
 73
     2
 40
7.5
 49
6.0
 49
-1.5
  0
LTYPE
  2
AMCONSTR
 70
     0
  3
_______________________
 72
    65
 73
     2
 40
9999.0
 49
9999.0
 49
0.0
  0
LTYPE
  2
ACISOWELD
 70
     0
  3
_ _ _ _ _
 72
    65
 73
     2
 40
2.0
 49
2.0
 49
-1.0
  0
LTYPE
  2
ACISOTGB
 70
     0
  3
__ . . __ . .
 72
    65
 73
     6
 40
9.0
 49
4.0
 49
-1.0
 49
1.0
 49
-1.0
 49
1.0
 49
-1.0
  0
LTYPE
  2
ACISOTGL
 70
     0
  3
_ _ _ _ _
 72
    65
 73
     2
 40
3.0
 49
2.0
 49
-1.0
  0
LTYPE
  2
ACJISTGB
 70
     0
  3
__ . . __ . .
 72
    65
 73
     6
 40
9.0
 49
4.0
 49
-1.0
 49
1.0
 49
-1.0
 49
1.0
 49
-1.0
  0
LTYPE
  2
ACJISTGL
 70
     0
  3
_ _ _ _ _
 72
    65
 73
     2
 40
3.0
 49
2.0
 49
-1.0
  0
ENDTAB
  0
TABLE
  2
LAYER
 70
    16
  0
LAYER
  2
0
 70
     0
 62
     7
  6
CONTINUOUS
  0
LAYER
  2
DEFPOINTS
 70
     0
 62
     7
  6
CONTINUOUS
  0
LAYER
  2
245
 70
     0
 62
     2
  6
CENTER2
  0
LAYER
  2
240
 70
     0
 62
     4
  6
CONTINUOUS
  0
LAYER
  2
241
 70
     0
 62
   211
  6
CONTINUOUS
  0
LAYER
  2
242
 70
     0
 62
     3
  6
CONTINUOUS
  0
LAYER
  2
243
 70
     0
 62
   211
  6
HIDDEN2
  0
LAYER
  2
246
 70
     0
 62
     3
  6
PHANTOM2
  0
LAYER
  2
250
 70
     0
 62
     3
  6
CONTINUOUS
  0
ENDTAB
  0
TABLE
  2
STYLE
 70
     8
  0
STYLE
  2
STANDARD
 70
     0
 40
0.0
 41
1.0
 50
0.0
 71
     0
 42
3.0
  3
romans.shx
  4
extfont.shx
  0
STYLE
  2
ACISOTS
 70
     0
 40
1.0
 41
1.0
 50
0.0
 71
     0
 42
3.0
  3
amgdt.shx
  4
extfont.shx
  0
STYLE
  2
ACISOGDT
 70
     0
 40
0.0
 41
1.0
 50
0.0
 71
     0
 42
3.0
  3
amgdt.shx
  4
extfont.shx
  0
STYLE
  2
ACJISTS
 70
     0
 40
1.0
 41
1.0
 50
0.0
 71
     0
 42
3.0
  3
amgdt.shx
  4
extfont.shx
  0
STYLE
  2
ACJISGDT
 70
     0
 40
0.0
 41
1.0
 50
0.0
 71
     0
 42
3.0
  3
amgdt.shx
  4
extfont.shx
  0
STYLE
  2
YOKO
 70
     0
 40
0.0
 41
1.0
 50
0.0
 71
     0
 42
3.0
  3
romans.shx
  4
extfont.shx
  0
ENDTAB
  0
TABLE
  2
VIEW
 70
     0
  0
ENDTAB
  0
TABLE
  2
UCS
 70
     0
  0
ENDTAB
  0
TABLE
  2
APPID
 70
    40
  0
APPID
  2
ACAD
 70
     0
  0
APPID
  2
GLOBAL
 70
     0
  0
APPID
  2
DETAIL
 70
     0
  0
APPID
  2
GRPNAME
 70
     0
  0
APPID
  2
GPARA
 70
     0
  0
APPID
  2
MCAD_NO_VIS
 70
     0
  0
APPID
  2
ACAD_TEMP_GRAPHIC
 70
     0
  0
APPID
  2
ACATTRIBSERVICES
 70
     0
  0
APPID
  2
GENIUS_GENSCREG_15
 70
     0
  0
APPID
  2
GENIUS_GENODEF_13
 70
     0
  0
APPID
  2
GENIUS_GENOBJ-N-SDF_13
 70
     0
  0
APPID
  2
GENIUS_GENREC_14
 70
     0
  0
APPID
  2
GENIUS_GENOBJ-N-REC_13
 70
     0
  0
APPID
  2
GENIUS_GENDIMSH_14
 70
     0
  0
APPID
  2
GENIUS_GENOBJ-N-DIM_13
 70
     0
  0
APPID
  2
GENIUS_GENDIM_13
 70
     0
  0
APPID
  2
GENIUS_GENDTOL_13
 70
     0
  0
APPID
  2
GENIUS_GENOLIS_13
 70
     0
  0
APPID
  2
GENIUS_GENOENT_13
 70
     0
  0
APPID
  2
GENIUS_GENOBJ-F-FEM_13
 70
     0
  0
APPID
  2
GENIUS_GENOREF_13
 70
     0
  0
APPID
  2
GENIUS_GEFFEM_13
 70
     0
  0
APPID
  2
GENIUS_GEFFEMP_13
 70
     0
  0
APPID
  2
AD_DRAW
 70
     0
  0
APPID
  2
DESIGNERASSEMBLIES
 70
     0
  0
APPID
  2
ACADM_DIM_EDIT
 70
     0
  0
APPID
  2
AMDT_DM_ADJ
 70
     0
  0
APPID
  2
ITEMNAME
 70
     0
  0
APPID
  2
GENIUS_GENOBJ-N-FIL_13
 70
     0
  0
APPID
  2
GENIUS_GENFIL_13
 70
     0
  0
APPID
  2
GENIUS_GENOBJ-N-CHA_13
 70
     0
  0
APPID
  2
ACAD_NAV_VCDISPLAY
 70
     0
  0
APPID
  2
ACAD_PSEXT
 70
     0
  0
APPID
  2
ACAD_DSTYLE_DIMJAG
 70
     0
  0
APPID
  2
ACAD_DSTYLE_DIMTALN
 70
     0
  0
APPID
  2
ASK_MEN_XD
 70
     0
  0
APPID
  2
ACAECLAYERSTANDARD
 70
     0
  0
APPID
  2
ACAD_DSTYLE_DIMINSPECT
 70
     0
  0
APPID
  2
ACAD_EXEMPT_FROM_CAD_STANDARDS
 70
     0
  0
APPID
  2
ACAD_MLEADERVER
 70
     0
  0
ENDTAB
  0
TABLE
  2
DIMSTYLE
 70
    32
  0
DIMSTYLE
  2
BIGT
 70
     0
  3

  4

  5
OPEN
  6

  7

 40
1.0
 41
2.2299999999999991
 42
0.5
 43
7.0
 44
1.0
 45
0.0
 46
0.0
 47
0.0
 48
0.01
140
2.7999999999999989
141
0.0
142
0.0
143
25.399999999999999
144
1.0
145
0.0
146
1.0
147
1.0
 71
     0
 72
     0
 73
     0
 74
     0
 75
     0
 76
     0
 77
     3
 78
     9
170
     0
171
     2
172
     1
173
     0
174
     1
175
     0
176
   256
177
   256
178
    40
  0
DIMSTYLE
  2
AM_ISO
 70
     0
  3

  4
"
  5

  6

  7

 40
1.0
 41
2.5
 42
1.0
 43
10.0
 44
1.0
 45
0.0
 46
0.0
 47
0.1
 48
0.1
140
3.5
141
0.0
142
0.0
143
0.0393701
144
1.0
145
0.0
146
0.71
147
1.5
 71
     0
 72
     0
 73
     0
 74
     0
 75
     0
 76
     0
 77
     1
 78
     8
170
     0
171
     2
172
     1
173
     0
174
     0
175
     0
176
   256
177
   256
178
     2
  0
DIMSTYLE
  2
AM_ISO$3
 70
     0
  3

  4
"
  5

  6

  7

 40
1.0
 41
2.5
 42
1.0
 43
10.0
 44
1.0
 45
0.0
 46
0.0
 47
0.1
 48
0.1
140
3.5
141
0.0
142
0.0
143
0.0393701
144
1.0
145
0.0
146
0.71
147
1.5
 71
     0
 72
     0
 73
     0
 74
     1
 75
     0
 76
     0
 77
     1
 78
     8
170
     0
171
     2
172
     0
173
     0
174
     0
175
     0
176
   256
177
   256
178
     2
  0
DIMSTYLE
  2
AM_ISO$4
 70
     0
  3

  4
"
  5

  6

  7

 40
1.0
 41
2.5
 42
1.0
 43
10.0
 44
1.0
 45
0.0
 46
0.0
 47
0.1
 48
0.1
140
3.5
141
0.0
142
0.0
143
0.0393701
144
1.0
145
0.0
146
0.71
147
1.5
 71
     0
 72
     0
 73
     0
 74
     1
 75
     0
 76
     0
 77
     1
 78
     8
170
     0
171
     2
172
     0
173
     0
174
     0
175
     0
176
   256
177
   256
178
     2
  0
DIMSTYLE
  2
AM_ISO$6
 70
     0
  3

  4
"
  5

  6

  7

 40
1.0
 41
2.5
 42
1.0
 43
10.0
 44
1.0
 45
0.0
 46
0.0
 47
0.1
 48
0.1
140
3.5
141
0.0
142
0.0
143
0.0393701
144
1.0
145
0.0
146
0.71
147
1.5
 71
     0
 72
     0
 73
     0
 74
     0
 75
     0
 76
     0
 77
     0
 78
     8
170
     0
171
     2
172
     1
173
     0
174
     0
175
     0
176
   256
177
   256
178
     2
  0
DIMSTYLE
  2
AM_ISO$7
 70
     0
  3

  4
"
  5

  6

  7

 40
1.0
 41
2.5
 42
1.0
 43
10.0
 44
1.0
 45
0.0
 46
0.0
 47
0.1
 48
0.1
140
5.0
141
0.0
142
0.0
143
0.0393701
144
1.0
145
0.0
146
0.71
147
1.5
 71
     0
 72
     0
 73
     0
 74
     0
 75
     0
 76
     0
 77
     1
 78
     8
170
     0
171
     2
172
     1
173
     0
174
     0
175
     0
176
   256
177
   256
178
     2
  0
DIMSTYLE
  2
AM_ISO$SF
 70
     0
  3

  4
"
  5

  6

  7

 40
1.0
 41
2.5
 42
1.0
 43
10.0
 44
1.0
 45
0.0
 46
0.0
 47
0.1
 48
0.1
140
3.5
141
0.0
142
0.0
143
0.0393701
144
1.0
145
0.0
146
0.71
147
1.5
 71
     0
 72
     0
 73
     0
 74
     0
 75
     1
 76
     1
 77
     1
 78
     8
170
     0
171
     2
172
     1
173
     0
174
     0
175
     0
176
   256
177
   256
178
     2
  0
DIMSTYLE
  2
AM_ISO$SH
 70
     0
  3

  4
"
  5

  6
GENAXEH
  7

 40
1.0
 41
2.5
 42
1.0
 43
10.0
 44
1.0
 45
0.0
 46
0.0
 47
0.1
 48
0.1
140
3.5
141
0.0
142
0.0
143
0.0393701
144
2.0
145
0.0
146
0.71
147
1.5
 71
     0
 72
     0
 73
     0
 74
     0
 75
     1
 76
     1
 77
     1
 78
     8
170
     0
171
     2
172
     1
173
     1
174
     0
175
     0
176
   256
177
   256
178
     2
  0
DIMSTYLE
  2
BIGT$2
 70
     0
  3

  4

  5
OPEN
  6

  7

 40
1.0
 41
2.2299999999999991
 42
0.5
 43
7.0
 44
1.0
 45
0.0
 46
0.0
 47
0.0
 48
0.01
140
2.7999999999999989
141
0.0
142
0.0
143
25.399999999999999
144
1.0
145
0.0
146
1.0
147
1.0
 71
     0
 72
     0
 73
     0
 74
     0
 75
     0
 76
     0
 77
     3
 78
     9
170
     0
171
     2
172
     1
173
     0
174
     0
175
     0
176
   256
177
   256
178
    40
  0
DIMSTYLE
  2
BIGT$3
 70
     0
  3

  4

  5
OPEN
  6

  7

 40
1.0
 41
2.2299999999999991
 42
0.5
 43
2.5
 44
1.0
 45
0.0
 46
0.0
 47
0.0
 48
0.01
140
2.7999999999999989
141
0.0
142
0.0
143
25.399999999999999
144
1.0
145
0.0
146
1.0
147
1.0
 71
     0
 72
     0
 73
     0
 74
     0
 75
     0
 76
     0
 77
     3
 78
     9
170
     0
171
     2
172
     1
173
     0
174
     0
175
     0
176
   256
177
   256
178
    40
  0
DIMSTYLE
  2
BIGT$7
 70
     0
  3

  4

  5
OPEN
  6

  7

 40
0.0
 41
2.2299999999999991
 42
0.5
 43
7.0
 44
1.0
 45
0.0
 46
0.0
 47
0.0
 48
0.01
140
2.7999999999999989
141
0.0
142
0.0
143
25.399999999999999
144
1.0
145
0.0
146
1.0
147
1.0
 71
     0
 72
     0
 73
     0
 74
     0
 75
     0
 76
     0
 77
     3
 78
     9
170
     0
171
     2
172
     0
173
     0
174
     0
175
     0
176
   256
177
   256
178
    40
  0
DIMSTYLE
  2
BIGT$6
 70
     0
  3

  4

  5
OPEN
  6

  7

 40
1.0
 41
2.2299999999999991
 42
0.5
 43
2.5
 44
1.0
 45
0.0
 46
0.0
 47
0.0
 48
0.01
140
2.7999999999999989
141
0.0
142
0.0
143
25.399999999999999
144
1.0
145
0.0
146
1.0
147
1.0
 71
     0
 72
     0
 73
     0
 74
     0
 75
     0
 76
     0
 77
     3
 78
     9
170
     0
171
     2
172
     1
173
     0
174
     0
175
     0
176
   256
177
   256
178
    40
  0
DIMSTYLE
  2
BIGT$0
 70
     0
  3

  4

  5
OPEN
  6

  7

 40
1.0
 41
2.2299999999999991
 42
0.5
 43
7.0
 44
1.0
 45
0.0
 46
0.0
 47
0.0
 48
0.01
140
2.7999999999999989
141
0.0
142
0.0
143
25.399999999999999
144
1.0
145
0.0
146
1.0
147
1.0
 71
     0
 72
     0
 73
     0
 74
     0
 75
     0
 76
     0
 77
     3
 78
     9
170
     0
171
     2
172
     1
173
     0
174
     1
175
     0
176
   256
177
   256
178
    40
  0
DIMSTYLE
  2
BIGT$4
 70
     0
  3

  4

  5
OPEN
  6

  7

 40
1.0
 41
2.2299999999999991
 42
0.5
 43
2.5
 44
1.0
 45
0.0
 46
0.0
 47
0.0
 48
0.01
140
2.7999999999999989
141
0.0
142
0.0
143
25.399999999999999
144
1.0
145
0.0
146
1.0
147
1.0
 71
     0
 72
     0
 73
     0
 74
     0
 75
     0
 76
     0
 77
     3
 78
     9
170
     0
171
     2
172
     1
173
     0
174
     0
175
     0
176
   256
177
   256
178
    40
  0
DIMSTYLE
  2
BIGT$SH
 70
     0
  3

  4

  5
OPEN
  6

  7

 40
1.0
 41
2.2299999999999991
 42
0.5
 43
7.0
 44
1.0
 45
0.0
 46
0.0
 47
0.0
 48
0.0
140
2.7999999999999989
141
0.0
142
0.0
143
25.399999999999999
144
1.0
145
0.0
146
1.0
147
1.0
 71
     0
 72
     0
 73
     0
 74
     0
 75
     0
 76
     0
 77
     3
 78
     9
170
     0
171
     2
172
     1
173
     0
174
     0
175
     0
176
   256
177
   256
178
    40
  0
DIMSTYLE
  2
BIGT$SF
 70
     0
  3

  4

  5
OPEN
  6

  7

 40
1.0
 41
2.2299999999999991
 42
0.5
 43
7.0
 44
1.0
 45
0.0
 46
0.0
 47
0.0
 48
0.0
140
2.7999999999999989
141
0.0
142
0.0
143
25.399999999999999
144
1.0
145
0.0
146
1.0
147
1.0
 71
     0
 72
     0
 73
     0
 74
     0
 75
     0
 76
     0
 77
     3
 78
     9
170
     0
171
     2
172
     1
173
     0
174
     0
175
     0
176
   256
177
   256
178
    40
  0
DIMSTYLE
  2
TECHNICAL_OSAKA
 70
     0
  3

  4
"
  5
OPEN30
  6

  7

 40
1.0
 41
2.5
 42
1.0
 43
10.0
 44
1.0
 45
0.0
 46
0.0
 47
0.1
 48
0.1
140
2.7999999999999989
141
0.0
142
0.0
143
0.0393701
144
1.0
145
0.0
146
0.71
147
1.5
 71
     0
 72
     0
 73
     0
 74
     0
 75
     0
 76
     0
 77
     3
 78
     8
170
     0
171
     2
172
     1
173
     0
174
     0
175
     0
176
   256
177
   256
178
    40
  0
DIMSTYLE
  2
TECHNICAL_OSAKA$3
 70
     0
  3

  4
"
  5
OPEN30
  6

  7

 40
1.0
 41
2.5
 42
1.0
 43
10.0
 44
1.0
 45
0.0
 46
0.0
 47
0.1
 48
0.1
140
2.7999999999999989
141
0.0
142
0.0
143
0.0393701
144
1.0
145
0.0
146
0.71
147
1.5
 71
     0
 72
     0
 73
     0
 74
     1
 75
     0
 76
     0
 77
     3
 78
     8
170
     0
171
     2
172
     0
173
     0
174
     0
175
     0
176
   256
177
   256
178
    40
  0
DIMSTYLE
  2
TECHNICAL_OSAKA$4
 70
     0
  3

  4
"
  5
OPEN30
  6

  7

 40
1.0
 41
2.5
 42
1.0
 43
10.0
 44
1.0
 45
0.0
 46
0.0
 47
0.1
 48
0.1
140
2.7999999999999989
141
0.0
142
0.0
143
0.0393701
144
1.0
145
0.0
146
0.71
147
1.5
 71
     0
 72
     0
 73
     0
 74
     1
 75
     0
 76
     0
 77
     3
 78
     8
170
     0
171
     2
172
     0
173
     0
174
     0
175
     0
176
   256
177
   256
178
    40
  0
DIMSTYLE
  2
TECHNICAL_OSAKA$6
 70
     0
  3

  4
"
  5
OPEN30
  6

  7

 40
1.0
 41
2.5
 42
1.0
 43
10.0
 44
1.0
 45
0.0
 46
0.0
 47
0.1
 48
0.1
140
2.7999999999999989
141
0.0
142
0.0
143
0.0393701
144
1.0
145
0.0
146
0.71
147
1.5
 71
     0
 72
     0
 73
     0
 74
     0
 75
     0
 76
     0
 77
     0
 78
     8
170
     0
171
     2
172
     1
173
     0
174
     0
175
     0
176
   256
177
   256
178
    40
  0
DIMSTYLE
  2
TECHNICAL_OSAKA$7
 70
     0
  3

  4
"
  5
OPEN30
  6

  7

 40
1.0
 41
2.5
 42
1.0
 43
10.0
 44
1.0
 45
0.0
 46
0.0
 47
0.1
 48
0.1
140
2.7999999999999989
141
0.0
142
0.0
143
0.0393701
144
1.0
145
0.0
146
0.71
147
1.5
 71
     0
 72
     0
 73
     0
 74
     0
 75
     0
 76
     0
 77
     3
 78
     8
170
     0
171
     2
172
     1
173
     0
174
     0
175
     0
176
   256
177
   256
178
    40
  0
DIMSTYLE
  2
TECHNICAL_OSAKA$SF
 70
     0
  3

  4
"
  5
OPEN30
  6
OPEN30
  7
OPEN30
 40
1.0
 41
2.5
 42
1.0
 43
10.0
 44
1.0
 45
0.0
 46
0.0
 47
0.1
 48
0.1
140
3.5
141
0.0
142
0.0
143
0.0393701
144
1.0
145
0.0
146
0.71
147
1.5
 71
     0
 72
     0
 73
     0
 74
     0
 75
     1
 76
     1
 77
     3
 78
     8
170
     0
171
     2
172
     1
173
     0
174
     0
175
     0
176
   256
177
   256
178
    40
  0
DIMSTYLE
  2
TECHNICAL_OSAKA$SH
 70
     0
  3

  4
"
  5
OPEN30
  6
GENAXEH
  7
OPEN30
 40
1.0
 41
2.5
 42
1.0
 43
10.0
 44
1.0
 45
0.0
 46
0.0
 47
0.1
 48
0.1
140
3.5
141
0.0
142
0.0
143
0.0393701
144
2.0
145
0.0
146
0.71
147
1.5
 71
     0
 72
     0
 73
     0
 74
     0
 75
     1
 76
     1
 77
     3
 78
     8
170
     0
171
     2
172
     1
173
     1
174
     0
175
     0
176
   256
177
   256
178
    40
  0
ENDTAB
  0
ENDSEC
  0
SECTION
  2
BLOCKS
  0
BLOCK
  8
0
  2
$MODEL_SPACE
 70
     0
 10
0.0
 20
0.0
 30
0.0
  3
$MODEL_SPACE
  1

  0
ENDBLK
  5
1C
  8
0
  0
BLOCK
 67
     1
  8
0
  2
$PAPER_SPACE
 70
     0
 10
0.0
 20
0.0
 30
0.0
  3
$PAPER_SPACE
  1

  0
ENDBLK
  5
19
 67
     1
  8
0
  0
BLOCK
  8
0
  2
_OPEN
 70
     0
 10
0.0
 20
0.0
 30
0.0
  3
_OPEN
  1

  0
LINE
  5
43EB
  8
0
  6
BYBLOCK
 62
     0
 10
-1.0
 20
0.1666666666666666
 30
0.0
 11
0.0
 21
0.0
 31
0.0
  0
LINE
  5
43EC
  8
0
  6
BYBLOCK
 62
     0
 10
-1.0
 20
-0.1666666666666666
 30
0.0
 11
0.0
 21
0.0
 31
0.0
  0
LINE
  5
43ED
  8
0
  6
BYBLOCK
 62
     0
 10
0.0
 20
0.0
 30
0.0
 11
-1.0
 21
0.0
 31
0.0
  0
ENDBLK
  5
43EE
  8
0
  0
BLOCK
  8
0
  2
GENAXEH
 70
     0
 10
0.0
 20
0.0
 30
0.0
  3
GENAXEH
  1

  0
LINE
  5
4426
  8
0
 10
-1.0
 20
0.0
 30
0.0
 11
1.0
 21
0.0
 31
0.0
  0
ENDBLK
  5
4427
  8
0
  0
BLOCK
  8
0
  2
_OPEN30
 70
     0
 10
0.0
 20
0.0
 30
0.0
  3
_OPEN30
  1

  0
LINE
  5
4462
  8
0
  6
BYBLOCK
 62
     0
 10
-1.0
 20
0.26794919
 30
0.0
 11
0.0
 21
0.0
 31
0.0
  0
LINE
  5
4463
  8
0
  6
BYBLOCK
 62
     0
 10
0.0
 20
0.0
 30
0.0
 11
-1.0
 21
-0.26794919
 31
0.0
  0
LINE
  5
4464
  8
0
  6
BYBLOCK
 62
     0
 10
0.0
 20
0.0
 30
0.0
 11
-1.0
 21
0.0
 31
0.0
  0
ENDBLK
  5
4465
  8
0
  0
BLOCK
  8
0
  2
*U19
 70
     1
 10
0.0
 20
0.0
 30
0.0
  3
*U19
  1

  0
TEXT
  5
44E5
  8
240
 62
    40
 10
13.3333333333333
 20
29.199999999999989
 30
0.0
 40
2.7999999999999989
  1
32
  0
ENDBLK
  5
44E7
  8
0
  0
BLOCK
  8
0
  2
*U20
 70
     1
 10
0.0
 20
0.0
 30
0.0
  3
*U20
  1

  0
TEXT
  5
44E9
  8
240
 62
    40
 10
40.999999999999993
 20
8.3333333333333321
 30
0.0
 40
2.7999999999999989
  1
22
 50
90.0
  0
ENDBLK
  5
44EB
  8
0
  0
ENDSEC
  0
SECTION
  2
ENTITIES
  0
LINE
  5
41EA
  8
245
 10
33.400168668438432
 20
0.0
 30
0.0
 11
-2.624154414862744
 21
0.0
 31
0.0
  0
LINE
  5
41EC
  8
240
  6
CONTINUOUS
 10
21.43976384272349
 20
16.0
 30
0.0
 11
-0.0000000000000568
 21
16.0
 31
0.0
  0
LINE
  5
41ED
  8
240
  6
CONTINUOUS
 10
0.000000000000058
 20
-16.0
 30
0.0
 11
9.9999999999999432
 21
-16.0
 31
0.0
  0
LINE
  5
41F1
  8
241
  6
CONTINUOUS
 10
9.9999999999999432
 20
14.174281535754851
 30
0.0
 11
9.9999999999999432
 21
-12.0
 31
0.0
  0
LINE
  5
41F2
  8
240
  6
CONTINUOUS
 10
-0.0000000000000579
 20
16.0
 30
0.0
 11
0.000000000000058
 21
-16.0
 31
0.0
  0
ARC
  5
41F7
  8
241
  6
CONTINUOUS
 10
22.788830709614729
 20
6.9374697416717481
 30
0.0
 40
2.4973761678384752
 50
112.4149525078019
 51
6.2001723973082461
  0
LINE
  5
41F8
  8
240
  6
CONTINUOUS
 10
30.523785088435659
 20
3.4766404375706079
 30
0.0
 11
30.903736347916151
 21
10.7265423543938
 31
0.0
  0
ARC
  5
41F9
  8
240
  6
CONTINUOUS
 10
20.537489740889839
 20
4.0
 30
0.0
 40
10.00000000000002
 50
270.0
 51
357.00000000000091
  0
LINE
  5
41FA
  8
240
  6
CONTINUOUS
 10
15.99999999999994
 20
-6.0
 30
0.0
 11
20.537489740889839
 21
-6.0
 31
0.0
  0
LINE
  5
4235
  8
246
  6
PHANTOM2
 10
31.998903627803621
 20
21.158131235005669
 30
0.0
 11
31.492572164534248
 21
11.49675137505676
 31
0.0
  0
ARC
  5
4236
  8
246
  6
PHANTOM2
 10
31.199999999999999
 20
21.199999999999989
 30
0.0
 40
0.7999999999999999
 50
357.00000000000438
 51
121.9999999999977
1001
GENIUS_GENODEF_13
1002
{
1000
HIER
1070
     0
1002
}
1002
{
1000
MANEDIT
1070
     0
1002
}
1002
{
1000
NOSEL
1070
     0
1002
}
1002
{
1000
BEHIND
1070
     0
1002
}
1002
{
1000
OTHER
1070
     0
1002
}
1002
{
1000
REACTOR
1002
}
1001
GENIUS_GENOBJ-N-FIL_13
1002
{
1000
OWNER
1000
GEN
1002
}
  0
LINE
  5
4237
  8
246
  6
PHANTOM2
 10
22.196537512951711
 20
16.115091387916092
 30
0.0
 11
21.690206049682349
 21
6.4537115279671857
 31
0.0
  0
ARC
  5
4238
  8
246
  6
PHANTOM2
 10
22.48910967748596
 20
6.4118427629729231
 30
0.0
 40
0.7999999999999999
 50
177.00000000000429
 51
301.9999999999996
1001
GENIUS_GENOBJ-N-FIL_13
1002
{
1000
OWNER
1000
GEN
1002
}
1001
GENIUS_GENODEF_13
1002
{
1000
HIER
1070
     0
1002
}
1002
{
1000
MANEDIT
1070
     0
1002
}
1002
{
1000
NOSEL
1070
     0
1002
}
1002
{
1000
BEHIND
1070
     0
1002
}
1002
{
1000
OTHER
1070
     0
1002
}
1002
{
1000
REACTOR
1002
}
  0
LINE
  5
4239
  8
246
  6
PHANTOM2
 10
22.913045088872611
 20
5.733404286047687
 30
0.0
 11
31.117603948117289
 21
10.8601816631259
 31
0.0
  0
ARC
  5
423A
  8
246
  6
PHANTOM2
 10
30.693668536730641
 20
11.53862014005113
 30
0.0
 40
0.7999999999999999
 50
301.9999999999996
 51
357.00000000000438
1001
GENIUS_GENOBJ-N-FIL_13
1002
{
1000
OWNER
1000
GEN
1002
}
1001
GENIUS_GENODEF_13
1002
{
1000
HIER
1070
     0
1002
}
1002
{
1000
MANEDIT
1070
     0
1002
}
1002
{
1000
NOSEL
1070
     0
1002
}
1002
{
1000
BEHIND
1070
     0
1002
}
1002
{
1000
OTHER
1070
     0
1002
}
1002
{
1000
REACTOR
1002
}
  0
LINE
  5
423B
  8
246
  6
PHANTOM2
 10
22.571505729368781
 20
16.751661099846949
 30
0.0
 11
30.776064588613458
 21
21.878438476925169
 31
0.0
  0
ARC
  5
423C
  8
246
  6
PHANTOM2
 10
22.995441140755432
 20
16.073222622921829
 30
0.0
 40
0.7999999999999999
 50
121.9999999999977
 51
177.00000000000429
1001
GENIUS_GENODEF_13
1002
{
1000
HIER
1070
     0
1002
}
1002
{
1000
MANEDIT
1070
     0
1002
}
1002
{
1000
NOSEL
1070
     0
1002
}
1002
{
1000
BEHIND
1070
     0
1002
}
1002
{
1000
OTHER
1070
     0
1002
}
1002
{
1000
REACTOR
1002
}
1001
GENIUS_GENOBJ-N-FIL_13
1002
{
1000
OWNER
1000
GEN
1002
}
  0
CIRCLE
  5
423D
  8
246
  6
PHANTOM2
 10
26.844554838742919
 20
13.805921381486369
 30
0.0
 40
4.7624999999999984
  0
CIRCLE
  5
423E
  8
242
  6
CONTINUOUS
 10
26.844554838742919
 20
13.805921381486369
 30
0.0
 40
2.0
  0
CIRCLE
  5
423F
  8
241
  6
CONTINUOUS
 10
26.844554838742919
 20
13.805921381486369
 30
0.0
 40
1.649999999999999
  0
ARC
  5
4240
  8
240
  6
CONTINUOUS
 10
15.99999999999994
 20
-12.0
 30
0.0
 40
6.0
 50
90.0
 51
180.0
1001
GENIUS_GENOBJ-N-FIL_13
1002
{
1000
OWNER
1000
GEN
1002
}
1001
GENIUS_GENODEF_13
1002
{
1000
HIER
1070
     0
1002
}
1002
{
1000
MANEDIT
1070
     0
1002
}
1002
{
1000
NOSEL
1070
     0
1002
}
1002
{
1000
BEHIND
1070
     0
1002
}
1002
{
1000
OTHER
1070
     0
1002
}
1002
{
1000
REACTOR
1002
}
  0
LINE
  5
4246
  8
241
  6
CONTINUOUS
 10
12.08541154498084
 20
15.904256847418271
 30
0.0
 11
15.99999999999994
 21
15.99746566871829
 31
0.0
  0
LINE
  5
4247
  8
240
  6
CONTINUOUS
 10
21.43976384272349
 20
15.99999999999998
 30
0.0
 11
22.195577315605611
 21
16.096769731108129
 31
0.0
  0
LINE
  5
4248
  8
240
  6
CONTINUOUS
 10
9.9999999999999432
 20
-12.0
 30
0.0
 11
9.9999999999999432
 21
-16.0
 31
0.0
  0
ARC
  5
4249
  8
241
  6
CONTINUOUS
 10
12.273207995826469
 20
13.555951178104429
 30
0.0
 40
2.35580284053691
 50
94.572272624844388
 51
164.78325595319819
  0
POLYLINE
  5
424B
  8
241
  6
CONTINUOUS
 10
11.32496710138456
 20
13.726340248683197
 30
0.0
 66
     1
 70
     8
  0
VERTEX
  8
241
  5
44EC
 10
11.3250
 20
13.7263
 30
0.000000
  70
    32
  0
VERTEX
  8
241
  5
44ED
 10
11.3561
 20
13.6952
 30
0.000000
  70
    32
  0
VERTEX
  8
241
  5
44EE
 10
11.3895
 20
13.6663
 30
0.000000
  70
    32
  0
VERTEX
  8
241
  5
44EF
 10
11.4250
 20
13.6397
 30
0.000000
  70
    32
  0
VERTEX
  8
241
  5
44F0
 10
11.4625
 20
13.6154
 30
0.000000
  70
    32
  0
VERTEX
  8
241
  5
44F1
 10
11.5020
 20
13.5935
 30
0.000000
  70
    32
  0
VERTEX
  8
241
  5
44F2
 10
11.5434
 20
13.5740
 30
0.000000
  70
    32
  0
VERTEX
  8
241
  5
44F3
 10
11.5865
 20
13.5570
 30
0.000000
  70
    32
  0
VERTEX
  8
241
  5
44F4
 10
11.6312
 20
13.5426
 30
0.000000
  70
    32
  0
VERTEX
  8
241
  5
44F5
 10
11.6776
 20
13.5308
 30
0.000000
  70
    32
  0
VERTEX
  8
241
  5
44F6
 10
11.7253
 20
13.5215
 30
0.000000
  70
    32
  0
VERTEX
  8
241
  5
44F7
 10
11.7744
 20
13.5149
 30
0.000000
  70
    32
  0
VERTEX
  8
241
  5
44F8
 10
11.8247
 20
13.5110
 30
0.000000
  70
    32
  0
VERTEX
  8
241
  5
44F9
 10
11.8760
 20
13.5096
 30
0.000000
  70
    32
  0
VERTEX
  8
241
  5
44FA
 10
11.9283
 20
13.5110
 30
0.000000
  70
    32
  0
VERTEX
  8
241
  5
44FB
 10
11.9815
 20
13.5149
 30
0.000000
  70
    32
  0
VERTEX
  8
241
  5
44FC
 10
12.0353
 20
13.5216
 30
0.000000
  70
    32
  0
VERTEX
  8
241
  5
44FD
 10
12.0897
 20
13.5308
 30
0.000000
  70
    32
  0
VERTEX
  8
241
  5
44FE
 10
12.1446
 20
13.5426
 30
0.000000
  70
    32
  0
VERTEX
  8
241
  5
44FF
 10
12.1998
 20
13.5571
 30
0.000000
  70
    32
  0
VERTEX
  8
241
  5
4500
 10
12.2551
 20
13.5740
 30
0.000000
  70
    32
  0
VERTEX
  8
241
  5
4501
 10
12.3105
 20
13.5935
 30
0.000000
  70
    32
  0
VERTEX
  8
241
  5
4502
 10
12.3658
 20
13.6154
 30
0.000000
  70
    32
  0
VERTEX
  8
241
  5
4503
 10
12.4209
 20
13.6397
 30
0.000000
  70
    32
  0
VERTEX
  8
241
  5
4504
 10
12.4757
 20
13.6663
 30
0.000000
  70
    32
  0
VERTEX
  8
241
  5
4505
 10
12.5299
 20
13.6952
 30
0.000000
  70
    32
  0
VERTEX
  8
241
  5
4506
 10
12.5835
 20
13.7263
 30
0.000000
  70
    32
  0
VERTEX
  8
241
  5
4507
 10
12.6364
 20
13.7596
 30
0.000000
  70
    32
  0
VERTEX
  8
241
  5
4508
 10
12.6884
 20
13.7949
 30
0.000000
  70
    32
  0
VERTEX
  8
241
  5
4509
 10
12.7394
 20
13.8322
 30
0.000000
  70
    32
  0
VERTEX
  8
241
  5
450A
 10
12.7893
 20
13.8713
 30
0.000000
  70
    32
  0
VERTEX
  8
241
  5
450B
 10
12.8380
 20
13.9122
 30
0.000000
  70
    32
  0
VERTEX
  8
241
  5
450C
 10
12.8853
 20
13.9549
 30
0.000000
  70
    32
  0
VERTEX
  8
241
  5
450D
 10
12.9311
 20
13.9991
 30
0.000000
  70
    32
  0
VERTEX
  8
241
  5
450E
 10
12.9753
 20
14.0447
 30
0.000000
  70
    32
  0
VERTEX
  8
241
  5
450F
 10
13.0178
 20
14.0917
 30
0.000000
  70
    32
  0
VERTEX
  8
241
  5
4510
 10
13.0586
 20
14.1400
 30
0.000000
  70
    32
  0
VERTEX
  8
241
  5
4511
 10
13.0974
 20
14.1894
 30
0.000000
  70
    32
  0
VERTEX
  8
241
  5
4512
 10
13.1343
 20
14.2399
 30
0.000000
  70
    32
  0
VERTEX
  8
241
  5
4513
 10
13.1691
 20
14.2912
 30
0.000000
  70
    32
  0
VERTEX
  8
241
  5
4514
 10
13.2017
 20
14.3433
 30
0.000000
  70
    32
  0
VERTEX
  8
241
  5
4515
 10
13.2321
 20
14.3960
 30
0.000000
  70
    32
  0
VERTEX
  8
241
  5
4516
 10
13.2602
 20
14.4493
 30
0.000000
  70
    32
  0
VERTEX
  8
241
  5
4517
 10
13.2859
 20
14.5029
 30
0.000000
  70
    32
  0
VERTEX
  8
241
  5
4518
 10
13.3092
 20
14.5568
 30
0.000000
  70
    32
  0
VERTEX
  8
241
  5
4519
 10
13.3300
 20
14.6109
 30
0.000000
  70
    32
  0
VERTEX
  8
241
  5
451A
 10
13.3482
 20
14.6649
 30
0.000000
  70
    32
  0
VERTEX
  8
241
  5
451B
 10
13.3639
 20
14.7188
 30
0.000000
  70
    32
  0
VERTEX
  8
241
  5
451C
 10
13.3769
 20
14.7724
 30
0.000000
  70
    32
  0
VERTEX
  8
241
  5
451D
 10
13.3873
 20
14.8257
 30
0.000000
  70
    32
  0
VERTEX
  8
241
  5
451E
 10
13.3949
 20
14.8784
 30
0.000000
  70
    32
  0
VERTEX
  8
241
  5
451F
 10
13.3999
 20
14.9305
 30
0.000000
  70
    32
  0
VERTEX
  8
241
  5
4520
 10
13.4022
 20
14.9818
 30
0.000000
  70
    32
  0
VERTEX
  8
241
  5
4521
 10
13.4017
 20
15.0323
 30
0.000000
  70
    32
  0
VERTEX
  8
241
  5
4522
 10
13.3986
 20
15.0817
 30
0.000000
  70
    32
  0
VERTEX
  8
241
  5
4523
 10
13.3927
 20
15.1300
 30
0.000000
  70
    32
  0
VERTEX
  8
241
  5
4524
 10
13.3841
 20
15.1770
 30
0.000000
  70
    32
  0
VERTEX
  8
241
  5
4525
 10
13.3729
 20
15.2227
 30
0.000000
  70
    32
  0
VERTEX
  8
241
  5
4526
 10
13.3590
 20
15.2669
 30
0.000000
  70
    32
  0
VERTEX
  8
241
  5
4527
 10
13.3424
 20
15.3095
 30
0.000000
  70
    32
  0
VERTEX
  8
241
  5
4528
 10
13.3234
 20
15.3504
 30
0.000000
  70
    32
  0
VERTEX
  8
241
  5
4529
 10
13.3017
 20
15.3895
 30
0.000000
  70
    32
  0
VERTEX
  8
241
  5
452A
 10
13.2776
 20
15.4268
 30
0.000000
  70
    32
  0
VERTEX
  8
241
  5
452B
 10
13.2511
 20
15.4621
 30
0.000000
  70
    32
  0
VERTEX
  8
241
  5
452C
 10
13.2223
 20
15.4954
 30
0.000000
  70
    32
  0
VERTEX
  8
241
  5
452D
 10
13.1911
 20
15.5265
 30
0.000000
  70
    32
  0
VERTEX
  8
241
  5
452E
 10
13.1577
 20
15.5554
 30
0.000000
  70
    32
  0
VERTEX
  8
241
  5
452F
 10
13.1222
 20
15.5820
 30
0.000000
  70
    32
  0
VERTEX
  8
241
  5
4530
 10
13.0847
 20
15.6064
 30
0.000000
  70
    32
  0
VERTEX
  8
241
  5
4531
 10
13.0452
 20
15.6283
 30
0.000000
  70
    32
  0
VERTEX
  8
241
  5
4532
 10
13.0039
 20
15.6477
 30
0.000000
  70
    32
  0
VERTEX
  8
241
  5
4533
 10
12.9607
 20
15.6647
 30
0.000000
  70
    32
  0
VERTEX
  8
241
  5
4534
 10
12.9160
 20
15.6791
 30
0.000000
  70
    32
  0
VERTEX
  8
241
  5
4535
 10
12.8697
 20
15.6909
 30
0.000000
  70
    32
  0
VERTEX
  8
241
  5
4536
 10
12.8219
 20
15.7002
 30
0.000000
  70
    32
  0
VERTEX
  8
241
  5
4537
 10
12.7728
 20
15.7068
 30
0.000000
  70
    32
  0
VERTEX
  8
241
  5
4538
 10
12.7226
 20
15.7108
 30
0.000000
  70
    32
  0
VERTEX
  8
241
  5
4539
 10
12.6712
 20
15.7121
 30
0.000000
  70
    32
  0
VERTEX
  8
241
  5
453A
 10
12.6189
 20
15.7108
 30
0.000000
  70
    32
  0
VERTEX
  8
241
  5
453B
 10
12.5657
 20
15.7068
 30
0.000000
  70
    32
  0
VERTEX
  8
241
  5
453C
 10
12.5119
 20
15.7002
 30
0.000000
  70
    32
  0
VERTEX
  8
241
  5
453D
 10
12.4575
 20
15.6909
 30
0.000000
  70
    32
  0
VERTEX
  8
241
  5
453E
 10
12.4026
 20
15.6791
 30
0.000000
  70
    32
  0
VERTEX
  8
241
  5
453F
 10
12.3474
 20
15.6647
 30
0.000000
  70
    32
  0
VERTEX
  8
241
  5
4540
 10
12.2921
 20
15.6477
 30
0.000000
  70
    32
  0
VERTEX
  8
241
  5
4541
 10
12.2367
 20
15.6282
 30
0.000000
  70
    32
  0
VERTEX
  8
241
  5
4542
 10
12.1814
 20
15.6063
 30
0.000000
  70
    32
  0
VERTEX
  8
241
  5
4543
 10
12.1263
 20
15.5820
 30
0.000000
  70
    32
  0
VERTEX
  8
241
  5
4544
 10
12.0715
 20
15.5554
 30
0.000000
  70
    32
  0
VERTEX
  8
241
  5
4545
 10
12.0173
 20
15.5265
 30
0.000000
  70
    32
  0
VERTEX
  8
241
  5
4546
 10
11.9637
 20
15.4954
 30
0.000000
  70
    32
  0
VERTEX
  8
241
  5
4547
 10
11.9108
 20
15.4621
 30
0.000000
  70
    32
  0
VERTEX
  8
241
  5
4548
 10
11.8588
 20
15.4268
 30
0.000000
  70
    32
  0
VERTEX
  8
241
  5
4549
 10
11.8078
 20
15.3895
 30
0.000000
  70
    32
  0
VERTEX
  8
241
  5
454A
 10
11.7579
 20
15.3504
 30
0.000000
  70
    32
  0
VERTEX
  8
241
  5
454B
 10
11.7092
 20
15.3095
 30
0.000000
  70
    32
  0
VERTEX
  8
241
  5
454C
 10
11.6620
 20
15.2668
 30
0.000000
  70
    32
  0
VERTEX
  8
241
  5
454D
 10
11.6162
 20
15.2227
 30
0.000000
  70
    32
  0
VERTEX
  8
241
  5
454E
 10
11.5719
 20
15.1770
 30
0.000000
  70
    32
  0
VERTEX
  8
241
  5
454F
 10
11.5294
 20
15.1300
 30
0.000000
  70
    32
  0
VERTEX
  8
241
  5
4550
 10
11.4886
 20
15.0817
 30
0.000000
  70
    32
  0
VERTEX
  8
241
  5
4551
 10
11.4498
 20
15.0323
 30
0.000000
  70
    32
  0
VERTEX
  8
241
  5
4552
 10
11.4129
 20
14.9818
 30
0.000000
  70
    32
  0
VERTEX
  8
241
  5
4553
 10
11.3781
 20
14.9305
 30
0.000000
  70
    32
  0
VERTEX
  8
241
  5
4554
 10
11.3455
 20
14.8784
 30
0.000000
  70
    32
  0
VERTEX
  8
241
  5
4555
 10
11.3151
 20
14.8257
 30
0.000000
  70
    32
  0
VERTEX
  8
241
  5
4556
 10
11.2870
 20
14.7724
 30
0.000000
  70
    32
  0
VERTEX
  8
241
  5
4557
 10
11.2613
 20
14.7188
 30
0.000000
  70
    32
  0
VERTEX
  8
241
  5
4558
 10
11.2380
 20
14.6649
 30
0.000000
  70
    32
  0
VERTEX
  8
241
  5
4559
 10
11.2172
 20
14.6108
 30
0.000000
  70
    32
  0
VERTEX
  8
241
  5
455A
 10
11.1990
 20
14.5568
 30
0.000000
  70
    32
  0
VERTEX
  8
241
  5
455B
 10
11.1833
 20
14.5029
 30
0.000000
  70
    32
  0
VERTEX
  8
241
  5
455C
 10
11.1703
 20
14.4493
 30
0.000000
  70
    32
  0
VERTEX
  8
241
  5
455D
 10
11.1600
 20
14.3960
 30
0.000000
  70
    32
  0
VERTEX
  8
241
  5
455E
 10
11.1523
 20
14.3433
 30
0.000000
  70
    32
  0
VERTEX
  8
241
  5
455F
 10
11.1473
 20
14.2912
 30
0.000000
  70
    32
  0
VERTEX
  8
241
  5
4560
 10
11.1450
 20
14.2399
 30
0.000000
  70
    32
  0
VERTEX
  8
241
  5
4561
 10
11.1455
 20
14.1894
 30
0.000000
  70
    32
  0
VERTEX
  8
241
  5
4562
 10
11.1487
 20
14.1400
 30
0.000000
  70
    32
  0
VERTEX
  8
241
  5
4563
 10
11.1545
 20
14.0917
 30
0.000000
  70
    32
  0
VERTEX
  8
241
  5
4564
 10
11.1631
 20
14.0447
 30
0.000000
  70
    32
  0
VERTEX
  8
241
  5
4565
 10
11.1744
 20
13.9990
 30
0.000000
  70
    32
  0
VERTEX
  8
241
  5
4566
 10
11.1883
 20
13.9549
 30
0.000000
  70
    32
  0
VERTEX
  8
241
  5
4567
 10
11.2048
 20
13.9122
 30
0.000000
  70
    32
  0
VERTEX
  8
241
  5
4568
 10
11.2239
 20
13.8713
 30
0.000000
  70
    32
  0
VERTEX
  8
241
  5
4569
 10
11.2455
 20
13.8322
 30
0.000000
  70
    32
  0
VERTEX
  8
241
  5
456A
 10
11.2696
 20
13.7949
 30
0.000000
  70
    32
  0
VERTEX
  8
241
  5
456B
 10
11.2961
 20
13.7596
 30
0.000000
  70
    32
  0
VERTEX
  8
241
  5
456C
 10
11.3250
 20
13.7263
 30
0.000000
  70
    32
  0
SEQEND
  8
241
  5
456D
  0
LINE
  5
429F
  8
243
  6
HIDDEN2
 10
3.049999999999998
 20
16.0
 30
0.0
 11
3.049999999999998
 21
-16.0
 31
0.0
  0
TEXT
  5
42A0
  8
241
  6
CONTINUOUS
 10
0.0
 20
49.0
 30
0.0
 40
3.0
  1
B32-SDUCR-22032-11
  7
YOKO
  0
LINE
  5
42A1
  8
250
  6
CONTINUOUS
 10
59.756531718405981
 20
29.906671255150851
 30
0.0
 11
40.45315666962221
 21
29.906671255150851
 31
0.0
  0
LINE
  5
42A2
  8
250
  6
CONTINUOUS
 10
40.45315666962221
 20
29.906671255150851
 30
0.0
 11
34.04123084960267
 21
21.46739551876469
 31
0.0
  0
LINE
  5
42A3
  8
250
  6
CONTINUOUS
 10
34.04123084960267
 20
21.46739551876469
 30
0.0
 11
32.692151742630131
 21
19.691758854598788
 31
0.0
  0
LINE
  5
42A4
  8
250
  6
CONTINUOUS
 10
33.807463849000463
 20
21.645005151848149
 30
0.0
 11
32.692151742630131
 21
19.691758854598788
 31
0.0
  0
LINE
  5
42A5
  8
250
  6
CONTINUOUS
 10
32.692151742630131
 20
19.691758854598788
 30
0.0
 11
34.274997850204848
 21
21.28978588568123
 31
0.0
  0
TEXT
  5
42A6
  8
250
  6
CONTINUOUS
 10
41.304762924750577
 20
31.462502673616161
 30
0.0
 40
2.799999999999998
  1
DC11T3
  7
ACJISTS
  0
LINE
  5
42FE
  8
250
  6
CONTINUOUS
 10
33.900168668438432
 20
-0.0000000000000001
 30
0.0
 11
42.999999999999993
 21
-0.0000000000000027
 31
0.0
  0
LINE
  5
42FF
  8
250
  6
CONTINUOUS
 10
31.699999999999999
 20
21.999999999999989
 30
0.0
 11
43.0
 21
21.999999999999989
 31
0.0
  0
LINE
  5
4300
  8
250
  6
CONTINUOUS
 10
41.999999999999993
 20
2.2299999999999969
 30
0.0
 11
42.0
 21
19.769999999999978
 31
0.0
  0
LINE
  5
4304
  8
250
  6
CONTINUOUS
 10
-0.0000000000000579
 20
16.5
 30
0.0
 11
-0.0000000000000571
 21
29.199999999999989
 31
0.0
  0
LINE
  5
4305
  8
250
  6
CONTINUOUS
 10
32.0
 20
21.699999999999989
 30
0.0
 11
32.0
 21
29.199999999999989
 31
0.0
  0
LINE
  5
4306
  8
250
  6
CONTINUOUS
 10
2.2299999999999418
 20
28.199999999999989
 30
0.0
 11
29.77
 21
28.199999999999989
 31
0.0
  0
TEXT
  5
430A
  8
250
  6
CONTINUOUS
 10
13.3333333333333
 20
29.199999999999989
 30
0.0
 40
2.7999999999999989
  1
32
  0
LINE
  5
430B
  8
250
  6
CONTINUOUS
 10
29.77
 20
28.571666666666658
 30
0.0
 11
32.0
 21
28.199999999999989
 31
0.0
  0
LINE
  5
430C
  8
250
  6
CONTINUOUS
 10
29.77
 20
27.82833333333333
 30
0.0
 11
32.0
 21
28.199999999999989
 31
0.0
  0
LINE
  5
430D
  8
250
  6
CONTINUOUS
 10
32.0
 20
28.199999999999989
 30
0.0
 11
29.77
 21
28.199999999999989
 31
0.0
  0
LINE
  5
430E
  8
250
  6
CONTINUOUS
 10
2.2299999999999418
 20
27.82833333333333
 30
0.0
 11
-0.0000000000000572
 21
28.199999999999989
 31
0.0
  0
LINE
  5
430F
  8
250
  6
CONTINUOUS
 10
2.2299999999999418
 20
28.571666666666658
 30
0.0
 11
-0.0000000000000572
 21
28.199999999999989
 31
0.0
  0
LINE
  5
4310
  8
250
  6
CONTINUOUS
 10
-0.0000000000000572
 20
28.199999999999989
 30
0.0
 11
2.2299999999999418
 21
28.199999999999989
 31
0.0
  0
TEXT
  5
4311
  8
250
  6
CONTINUOUS
 10
40.999999999999993
 20
8.3333333333333321
 30
0.0
 40
2.7999999999999989
  1
22
 50
90.0
  0
LINE
  5
4312
  8
250
  6
CONTINUOUS
 10
41.62833333333333
 20
19.769999999999978
 30
0.0
 11
42.0
 21
21.999999999999989
 31
0.0
  0
LINE
  5
4313
  8
250
  6
CONTINUOUS
 10
42.371666666666663
 20
19.769999999999978
 30
0.0
 11
42.0
 21
21.999999999999989
 31
0.0
  0
LINE
  5
4314
  8
250
  6
CONTINUOUS
 10
42.0
 20
21.999999999999989
 30
0.0
 11
42.0
 21
19.769999999999978
 31
0.0
  0
LINE
  5
4315
  8
250
  6
CONTINUOUS
 10
42.371666666666663
 20
2.2299999999999969
 30
0.0
 11
41.999999999999993
 21
-0.0000000000000024
 31
0.0
  0
LINE
  5
4316
  8
250
  6
CONTINUOUS
 10
41.628333333333323
 20
2.2299999999999969
 30
0.0
 11
41.999999999999993
 21
-0.0000000000000024
 31
0.0
  0
LINE
  5
4317
  8
250
  6
CONTINUOUS
 10
41.999999999999993
 20
-0.0000000000000024
 30
0.0
 11
41.999999999999993
 21
2.2299999999999969
 31
0.0
  0
VIEWPORT
  5
22
 67
     1
  8
0
 10
261.51769911504419
 20
148.5
 30
0.0
 40
523.0353982300885
 41
297.0
 68
     1
 69
     1
1001
ACAD
1000
MVIEW
1002
{
1070
    16
1010
0.0
1020
0.0
1030
0.0
1010
0.0
1020
0.0
1030
1.0
1040
0.0
1040
297.0
1040
261.51769911504419
1040
148.5
1040
50.0
1040
0.0
1040
0.0
1070
     0
1070
   100
1070
     1
1070
     1
1070
     0
1070
     0
1070
     0
1070
     0
1040
0.0
1040
0.0
1040
0.0
1040
1.0
1040
1.0
1040
10.0
1040
10.0
1070
     0
1002
{
1002
}
1002
}
1001
GENIUS_GENODEF_13
1002
{
1000
HIER
1070
     0
1002
}
1002
{
1000
MANEDIT
1070
     0
1002
}
1002
{
1000
NOSEL
1070
     0
1002
}
1002
{
1000
BEHIND
1070
     0
1002
}
1002
{
1000
OTHER
1070
     0
1002
}
1002
{
1000
REACTOR
1002
}
1001
GENIUS_GENOBJ-N-SDF_13
1002
{
1000
OWNER
1000
GEN
1002
}
1001
GENIUS_GENSCREG_15
1000
PF
1040
1.0
1000
DF
1040
1.0
1000
MIN
1011
0.0
1021
0.0
1031
0.0
1021
0.0
1031
0.0
1000
MAX
1011
523.0353982300885
1021
0.0
1031
0.0
1021
297.0
1031
0.0
1000
FLAGS
1070
     4
  0
ENDSEC
  0
EOF
