  0
SECTION
  2
HEADER
  9
$ACADVER
  1
AC1009
  9
$INSBASE
 10
0.0
 20
0.0
 30
0.0
  9
$EXTMIN
 10
-7.0
 20
-16.003194175561621
 30
0.0
  9
$EXTMAX
 10
259.36905635379071
 20
52.0
 30
0.0
  9
$LIMMIN
 10
0.0
 20
0.0
  9
$LIMMAX
 10
297.0
 20
210.0
  9
$ORTHOMODE
 70
     0
  9
$REGENMODE
 70
     1
  9
$FILLMODE
 70
     1
  9
$QTEXTMODE
 70
     0
  9
$MIRRTEXT
 70
     1
  9
$DRAGMODE
 70
     2
  9
$LTSCALE
 40
10.0
  9
$OSMODE
 70
   103
  9
$ATTMODE
 70
     1
  9
$TEXTSIZE
 40
3.0
  9
$TRACEWID
 40
1.0
  9
$TEXTSTYLE
  7
YOKO
  9
$CLAYER
  8
240
  9
$CELTYPE
  6
BYLAYER
  9
$CECOLOR
 62
   256
  9
$DIMSCALE
 40
1.0
  9
$DIMASZ
 40
2.2299999999999991
  9
$DIMEXO
 40
0.5
  9
$DIMDLI
 40
7.0
  9
$DIMRND
 40
0.0
  9
$DIMDLE
 40
0.0
  9
$DIMEXE
 40
1.0
  9
$DIMTP
 40
0.0
  9
$DIMTM
 40
0.01
  9
$DIMTXT
 40
2.799999999999998
  9
$DIMCEN
 40
0.0
  9
$DIMTSZ
 40
0.0
  9
$DIMTOL
 70
     0
  9
$DIMLIM
 70
     0
  9
$DIMTIH
 70
     0
  9
$DIMTOH
 70
     0
  9
$DIMSE1
 70
     0
  9
$DIMSE2
 70
     0
  9
$DIMTAD
 70
     3
  9
$DIMZIN
 70
     9
  9
$DIMBLK
  1
OPEN
  9
$DIMASO
 70
     1
  9
$DIMSHO
 70
     1
  9
$DIMPOST
  1

  9
$DIMAPOST
  1

  9
$DIMALT
 70
     0
  9
$DIMALTD
 70
     2
  9
$DIMALTF
 40
25.399999999999999
  9
$DIMLFAC
 40
1.0
  9
$DIMTOFL
 70
     1
  9
$DIMTVP
 40
0.0
  9
$DIMTIX
 70
     1
  9
$DIMSOXD
 70
     0
  9
$DIMSAH
 70
     0
  9
$DIMBLK1
  1

  9
$DIMBLK2
  1

  9
$DIMSTYLE
  2
BIGT
  9
$DIMCLRD
 70
   256
  9
$DIMCLRE
 70
   256
  9
$DIMCLRT
 70
    40
  9
$DIMTFAC
 40
1.0
  9
$DIMGAP
 40
1.0
  9
$LUNITS
 70
     2
  9
$LUPREC
 70
     6
  9
$SKETCHINC
 40
1.0
  9
$FILLETRAD
 40
6.0
  9
$AUNITS
 70
     0
  9
$AUPREC
 70
     6
  9
$MENU
  1
.
  9
$ELEVATION
 40
0.0
  9
$PELEVATION
 40
0.0
  9
$THICKNESS
 40
0.0
  9
$LIMCHECK
 70
     0
  9
$BLIPMODE
 70
     0
  9
$CHAMFERA
 40
0.2
  9
$CHAMFERB
 40
0.2
  9
$SKPOLY
 70
     0
  9
$TDCREATE
 40
2458914.386522755
  9
$TDUPDATE
 40
2458914.415147847
  9
$TDINDWG
 40
0.0274332755
  9
$TDUSRTIMER
 40
0.0274332176
  9
$USRTIMER
 70
     1
  9
$ANGBASE
 50
0.0
  9
$ANGDIR
 70
     0
  9
$PDMODE
 70
     1
  9
$PDSIZE
 40
0.0
  9
$PLINEWID
 40
0.0
  9
$COORDS
 70
     1
  9
$SPLFRAME
 70
     0
  9
$SPLINETYPE
 70
     6
  9
$SPLINESEGS
 70
     4
  9
$ATTDIA
 70
     1
  9
$ATTREQ
 70
     1
  9
$HANDLING
 70
     1
  9
$HANDSEED
  5
4985
  9
$SURFTAB1
 70
     6
  9
$SURFTAB2
 70
     6
  9
$SURFTYPE
 70
     6
  9
$SURFU
 70
     6
  9
$SURFV
 70
     6
  9
$UCSNAME
  2

  9
$UCSORG
 10
0.0
 20
0.0
 30
0.0
  9
$UCSXDIR
 10
1.0
 20
0.0
 30
0.0
  9
$UCSYDIR
 10
0.0
 20
1.0
 30
0.0
  9
$PUCSNAME
  2

  9
$PUCSORG
 10
0.0
 20
0.0
 30
0.0
  9
$PUCSXDIR
 10
1.0
 20
0.0
 30
0.0
  9
$PUCSYDIR
 10
0.0
 20
1.0
 30
0.0
  9
$USERI1
 70
     1
  9
$USERI2
 70
     0
  9
$USERI3
 70
     0
  9
$USERI4
 70
     0
  9
$USERI5
 70
     0
  9
$USERR1
 40
0.0
  9
$USERR2
 40
0.0
  9
$USERR3
 40
0.0
  9
$USERR4
 40
0.0
  9
$USERR5
 40
0.0
  9
$WORLDVIEW
 70
     1
  9
$SHADEDGE
 70
     3
  9
$SHADEDIF
 70
    70
  9
$TILEMODE
 70
     1
  9
$MAXACTVP
 70
    16
  9
$PLIMCHECK
 70
     0
  9
$PEXTMIN
 10
1.0000000000000000E+020
 20
1.0000000000000000E+020
 30
1.0000000000000000E+020
  9
$PEXTMAX
 10
-1.0000000000000000E+020
 20
-1.0000000000000000E+020
 30
-1.0000000000000000E+020
  9
$PLIMMIN
 10
0.0
 20
0.0
  9
$PLIMMAX
 10
420.0
 20
297.0
  9
$UNITMODE
 70
     0
  9
$VISRETAIN
 70
     1
  9
$PLINEGEN
 70
     0
  9
$PSLTSCALE
 70
     1
  0
ENDSEC
  0
SECTION
  2
TABLES
  0
TABLE
  2
VPORT
 70
     1
  0
VPORT
  2
*ACTIVE
 70
     0
 10
0.0
 20
0.0
 11
1.0
 21
1.0
 12
88.794556093679716
 22
33.37814271523515
 13
0.0
 23
0.0
 14
7.0
 24
7.0
 15
7.0
 25
7.0
 16
0.0
 26
0.0
 36
1.0
 17
0.0
 27
0.0
 37
0.0
 40
203.12965284557151
 41
1.8256410256410249
 42
50.0
 43
0.0
 44
0.0
 50
0.0
 51
0.0
 71
     0
 72
  2000
 73
     1
 74
     0
 75
     1
 76
     1
 77
     0
 78
     0
  0
ENDTAB
  0
TABLE
  2
LTYPE
 70
    21
  0
LTYPE
  2
CONTINUOUS
 70
     0
  3
Solid line
 72
    65
 73
     0
 40
0.0
  0
LTYPE
  2
CENTER2
 70
     0
  3
___ _ ___ _ ___ _ ___ _ ___ _ ___ _ ___ _ ___ _
 72
    65
 73
     4
 40
1.125
 49
0.75
 49
-0.125
 49
0.125
 49
-0.125
  0
LTYPE
  2
HIDDEN2
 70
     0
  3
_ _ _ _ _ _ _ _ _ _ _ _ _ _ _ _ _ _ _ _ _ _ _ _
 72
    65
 73
     2
 40
0.1875
 49
0.125
 49
-0.0625
  0
LTYPE
  2
PHANTOM2
 70
     0
  3
___ _ _ ___ _ _ ___ _ _ ___ _ _ ___ _ _ ___ _ _
 72
    65
 73
     6
 40
1.25
 49
0.625
 49
-0.125
 49
0.125
 49
-0.125
 49
0.125
 49
-0.125
  0
LTYPE
  2
AM_ISO02W050
 70
     0
  3
__ __ __ __ __ __ __ __ __ __ __ __ __ __ __
 72
    65
 73
     2
 40
7.5
 49
6.0
 49
-1.5
  0
LTYPE
  2
AMCONSTR
 70
     0
  3
_______________________
 72
    65
 73
     2
 40
9999.0
 49
9999.0
 49
0.0
  0
LTYPE
  2
ACISOWELD
 70
     0
  3
_ _ _ _ _
 72
    65
 73
     2
 40
2.0
 49
2.0
 49
-1.0
  0
LTYPE
  2
ACISOTGB
 70
     0
  3
__ . . __ . .
 72
    65
 73
     6
 40
9.0
 49
4.0
 49
-1.0
 49
1.0
 49
-1.0
 49
1.0
 49
-1.0
  0
LTYPE
  2
ACISOTGL
 70
     0
  3
_ _ _ _ _
 72
    65
 73
     2
 40
3.0
 49
2.0
 49
-1.0
  0
LTYPE
  2
ACJISTGB
 70
     0
  3
__ . . __ . .
 72
    65
 73
     6
 40
9.0
 49
4.0
 49
-1.0
 49
1.0
 49
-1.0
 49
1.0
 49
-1.0
  0
LTYPE
  2
ACJISTGL
 70
     0
  3
_ _ _ _ _
 72
    65
 73
     2
 40
3.0
 49
2.0
 49
-1.0
  0
LTYPE
  2
HIDDEN
 70
     0
  3
Hidden __ __ __ __ __ __ __ __ __ __ __ __ __ _
 72
    65
 73
     2
 40
0.375
 49
0.25
 49
-0.125
  0
LTYPE
  2
CENTER
 70
     0
  3
Center ____ _ ____ _ ____ _ ____ _ ____ _ ____
 72
    65
 73
     4
 40
2.0
 49
1.25
 49
-0.25
 49
0.25
 49
-0.25
  0
LTYPE
  2
AM_ISO08W050
 70
     0
  3
____ . ____ . ____ . ____ . ____ . ____ . ____
 72
    65
 73
     4
 40
18.0
 49
12.0
 49
-1.5
 49
3.0
 49
-1.5
  0
LTYPE
  2
AM_ISO09W050
 70
     0
  3
_____ . . _____ . . _____ . . ____ .. ____
 72
    65
 73
     6
 40
22.5
 49
12.0
 49
-1.5
 49
3.0
 49
-1.5
 49
3.0
 49
-1.5
  0
LTYPE
  2
AM_ISO08W050X2
 70
     0
  3
__ . __ . __ . __ . __ . __
 72
    65
 73
     4
 40
9.0
 49
6.0
 49
-0.75
 49
1.5
 49
-0.75
  0
LTYPE
  2
AM_ISO02W050X2
 70
     0
  3
 _ _ _ _ _ _ _ _ _ _ _ _
 72
    65
 73
     2
 40
3.75
 49
3.0
 49
-0.75
  0
LTYPE
  2
AMZIGZAG
 70
     0
  3
/\/-/\/-/\/-/\/-/\/-/\/
 72
    65
 73
     2
 40
11.0001
 49
0.0001
 49
-11.0
  0
LTYPE
  2
AMZIGZAG2
 70
     0
  3
/\/-/\/-/\/-/\/-/\/-/\/
 72
    65
 73
     2
 40
0.4401
 49
0.0001
 49
-0.4400000000000001
  0
LTYPE
  2
ACANSTGB
 70
     0
  3
__ . . __ . .
 72
    65
 73
     6
 40
0.35433070866
 49
0.15748031496
 49
-0.03937007874
 49
0.03937007874
 49
-0.03937007874
 49
0.03937007874
 49
-0.03937007874
  0
LTYPE
  2
ACANSTGL
 70
     0
  3
_ _ _ _ _
 72
    65
 73
     2
 40
0.11811023622
 49
0.07874015748
 49
-0.03937007874
  0
ENDTAB
  0
TABLE
  2
LAYER
 70
    10
  0
LAYER
  2
0
 70
     0
 62
     7
  6
CONTINUOUS
  0
LAYER
  2
240
 70
     0
 62
     4
  6
CONTINUOUS
  0
LAYER
  2
DEFPOINTS
 70
     0
 62
     7
  6
CONTINUOUS
  0
LAYER
  2
245
 70
     0
 62
     2
  6
CENTER2
  0
LAYER
  2
241
 70
     0
 62
   211
  6
CONTINUOUS
  0
LAYER
  2
242
 70
     0
 62
     3
  6
CONTINUOUS
  0
LAYER
  2
243
 70
     0
 62
   211
  6
HIDDEN2
  0
LAYER
  2
246
 70
     0
 62
     3
  6
PHANTOM2
  0
LAYER
  2
250
 70
     0
 62
     3
  6
CONTINUOUS
  0
LAYER
  2
AM_CL
 70
     0
 62
   254
  6
AMCONSTR
  0
ENDTAB
  0
TABLE
  2
STYLE
 70
    10
  0
STYLE
  2
STANDARD
 70
     0
 40
0.0
 41
1.0
 50
0.0
 71
     0
 42
3.0
  3
romans.shx
  4
extfont.shx
  0
STYLE
  2
ANNOTATIVE
 70
     0
 40
0.0
 41
1.0
 50
0.0
 71
     0
 42
0.2
  3
txt
  4

  0
STYLE
  2
YOKO
 70
     0
 40
0.0
 41
1.0
 50
0.0
 71
     0
 42
3.0
  3
romans.shx
  4
extfont.shx
  0
STYLE
  2
ACISOTS
 70
     0
 40
1.0
 41
1.0
 50
0.0
 71
     0
 42
3.0
  3
amgdt.shx
  4
extfont.shx
  0
STYLE
  2
ACISOGDT
 70
     0
 40
0.0
 41
1.0
 50
0.0
 71
     0
 42
3.0
  3
amgdt.shx
  4
extfont.shx
  0
STYLE
  2
ACJISTS
 70
     0
 40
1.0
 41
1.0
 50
0.0
 71
     0
 42
3.0
  3
amgdt.shx
  4
extfont.shx
  0
STYLE
  2
ACJISGDT
 70
     0
 40
0.0
 41
1.0
 50
0.0
 71
     0
 42
3.0
  3
amgdt.shx
  4
extfont.shx
  0
STYLE
  2

 70
     1
 40
0.0
 41
1.0
 50
0.0
 71
     0
 42
3.0
  3
genltshp.shx
  4

  0
STYLE
  2
ACANSTS
 70
     0
 40
0.0
 41
1.0
 50
0.0
 71
     0
 42
3.0
  3
romans.shx
  4
extfont.shx
  0
STYLE
  2
ACANSGDT
 70
     0
 40
0.0
 41
1.0
 50
0.0
 71
     0
 42
3.0
  3
amgdt.shx
  4

  0
ENDTAB
  0
TABLE
  2
VIEW
 70
     0
  0
ENDTAB
  0
TABLE
  2
UCS
 70
     0
  0
ENDTAB
  0
TABLE
  2
APPID
 70
    49
  0
APPID
  2
ACAD
 70
     0
  0
APPID
  2
ACADANNOTATIVE
 70
     0
  0
APPID
  2
GLOBAL
 70
     0
  0
APPID
  2
DETAIL
 70
     0
  0
APPID
  2
GRPNAME
 70
     0
  0
APPID
  2
GPARA
 70
     0
  0
APPID
  2
MCAD_NO_VIS
 70
     0
  0
APPID
  2
ACAD_TEMP_GRAPHIC
 70
     0
  0
APPID
  2
ACATTRIBSERVICES
 70
     0
  0
APPID
  2
GENIUS_GENSCREG_15
 70
     0
  0
APPID
  2
GENIUS_GENODEF_13
 70
     0
  0
APPID
  2
GENIUS_GENOBJ-N-SDF_13
 70
     0
  0
APPID
  2
GENIUS_GENREC_14
 70
     0
  0
APPID
  2
GENIUS_GENOBJ-N-REC_13
 70
     0
  0
APPID
  2
GENIUS_GENDIMSH_14
 70
     0
  0
APPID
  2
GENIUS_GENOBJ-N-DIM_13
 70
     0
  0
APPID
  2
GENIUS_GENDIM_13
 70
     0
  0
APPID
  2
GENIUS_GENDTOL_13
 70
     0
  0
APPID
  2
GENIUS_GENOLIS_13
 70
     0
  0
APPID
  2
GENIUS_GENOENT_13
 70
     0
  0
APPID
  2
GENIUS_GENOBJ-F-FEM_13
 70
     0
  0
APPID
  2
GENIUS_GENOREF_13
 70
     0
  0
APPID
  2
GENIUS_GEFFEM_13
 70
     0
  0
APPID
  2
GENIUS_GEFFEMP_13
 70
     0
  0
APPID
  2
AD_DRAW
 70
     0
  0
APPID
  2
DESIGNERASSEMBLIES
 70
     0
  0
APPID
  2
ACADM_DIM_EDIT
 70
     0
  0
APPID
  2
AMDT_DM_ADJ
 70
     0
  0
APPID
  2
ITEMNAME
 70
     0
  0
APPID
  2
GENIUS_GENOBJ-N-FIL_13
 70
     0
  0
APPID
  2
GENIUS_GENFIL_13
 70
     0
  0
APPID
  2
GENIUS_GENOBJ-N-CHA_13
 70
     0
  0
APPID
  2
ACAD_NAV_VCDISPLAY
 70
     0
  0
APPID
  2
ACAD_PSEXT
 70
     0
  0
APPID
  2
ACAD_DSTYLE_DIMJAG
 70
     0
  0
APPID
  2
ACAD_DSTYLE_DIMTALN
 70
     0
  0
APPID
  2
ACAD_DSTYLE_DIMRADIAL_EXTENSION
 70
     0
  0
APPID
  2
ASKLEADERCHILD
 70
     0
  0
APPID
  2
ASK_MEN_XD
 70
     0
  0
APPID
  2
ACAD_EXEMPT_FROM_CAD_STANDARDS
 70
     0
  0
APPID
  2
ACAECLAYERSTANDARD
 70
     0
  0
APPID
  2
ACAD_DSTYLE_DIMBREAK
 70
     0
  0
APPID
  2
ACAD_DSTYLE_DIMINSPECT
 70
     0
  0
APPID
  2
ACAD_DSTYLE_DIMANGULAR_EXT
 70
     0
  0
APPID
  2
ACAD_MLEADERVER
 70
     0
  0
APPID
  2
ACAD_DSTYLE_DIMARC_LENGTH_
 70
     0
  0
APPID
  2
ACAD_DSTYLE_DIM_LINETYPE
 70
     0
  0
APPID
  2
ACAD_DSTYLE_DIM_EXT1_LINETYPE
 70
     0
  0
APPID
  2
ACAD_DSTYLE_DIM_EXT2_LINETYPE
 70
     0
  0
ENDTAB
  0
TABLE
  2
DIMSTYLE
 70
    31
  0
DIMSTYLE
  2
STANDARD
 70
     0
  3

  4

  5

  6

  7

 40
1.0
 41
0.18
 42
0.0625
 43
0.38
 44
0.18
 45
0.0
 46
0.0
 47
0.0
 48
0.0
140
0.18
141
0.09
142
0.0
143
25.399999999999999
144
1.0
145
0.0
146
1.0
147
0.09
 71
     0
 72
     0
 73
     1
 74
     1
 75
     0
 76
     0
 77
     0
 78
     0
170
     0
171
     2
172
     0
173
     0
174
     0
175
     0
176
     0
177
     0
178
     0
  0
DIMSTYLE
  2
ANNOTATIVE
 70
     0
  3

  4

  5

  6

  7

 40
1.0
 41
0.18
 42
0.0625
 43
0.38
 44
0.18
 45
0.0
 46
0.0
 47
0.0
 48
0.0
140
0.18
141
0.09
142
0.0
143
25.399999999999999
144
1.0
145
0.0
146
1.0
147
0.09
 71
     0
 72
     0
 73
     1
 74
     1
 75
     0
 76
     0
 77
     0
 78
     0
170
     0
171
     2
172
     0
173
     0
174
     0
175
     0
176
     0
177
     0
178
     0
  0
DIMSTYLE
  2
BIGT
 70
     0
  3

  4

  5

  6

  7

 40
1.0
 41
2.2299999999999991
 42
0.5
 43
7.0
 44
1.0
 45
0.0
 46
0.0
 47
0.0
 48
0.01
140
2.799999999999998
141
0.0
142
0.0
143
25.399999999999999
144
1.0
145
0.0
146
1.0
147
1.0
 71
     0
 72
     0
 73
     0
 74
     0
 75
     0
 76
     0
 77
     3
 78
     9
170
     0
171
     2
172
     1
173
     0
174
     1
175
     0
176
   256
177
   256
178
    40
  0
DIMSTYLE
  2
AM_ISO
 70
     0
  3

  4
"
  5

  6

  7

 40
1.0
 41
2.5
 42
1.0
 43
10.0
 44
1.0
 45
0.0
 46
0.0
 47
0.1
 48
0.1
140
3.5
141
0.0
142
0.0
143
0.0393701
144
1.0
145
0.0
146
0.71
147
1.5
 71
     0
 72
     0
 73
     0
 74
     0
 75
     0
 76
     0
 77
     1
 78
     8
170
     0
171
     2
172
     1
173
     0
174
     0
175
     0
176
   256
177
   256
178
     2
  0
DIMSTYLE
  2
AM_ISO$3
 70
     0
  3

  4
"
  5

  6

  7

 40
1.0
 41
2.5
 42
1.0
 43
10.0
 44
1.0
 45
0.0
 46
0.0
 47
0.1
 48
0.1
140
3.5
141
0.0
142
0.0
143
0.0393701
144
1.0
145
0.0
146
0.71
147
1.5
 71
     0
 72
     0
 73
     0
 74
     1
 75
     0
 76
     0
 77
     1
 78
     8
170
     0
171
     2
172
     0
173
     0
174
     0
175
     0
176
   256
177
   256
178
     2
  0
DIMSTYLE
  2
AM_ISO$4
 70
     0
  3

  4
"
  5

  6

  7

 40
1.0
 41
2.5
 42
1.0
 43
10.0
 44
1.0
 45
0.0
 46
0.0
 47
0.1
 48
0.1
140
3.5
141
0.0
142
0.0
143
0.0393701
144
1.0
145
0.0
146
0.71
147
1.5
 71
     0
 72
     0
 73
     0
 74
     1
 75
     0
 76
     0
 77
     1
 78
     8
170
     0
171
     2
172
     0
173
     0
174
     0
175
     0
176
   256
177
   256
178
     2
  0
DIMSTYLE
  2
AM_ISO$6
 70
     0
  3

  4
"
  5

  6

  7

 40
1.0
 41
2.5
 42
1.0
 43
10.0
 44
1.0
 45
0.0
 46
0.0
 47
0.1
 48
0.1
140
3.5
141
0.0
142
0.0
143
0.0393701
144
1.0
145
0.0
146
0.71
147
1.5
 71
     0
 72
     0
 73
     0
 74
     0
 75
     0
 76
     0
 77
     0
 78
     8
170
     0
171
     2
172
     1
173
     0
174
     0
175
     0
176
   256
177
   256
178
     2
  0
DIMSTYLE
  2
AM_ISO$7
 70
     0
  3

  4
"
  5

  6

  7

 40
1.0
 41
2.5
 42
1.0
 43
10.0
 44
1.0
 45
0.0
 46
0.0
 47
0.1
 48
0.1
140
5.0
141
0.0
142
0.0
143
0.0393701
144
1.0
145
0.0
146
0.71
147
1.5
 71
     0
 72
     0
 73
     0
 74
     0
 75
     0
 76
     0
 77
     1
 78
     8
170
     0
171
     2
172
     1
173
     0
174
     0
175
     0
176
   256
177
   256
178
     2
  0
DIMSTYLE
  2
AM_ISO$SF
 70
     0
  3

  4
"
  5

  6

  7

 40
1.0
 41
2.5
 42
1.0
 43
10.0
 44
1.0
 45
0.0
 46
0.0
 47
0.1
 48
0.1
140
3.5
141
0.0
142
0.0
143
0.0393701
144
1.0
145
0.0
146
0.71
147
1.5
 71
     0
 72
     0
 73
     0
 74
     0
 75
     1
 76
     1
 77
     1
 78
     8
170
     0
171
     2
172
     1
173
     0
174
     0
175
     0
176
   256
177
   256
178
     2
  0
DIMSTYLE
  2
AM_ISO$SH
 70
     0
  3

  4
"
  5

  6

  7

 40
1.0
 41
2.5
 42
1.0
 43
10.0
 44
1.0
 45
0.0
 46
0.0
 47
0.1
 48
0.1
140
3.5
141
0.0
142
0.0
143
0.0393701
144
2.0
145
0.0
146
0.71
147
1.5
 71
     0
 72
     0
 73
     0
 74
     0
 75
     1
 76
     1
 77
     1
 78
     8
170
     0
171
     2
172
     1
173
     1
174
     0
175
     0
176
   256
177
   256
178
     2
  0
DIMSTYLE
  2
BIGT$2
 70
     0
  3

  4

  5

  6

  7

 40
1.0
 41
2.2299999999999991
 42
0.5
 43
7.0
 44
1.0
 45
0.0
 46
0.0
 47
0.0
 48
0.01
140
2.799999999999998
141
0.0
142
0.0
143
25.399999999999999
144
1.0
145
0.0
146
1.0
147
1.0
 71
     0
 72
     0
 73
     0
 74
     0
 75
     0
 76
     0
 77
     3
 78
     9
170
     0
171
     2
172
     1
173
     0
174
     0
175
     0
176
   256
177
   256
178
    40
  0
DIMSTYLE
  2
BIGT$3
 70
     0
  3

  4

  5

  6

  7

 40
1.0
 41
2.2299999999999991
 42
0.5
 43
2.5
 44
1.0
 45
0.0
 46
0.0
 47
0.0
 48
0.01
140
2.799999999999998
141
0.0
142
0.0
143
25.399999999999999
144
1.0
145
0.0
146
1.0
147
1.0
 71
     0
 72
     0
 73
     0
 74
     0
 75
     0
 76
     0
 77
     3
 78
     9
170
     0
171
     2
172
     1
173
     0
174
     0
175
     0
176
   256
177
   256
178
    40
  0
DIMSTYLE
  2
BIGT$7
 70
     0
  3

  4

  5

  6

  7

 40
0.0
 41
2.2299999999999991
 42
0.5
 43
7.0
 44
1.0
 45
0.0
 46
0.0
 47
0.0
 48
0.01
140
2.799999999999998
141
0.0
142
0.0
143
25.399999999999999
144
1.0
145
0.0
146
1.0
147
1.0
 71
     0
 72
     0
 73
     0
 74
     0
 75
     0
 76
     0
 77
     3
 78
     9
170
     0
171
     2
172
     0
173
     0
174
     0
175
     0
176
   256
177
   256
178
    40
  0
DIMSTYLE
  2
BIGT$6
 70
     0
  3

  4

  5

  6

  7

 40
1.0
 41
2.2299999999999991
 42
0.5
 43
2.5
 44
1.0
 45
0.0
 46
0.0
 47
0.0
 48
0.01
140
2.799999999999998
141
0.0
142
0.0
143
25.399999999999999
144
1.0
145
0.0
146
1.0
147
1.0
 71
     0
 72
     0
 73
     0
 74
     0
 75
     0
 76
     0
 77
     3
 78
     9
170
     0
171
     2
172
     1
173
     0
174
     0
175
     0
176
   256
177
   256
178
    40
  0
DIMSTYLE
  2
BIGT$0
 70
     0
  3

  4

  5

  6

  7

 40
1.0
 41
2.2299999999999991
 42
0.5
 43
7.0
 44
1.0
 45
0.0
 46
0.0
 47
0.0
 48
0.01
140
2.799999999999998
141
0.0
142
0.0
143
25.399999999999999
144
1.0
145
0.0
146
1.0
147
1.0
 71
     0
 72
     0
 73
     0
 74
     0
 75
     0
 76
     0
 77
     3
 78
     9
170
     0
171
     2
172
     1
173
     0
174
     1
175
     0
176
   256
177
   256
178
    40
  0
DIMSTYLE
  2
BIGT$4
 70
     0
  3

  4

  5

  6

  7

 40
1.0
 41
2.2299999999999991
 42
0.5
 43
2.5
 44
1.0
 45
0.0
 46
0.0
 47
0.0
 48
0.01
140
2.799999999999998
141
0.0
142
0.0
143
25.399999999999999
144
1.0
145
0.0
146
1.0
147
1.0
 71
     0
 72
     0
 73
     0
 74
     0
 75
     0
 76
     0
 77
     3
 78
     9
170
     0
171
     2
172
     1
173
     0
174
     0
175
     0
176
   256
177
   256
178
    40
  0
DIMSTYLE
  2
BIGT$SH
 70
     0
  3

  4

  5

  6

  7

 40
1.0
 41
2.2299999999999991
 42
0.5
 43
7.0
 44
1.0
 45
0.0
 46
0.0
 47
0.0
 48
0.0
140
2.799999999999998
141
0.0
142
0.0
143
25.399999999999999
144
1.0
145
0.0
146
1.0
147
1.0
 71
     0
 72
     0
 73
     0
 74
     0
 75
     0
 76
     0
 77
     3
 78
     9
170
     0
171
     2
172
     1
173
     0
174
     0
175
     0
176
   256
177
   256
178
    40
  0
DIMSTYLE
  2
BIGT$SF
 70
     0
  3

  4

  5

  6

  7

 40
1.0
 41
2.2299999999999991
 42
0.5
 43
7.0
 44
1.0
 45
0.0
 46
0.0
 47
0.0
 48
0.0
140
2.799999999999998
141
0.0
142
0.0
143
25.399999999999999
144
1.0
145
0.0
146
1.0
147
1.0
 71
     0
 72
     0
 73
     0
 74
     0
 75
     0
 76
     0
 77
     3
 78
     9
170
     0
171
     2
172
     1
173
     0
174
     0
175
     0
176
   256
177
   256
178
    40
  0
DIMSTYLE
  2
TECHNICAL_OSAKA
 70
     0
  3

  4
"
  5

  6

  7

 40
1.0
 41
2.5
 42
1.0
 43
10.0
 44
1.0
 45
0.0
 46
0.0
 47
0.1
 48
0.1
140
2.799999999999998
141
0.0
142
0.0
143
0.0393701
144
1.0
145
0.0
146
0.71
147
1.5
 71
     0
 72
     0
 73
     0
 74
     0
 75
     0
 76
     0
 77
     3
 78
     8
170
     0
171
     2
172
     1
173
     0
174
     0
175
     0
176
   256
177
   256
178
    40
  0
DIMSTYLE
  2
TECHNICAL_OSAKA$3
 70
     0
  3

  4
"
  5

  6

  7

 40
1.0
 41
2.5
 42
1.0
 43
10.0
 44
1.0
 45
0.0
 46
0.0
 47
0.1
 48
0.1
140
2.799999999999998
141
0.0
142
0.0
143
0.0393701
144
1.0
145
0.0
146
0.71
147
1.5
 71
     0
 72
     0
 73
     0
 74
     1
 75
     0
 76
     0
 77
     3
 78
     8
170
     0
171
     2
172
     0
173
     0
174
     0
175
     0
176
   256
177
   256
178
    40
  0
DIMSTYLE
  2
TECHNICAL_OSAKA$4
 70
     0
  3

  4
"
  5

  6

  7

 40
1.0
 41
2.5
 42
1.0
 43
10.0
 44
1.0
 45
0.0
 46
0.0
 47
0.1
 48
0.1
140
2.799999999999998
141
0.0
142
0.0
143
0.0393701
144
1.0
145
0.0
146
0.71
147
1.5
 71
     0
 72
     0
 73
     0
 74
     1
 75
     0
 76
     0
 77
     3
 78
     8
170
     0
171
     2
172
     0
173
     0
174
     0
175
     0
176
   256
177
   256
178
    40
  0
DIMSTYLE
  2
TECHNICAL_OSAKA$6
 70
     0
  3

  4
"
  5

  6

  7

 40
1.0
 41
2.5
 42
1.0
 43
10.0
 44
1.0
 45
0.0
 46
0.0
 47
0.1
 48
0.1
140
2.799999999999998
141
0.0
142
0.0
143
0.0393701
144
1.0
145
0.0
146
0.71
147
1.5
 71
     0
 72
     0
 73
     0
 74
     0
 75
     0
 76
     0
 77
     0
 78
     8
170
     0
171
     2
172
     1
173
     0
174
     0
175
     0
176
   256
177
   256
178
    40
  0
DIMSTYLE
  2
TECHNICAL_OSAKA$7
 70
     0
  3

  4
"
  5

  6

  7

 40
1.0
 41
2.5
 42
1.0
 43
10.0
 44
1.0
 45
0.0
 46
0.0
 47
0.1
 48
0.1
140
2.799999999999998
141
0.0
142
0.0
143
0.0393701
144
1.0
145
0.0
146
0.71
147
1.5
 71
     0
 72
     0
 73
     0
 74
     0
 75
     0
 76
     0
 77
     3
 78
     8
170
     0
171
     2
172
     1
173
     0
174
     0
175
     0
176
   256
177
   256
178
    40
  0
DIMSTYLE
  2
TECHNICAL_OSAKA$SF
 70
     0
  3

  4
"
  5

  6

  7

 40
1.0
 41
2.5
 42
1.0
 43
10.0
 44
1.0
 45
0.0
 46
0.0
 47
0.1
 48
0.1
140
3.5
141
0.0
142
0.0
143
0.0393701
144
1.0
145
0.0
146
0.71
147
1.5
 71
     0
 72
     0
 73
     0
 74
     0
 75
     1
 76
     1
 77
     3
 78
     8
170
     0
171
     2
172
     1
173
     0
174
     0
175
     0
176
   256
177
   256
178
    40
  0
DIMSTYLE
  2
TECHNICAL_OSAKA$SH
 70
     0
  3

  4
"
  5

  6

  7

 40
1.0
 41
2.5
 42
1.0
 43
10.0
 44
1.0
 45
0.0
 46
0.0
 47
0.1
 48
0.1
140
3.5
141
0.0
142
0.0
143
0.0393701
144
2.0
145
0.0
146
0.71
147
1.5
 71
     0
 72
     0
 73
     0
 74
     0
 75
     1
 76
     1
 77
     3
 78
     8
170
     0
171
     2
172
     1
173
     1
174
     0
175
     0
176
   256
177
   256
178
    40
  0
DIMSTYLE
  2
AM_ANSI
 70
     0
  3

  4
mm
  5

  6

  7

 40
1.0
 41
0.12
 42
0.05
 43
0.5
 44
0.1
 45
0.0
 46
0.0
 47
0.1
 48
0.1
140
0.12
141
0.0
142
0.0
143
25.399999999999999
144
1.0
145
0.0
146
0.71
147
0.06
 71
     0
 72
     0
 73
     1
 74
     1
 75
     0
 76
     0
 77
     0
 78
     7
170
     0
171
     2
172
     0
173
     0
174
     0
175
     0
176
   256
177
   256
178
     2
  0
DIMSTYLE
  2
AM_ANSI$3
 70
     0
  3

  4
mm
  5

  6

  7

 40
1.0
 41
0.12
 42
0.05
 43
0.5
 44
0.1
 45
0.0
 46
0.0
 47
0.1
 48
0.1
140
0.12
141
0.0
142
0.0
143
25.399999999999999
144
1.0
145
0.0
146
0.71
147
0.06
 71
     0
 72
     0
 73
     1
 74
     1
 75
     0
 76
     0
 77
     0
 78
     7
170
     0
171
     2
172
     0
173
     0
174
     0
175
     0
176
   256
177
   256
178
     2
  0
DIMSTYLE
  2
AM_ANSI$4
 70
     0
  3

  4
mm
  5

  6

  7

 40
1.0
 41
0.12
 42
0.05
 43
0.5
 44
0.1
 45
0.0
 46
0.0
 47
0.1
 48
0.1
140
0.12
141
0.0
142
0.0
143
25.399999999999999
144
1.0
145
0.0
146
0.71
147
0.06
 71
     0
 72
     0
 73
     1
 74
     1
 75
     0
 76
     0
 77
     0
 78
     7
170
     0
171
     2
172
     0
173
     0
174
     0
175
     0
176
   256
177
   256
178
     2
  0
DIMSTYLE
  2
AM_ANSI$7
 70
     0
  3

  4
mm
  5

  6

  7

 40
1.0
 41
0.12
 42
0.05
 43
0.5
 44
0.1
 45
0.0
 46
0.0
 47
0.1
 48
0.1
140
0.12
141
0.0
142
0.0
143
25.399999999999999
144
1.0
145
0.0
146
0.71
147
0.06
 71
     0
 72
     0
 73
     1
 74
     1
 75
     0
 76
     0
 77
     0
 78
     7
170
     0
171
     2
172
     0
173
     0
174
     0
175
     0
176
   256
177
   256
178
     2
  0
DIMSTYLE
  2
AM_ANSI$SF
 70
     0
  3

  4
mm
  5

  6

  7

 40
1.0
 41
0.12
 42
0.05
 43
0.5
 44
0.1
 45
0.0
 46
0.0
 47
0.1
 48
0.1
140
0.12
141
0.0
142
0.0
143
25.399999999999999
144
1.0
145
0.0
146
0.71
147
0.06
 71
     0
 72
     0
 73
     1
 74
     1
 75
     1
 76
     1
 77
     0
 78
     7
170
     0
171
     2
172
     0
173
     0
174
     0
175
     0
176
   256
177
   256
178
     2
  0
DIMSTYLE
  2
AM_ANSI$SH
 70
     0
  3

  4
mm
  5

  6
GENAXEH
  7

 40
1.0
 41
0.12
 42
0.05
 43
0.5
 44
0.1
 45
0.0
 46
0.0
 47
0.1
 48
0.1
140
0.12
141
0.0
142
0.0
143
25.399999999999999
144
1.0
145
0.0
146
0.71
147
0.06
 71
     0
 72
     0
 73
     1
 74
     1
 75
     1
 76
     1
 77
     0
 78
     7
170
     0
171
     2
172
     0
173
     1
174
     0
175
     0
176
   256
177
   256
178
     2
  0
ENDTAB
  0
ENDSEC
  0
SECTION
  2
BLOCKS
  0
BLOCK
  8
0
  2
$MODEL_SPACE
 70
     0
 10
0.0
 20
0.0
 30
0.0
  3
$MODEL_SPACE
  1

  0
ENDBLK
  5
482C
  8
0
  0
BLOCK
 67
     1
  8
0
  2
$PAPER_SPACE
 70
     0
 10
0.0
 20
0.0
 30
0.0
  3
$PAPER_SPACE
  1

  0
ENDBLK
  5
4828
 67
     1
  8
0
  0
BLOCK
  8
0
  2
_OPEN
 70
     0
 10
0.0
 20
0.0
 30
0.0
  3
_OPEN
  1

  0
LINE
  5
4625
  8
0
  6
BYBLOCK
 62
     0
 10
-1.0
 20
0.1666666666666666
 30
0.0
 11
0.0
 21
0.0
 31
0.0
  0
LINE
  5
4626
  8
0
  6
BYBLOCK
 62
     0
 10
-1.0
 20
-0.1666666666666666
 30
0.0
 11
0.0
 21
0.0
 31
0.0
  0
LINE
  5
4627
  8
0
  6
BYBLOCK
 62
     0
 10
0.0
 20
0.0
 30
0.0
 11
-1.0
 21
0.0
 31
0.0
  0
ENDBLK
  5
4628
  8
0
  0
BLOCK
  8
0
  2
GENAXEH
 70
     0
 10
0.0
 20
0.0
 30
0.0
  3
GENAXEH
  1

  0
LINE
  5
4660
  8
0
 10
-1.0
 20
0.0
 30
0.0
 11
1.0
 21
0.0
 31
0.0
  0
ENDBLK
  5
4661
  8
0
  0
BLOCK
  8
0
  2
_OPEN30
 70
     0
 10
0.0
 20
0.0
 30
0.0
  3
_OPEN30
  1

  0
LINE
  5
469C
  8
0
  6
BYBLOCK
 62
     0
 10
-1.0
 20
0.26794919
 30
0.0
 11
0.0
 21
0.0
 31
0.0
  0
LINE
  5
469D
  8
0
  6
BYBLOCK
 62
     0
 10
0.0
 20
0.0
 30
0.0
 11
-1.0
 21
-0.26794919
 31
0.0
  0
LINE
  5
469E
  8
0
  6
BYBLOCK
 62
     0
 10
0.0
 20
0.0
 30
0.0
 11
-1.0
 21
0.0
 31
0.0
  0
ENDBLK
  5
469F
  8
0
  0
BLOCK
  8
0
  2
*U5
 70
     1
 10
0.0
 20
0.0
 30
0.0
  3
*U5
  1

  0
TEXT
  5
471F
  8
250
 62
    40
 10
253.5206092719358
 20
233.47893585286661
 30
0.0
 40
2.799999999999998
  1
R6
 50
313.58685689879809
  0
ENDBLK
  5
4721
  8
0
  0
BLOCK
  8
0
  2
*U6
 70
     1
 10
0.0
 20
0.0
 30
0.0
  3
*U6
  1

  0
TEXT
  5
4723
  8
250
 62
    40
 10
15.984316710399661
 20
-10.53309902213166
 30
0.0
 40
2.799999999999998
  1
R6
 50
313.58685689879809
  0
ENDBLK
  5
4725
  8
0
  0
BLOCK
  8
0
  2
*U7
 70
     1
 10
0.0
 20
0.0
 30
0.0
  3
*U7
  1

  0
TEXT
  5
472B
  8
240
 62
    40
 10
30.998254124268879
 20
19.093499512817861
 30
0.0
 40
2.799999999999998
  1
\U+22054
 50
26.05009180957008
  0
ENDBLK
  5
472D
  8
0
  0
BLOCK
  8
0
  2
*U8
 70
     1
 10
0.0
 20
0.0
 30
0.0
  3
*U8
  1

  0
TEXT
  5
472F
  8
240
 62
    40
 10
13.33333333333333
 20
36.0
 30
0.0
 40
2.799999999999998
  1
32
  0
ENDBLK
  5
4731
  8
0
  0
BLOCK
  8
0
  2
*U9
 70
     1
 10
0.0
 20
0.0
 30
0.0
  3
*U9
  1

  0
TEXT
  5
4733
  8
240
 62
    40
 10
34.716377380770147
 20
14.37537682470456
 30
0.0
 40
2.799999999999998
  1
95\U+00B0
 50
42.500000000000618
  0
ENDBLK
  5
4735
  8
0
  0
BLOCK
  8
0
  2
*U10
 70
     1
 10
0.0
 20
0.0
 30
0.0
  3
*U10
  1

  0
TEXT
  5
4737
  8
240
 62
    40
 10
41.0
 20
8.3333333333333375
 30
0.0
 40
2.799999999999998
  1
22
 50
90.0
  0
ENDBLK
  5
4739
  8
0
  0
BLOCK
  8
0
  2
_ACMFILLEDHALF
 70
     0
 10
0.0
 20
0.0
 30
0.0
  3
_ACMFILLEDHALF
  1

  0
TRACE
  5
4905
  8
240
 62
     0
 10
-0.8
 20
0.0
 30
0.0
 11
-1.0
 21
0.166666666
 31
0.0
 12
0.0
 22
0.0
 32
0.0
 13
0.0
 23
0.0
 33
0.0
  0
LINE
  5
4906
  8
240
 62
     0
 10
-1.0
 20
0.0
 30
0.0
 11
-0.8
 21
0.0
 31
0.0
  0
ENDBLK
  5
4904
  8
0
  0
ENDSEC
  0
SECTION
  2
ENTITIES
  0
LINE
  5
4257
  8
240
  6
CONTINUOUS
 10
0.0
 20
-16.0
 30
0.0
 11
10.0
 21
-16.0
 31
0.0
  0
LINE
  5
426A
  8
240
  6
CONTINUOUS
 10
10.19615242270663
 20
16.0
 30
0.0
 11
0.0
 21
16.0
 31
0.0
  0
ARC
  5
426B
  8
240
  6
CONTINUOUS
 10
10.19615242270663
 20
19.0
 30
0.0
 40
2.9999999999999751
 50
270.0
 51
299.99999999999972
  0
LINE
  5
426C
  8
240
  6
CONTINUOUS
 10
15.568835978678321
 20
18.637818682173169
 30
0.0
 11
11.69615242270663
 21
16.401923788646741
 31
0.0
  0
LINE
  5
4270
  8
241
  6
CONTINUOUS
 10
10.0
 20
12.85479606522358
 30
0.0
 11
10.0
 21
-11.4038614113457
 31
0.0
  0
LINE
  5
4273
  8
240
  6
CONTINUOUS
 10
10.0
 20
-12.0
 30
0.0
 11
10.0
 21
-16.0
 31
0.0
  0
LINE
  5
4274
  8
240
  6
CONTINUOUS
 10
0.0
 20
16.0
 30
0.0
 11
0.0
 21
-16.0
 31
0.0
  0
LINE
  5
4278
  8
240
  6
CONTINUOUS
 10
16.0
 20
-5.9999999999999432
 30
0.0
 11
19.723677518690351
 21
-5.9999999999999432
 31
0.0
  0
LINE
  5
4282
  8
240
  6
CONTINUOUS
 10
29.685624499607801
 20
3.1284425725234541
 30
0.0
 11
30.214042136284789
 21
9.1682837974448326
 31
0.0
  0
ARC
  5
4283
  8
240
  6
CONTINUOUS
 10
19.723677518690351
 20
4.0
 30
0.0
 40
9.9999999999999876
 50
270.0
 51
355.00000000000023
  0
LINE
  5
42B0
  8
245
 10
-7.0
 20
0.0
 30
0.0
 11
35.0
 21
0.0
 31
0.0
  0
ARC
  5
42B1
  8
240
  6
CONTINUOUS
 10
16.0
 20
-11.99999999999994
 30
0.0
 40
6.0
 50
90.0
 51
180.0
1001
GENIUS_GENODEF_13
1002
{
1000
HIER
1070
     0
1002
}
1002
{
1000
MANEDIT
1070
     0
1002
}
1002
{
1000
NOSEL
1070
     0
1002
}
1002
{
1000
BEHIND
1070
     0
1002
}
1002
{
1000
OTHER
1070
     0
1002
}
1002
{
1000
REACTOR
1002
}
1001
GENIUS_GENOBJ-N-FIL_13
1002
{
1000
OWNER
1000
GEN
1002
}
  0
LINE
  5
42C9
  8
246
  6
PHANTOM2
 10
31.996955758473408
 20
21.130275405801981
 30
0.0
 11
31.014602866206129
 21
9.9019304674154807
 31
0.0
  0
ARC
  5
42CA
  8
246
  6
PHANTOM2
 10
30.21764710773272
 20
9.9716550616135553
 30
0.0
 40
0.8
 50
274.99999999999972
 51
355.00000000000182
1001
GENIUS_GENOBJ-N-FIL_13
1002
{
1000
OWNER
1000
GEN
1002
}
1001
GENIUS_GENODEF_13
1002
{
1000
HIER
1070
     0
1002
}
1002
{
1000
MANEDIT
1070
     0
1002
}
1002
{
1000
NOSEL
1070
     0
1002
}
1002
{
1000
BEHIND
1070
     0
1002
}
1002
{
1000
OTHER
1070
     0
1002
}
1002
{
1000
REACTOR
1002
}
  0
LINE
  5
42CB
  8
246
  6
PHANTOM2
 10
19.174699303140191
 20
20.287371701930638
 30
0.0
 11
18.192346410872961
 21
9.0590267635441926
 31
0.0
  0
ARC
  5
42CC
  8
246
  6
PHANTOM2
 10
19.9716550616136
 20
20.2176471077325
 30
0.0
 40
0.8
 50
94.999999999999758
 51
175.0000000000019
1001
GENIUS_GENODEF_13
1002
{
1000
HIER
1070
     0
1002
}
1002
{
1000
MANEDIT
1070
     0
1002
}
1002
{
1000
NOSEL
1070
     0
1002
}
1002
{
1000
BEHIND
1070
     0
1002
}
1002
{
1000
OTHER
1070
     0
1002
}
1002
{
1000
REACTOR
1002
}
1001
GENIUS_GENOBJ-N-FIL_13
1002
{
1000
OWNER
1000
GEN
1002
}
  0
LINE
  5
42CD
  8
246
  6
PHANTOM2
 10
30.287371701930851
 20
9.1746993031401392
 30
0.0
 11
19.059026763544448
 21
8.1923464108726414
 31
0.0
  0
ARC
  5
42CE
  8
246
  6
PHANTOM2
 10
18.989302169346331
 20
8.9893021693460575
 30
0.0
 40
0.8
 50
175.0000000000019
 51
274.99999999999972
1001
GENIUS_GENODEF_13
1002
{
1000
HIER
1070
     0
1002
}
1002
{
1000
MANEDIT
1070
     0
1002
}
1002
{
1000
NOSEL
1070
     0
1002
}
1002
{
1000
BEHIND
1070
     0
1002
}
1002
{
1000
OTHER
1070
     0
1002
}
1002
{
1000
REACTOR
1002
}
1001
GENIUS_GENOBJ-N-FIL_13
1002
{
1000
OWNER
1000
GEN
1002
}
  0
LINE
  5
42CF
  8
246
  6
PHANTOM2
 10
19.901930467415468
 20
21.014602866205919
 30
0.0
 11
31.130275405801861
 21
21.996955758473408
 31
0.0
  0
ARC
  5
42D0
  8
246
  6
PHANTOM2
 10
31.199999999999989
 20
21.199999999999999
 30
0.0
 40
0.8
 50
355.00000000000182
 51
94.999999999999758
1001
GENIUS_GENODEF_13
1002
{
1000
HIER
1070
     0
1002
}
1002
{
1000
MANEDIT
1070
     0
1002
}
1002
{
1000
NOSEL
1070
     0
1002
}
1002
{
1000
BEHIND
1070
     0
1002
}
1002
{
1000
OTHER
1070
     0
1002
}
1002
{
1000
REACTOR
1002
}
1001
GENIUS_GENOBJ-N-FIL_13
1002
{
1000
OWNER
1000
GEN
1002
}
  0
CIRCLE
  5
42D1
  8
246
  6
PHANTOM2
 10
25.09465108467316
 20
15.09465108467306
 30
0.0
 40
6.3499999999999979
  0
ARC
  5
42D2
  8
241
  6
CONTINUOUS
 10
27.259992100042719
 20
-1.9812643855941501
 30
0.0
 40
23.70294745405317
 50
119.5535226757534
 51
131.04263444884131
  0
ARC
  5
42D4
  8
241
  6
CONTINUOUS
 10
14.617574533458439
 20
12.273059370562731
 30
0.0
 40
4.6540747903271606
 50
128.8815746545078
 51
172.81952531556161
  0
ARC
  5
42D5
  8
241
 10
19.379651981750381
 20
9.3512053401863113
 30
0.0
 40
2.399999999999999
 50
113.830343773176
 51
337.00613635616952
  0
CIRCLE
  5
4358
  8
242
  6
CONTINUOUS
 10
25.09465108467316
 20
15.09465108467306
 30
0.0
 40
2.5
  0
CIRCLE
  5
4378
  8
241
  6
CONTINUOUS
 10
25.09465108467316
 20
15.09465108467306
 30
0.0
 40
2.1000000000000001
  0
ARC
  5
437B
  8
240
 10
53.588460890036792
 20
-59.705788216151959
 30
0.0
 40
87.081643417196105
 50
113.2778007096905
 51
115.88698680115149
  0
LINE
  5
4382
  8
243
  6
HIDDEN2
 10
3.049999999999998
 20
16.0
 30
0.0
 11
3.049999999999998
 21
-16.0
 31
0.0
  0
POLYLINE
  5
439F
  8
241
 66
     1
 10
0.0
 20
0.0
 30
0.0
 70
     8
  0
VERTEX
  5
473A
  8
241
 10
12.8606
 20
14.676600000000001
 30
0.0
 70
    32
  0
VERTEX
  5
473B
  8
241
 10
12.883900000000001
 20
14.6343
 30
0.0
 70
    32
  0
VERTEX
  5
473C
  8
241
 10
12.9114
 20
14.594200000000001
 30
0.0
 70
    32
  0
VERTEX
  5
473D
  8
241
 10
12.9428
 20
14.5563
 30
0.0
 70
    32
  0
VERTEX
  5
473E
  8
241
 10
12.978300000000001
 20
14.5207
 30
0.0
 70
    32
  0
VERTEX
  5
473F
  8
241
 10
13.0176
 20
14.4876
 30
0.0
 70
    32
  0
VERTEX
  5
4740
  8
241
 10
13.060600000000001
 20
14.456899999999999
 30
0.0
 70
    32
  0
VERTEX
  5
4741
  8
241
 10
13.1074
 20
14.428900000000001
 30
0.0
 70
    32
  0
VERTEX
  5
4742
  8
241
 10
13.1576
 20
14.4034
 30
0.0
 70
    32
  0
VERTEX
  5
4743
  8
241
 10
13.211399999999999
 20
14.380699999999999
 30
0.0
 70
    32
  0
VERTEX
  5
4744
  8
241
 10
13.2684
 20
14.3607
 30
0.0
 70
    32
  0
VERTEX
  5
4745
  8
241
 10
13.3286
 20
14.343500000000001
 30
0.0
 70
    32
  0
VERTEX
  5
4746
  8
241
 10
13.3918
 20
14.3291
 30
0.0
 70
    32
  0
VERTEX
  5
4747
  8
241
 10
13.4579
 20
14.3177
 30
0.0
 70
    32
  0
VERTEX
  5
4748
  8
241
 10
13.5267
 20
14.309100000000001
 30
0.0
 70
    32
  0
VERTEX
  5
4749
  8
241
 10
13.598000000000001
 20
14.3034
 30
0.0
 70
    32
  0
VERTEX
  5
474A
  8
241
 10
13.6717
 20
14.300700000000001
 30
0.0
 70
    32
  0
VERTEX
  5
474B
  8
241
 10
13.7476
 20
14.301
 30
0.0
 70
    32
  0
VERTEX
  5
474C
  8
241
 10
13.8255
 20
14.3042
 30
0.0
 70
    32
  0
VERTEX
  5
474D
  8
241
 10
13.9053
 20
14.3103
 30
0.0
 70
    32
  0
VERTEX
  5
474E
  8
241
 10
13.986700000000001
 20
14.3193
 30
0.0
 70
    32
  0
VERTEX
  5
474F
  8
241
 10
14.0695
 20
14.331300000000001
 30
0.0
 70
    32
  0
VERTEX
  5
4750
  8
241
 10
14.153499999999999
 20
14.3461
 30
0.0
 70
    32
  0
VERTEX
  5
4751
  8
241
 10
14.2386
 20
14.3637
 30
0.0
 70
    32
  0
VERTEX
  5
4752
  8
241
 10
14.3245
 20
14.3842
 30
0.0
 70
    32
  0
VERTEX
  5
4753
  8
241
 10
14.411099999999999
 20
14.407400000000001
 30
0.0
 70
    32
  0
VERTEX
  5
4754
  8
241
 10
14.497999999999999
 20
14.433199999999999
 30
0.0
 70
    32
  0
VERTEX
  5
4755
  8
241
 10
14.5852
 20
14.4617
 30
0.0
 70
    32
  0
VERTEX
  5
4756
  8
241
 10
14.6723
 20
14.492800000000001
 30
0.0
 70
    32
  0
VERTEX
  5
4757
  8
241
 10
14.7593
 20
14.526300000000001
 30
0.0
 70
    32
  0
VERTEX
  5
4758
  8
241
 10
14.845800000000001
 20
14.5623
 30
0.0
 70
    32
  0
VERTEX
  5
4759
  8
241
 10
14.931699999999999
 20
14.6005
 30
0.0
 70
    32
  0
VERTEX
  5
475A
  8
241
 10
15.0167
 20
14.641
 30
0.0
 70
    32
  0
VERTEX
  5
475B
  8
241
 10
15.1007
 20
14.6836
 30
0.0
 70
    32
  0
VERTEX
  5
475C
  8
241
 10
15.1835
 20
14.728300000000001
 30
0.0
 70
    32
  0
VERTEX
  5
475D
  8
241
 10
15.264799999999999
 20
14.774800000000001
 30
0.0
 70
    32
  0
VERTEX
  5
475E
  8
241
 10
15.3444
 20
14.8231
 30
0.0
 70
    32
  0
VERTEX
  5
475F
  8
241
 10
15.4223
 20
14.873200000000001
 30
0.0
 70
    32
  0
VERTEX
  5
4760
  8
241
 10
15.498100000000001
 20
14.924799999999999
 30
0.0
 70
    32
  0
VERTEX
  5
4761
  8
241
 10
15.5717
 20
14.9778
 30
0.0
 70
    32
  0
VERTEX
  5
4762
  8
241
 10
15.642899999999999
 20
15.0322
 30
0.0
 70
    32
  0
VERTEX
  5
4763
  8
241
 10
15.711600000000001
 20
15.0877
 30
0.0
 70
    32
  0
VERTEX
  5
4764
  8
241
 10
15.7775
 20
15.144299999999999
 30
0.0
 70
    32
  0
VERTEX
  5
4765
  8
241
 10
15.8406
 20
15.2018
 30
0.0
 70
    32
  0
VERTEX
  5
4766
  8
241
 10
15.900600000000001
 20
15.2601
 30
0.0
 70
    32
  0
VERTEX
  5
4767
  8
241
 10
15.9575
 20
15.319000000000001
 30
0.0
 70
    32
  0
VERTEX
  5
4768
  8
241
 10
16.010999999999999
 20
15.378399999999999
 30
0.0
 70
    32
  0
VERTEX
  5
4769
  8
241
 10
16.061199999999999
 20
15.4381
 30
0.0
 70
    32
  0
VERTEX
  5
476A
  8
241
 10
16.107700000000001
 20
15.498100000000001
 30
0.0
 70
    32
  0
VERTEX
  5
476B
  8
241
 10
16.150600000000001
 20
15.5581
 30
0.0
 70
    32
  0
VERTEX
  5
476C
  8
241
 10
16.189699999999998
 20
15.618
 30
0.0
 70
    32
  0
VERTEX
  5
476D
  8
241
 10
16.224900000000002
 20
15.6777
 30
0.0
 70
    32
  0
VERTEX
  5
476E
  8
241
 10
16.2562
 20
15.7371
 30
0.0
 70
    32
  0
VERTEX
  5
476F
  8
241
 10
16.2835
 20
15.7959
 30
0.0
 70
    32
  0
VERTEX
  5
4770
  8
241
 10
16.3066
 20
15.853999999999999
 30
0.0
 70
    32
  0
VERTEX
  5
4771
  8
241
 10
16.325600000000001
 20
15.9114
 30
0.0
 70
    32
  0
VERTEX
  5
4772
  8
241
 10
16.340399999999999
 20
15.9678
 30
0.0
 70
    32
  0
VERTEX
  5
4773
  8
241
 10
16.350999999999999
 20
16.023199999999999
 30
0.0
 70
    32
  0
VERTEX
  5
4774
  8
241
 10
16.357299999999999
 20
16.077300000000001
 30
0.0
 70
    32
  0
VERTEX
  5
4775
  8
241
 10
16.359400000000001
 20
16.130199999999999
 30
0.0
 70
    32
  0
VERTEX
  5
4776
  8
241
 10
16.357099999999999
 20
16.1815
 30
0.0
 70
    32
  0
VERTEX
  5
4777
  8
241
 10
16.3506
 20
16.231300000000001
 30
0.0
 70
    32
  0
VERTEX
  5
4778
  8
241
 10
16.3398
 20
16.279299999999999
 30
0.0
 70
    32
  0
VERTEX
  5
4779
  8
241
 10
16.3248
 20
16.325600000000001
 30
0.0
 70
    32
  0
VERTEX
  5
477A
  8
241
 10
16.305599999999998
 20
16.369900000000001
 30
0.0
 70
    32
  0
VERTEX
  5
477B
  8
241
 10
16.282299999999999
 20
16.412199999999999
 30
0.0
 70
    32
  0
VERTEX
  5
477C
  8
241
 10
16.254799999999999
 20
16.452300000000001
 30
0.0
 70
    32
  0
VERTEX
  5
477D
  8
241
 10
16.223299999999998
 20
16.490200000000002
 30
0.0
 70
    32
  0
VERTEX
  5
477E
  8
241
 10
16.187899999999999
 20
16.525700000000001
 30
0.0
 70
    32
  0
VERTEX
  5
477F
  8
241
 10
16.148599999999998
 20
16.558900000000001
 30
0.0
 70
    32
  0
VERTEX
  5
4780
  8
241
 10
16.105599999999999
 20
16.589500000000001
 30
0.0
 70
    32
  0
VERTEX
  5
4781
  8
241
 10
16.058800000000002
 20
16.617599999999999
 30
0.0
 70
    32
  0
VERTEX
  5
4782
  8
241
 10
16.008500000000002
 20
16.6431
 30
0.0
 70
    32
  0
VERTEX
  5
4783
  8
241
 10
15.954800000000001
 20
16.665800000000001
 30
0.0
 70
    32
  0
VERTEX
  5
4784
  8
241
 10
15.8978
 20
16.6858
 30
0.0
 70
    32
  0
VERTEX
  5
4785
  8
241
 10
15.8376
 20
16.702999999999999
 30
0.0
 70
    32
  0
VERTEX
  5
4786
  8
241
 10
15.7744
 20
16.717300000000002
 30
0.0
 70
    32
  0
VERTEX
  5
4787
  8
241
 10
15.708299999999999
 20
16.7288
 30
0.0
 70
    32
  0
VERTEX
  5
4788
  8
241
 10
15.6395
 20
16.737400000000001
 30
0.0
 70
    32
  0
VERTEX
  5
4789
  8
241
 10
15.568199999999999
 20
16.742999999999999
 30
0.0
 70
    32
  0
VERTEX
  5
478A
  8
241
 10
15.4945
 20
16.745699999999999
 30
0.0
 70
    32
  0
VERTEX
  5
478B
  8
241
 10
15.4186
 20
16.7455
 30
0.0
 70
    32
  0
VERTEX
  5
478C
  8
241
 10
15.3406
 20
16.7423
 30
0.0
 70
    32
  0
VERTEX
  5
478D
  8
241
 10
15.260899999999999
 20
16.7362
 30
0.0
 70
    32
  0
VERTEX
  5
478E
  8
241
 10
15.179500000000001
 20
16.7272
 30
0.0
 70
    32
  0
VERTEX
  5
478F
  8
241
 10
15.0967
 20
16.715199999999999
 30
0.0
 70
    32
  0
VERTEX
  5
4790
  8
241
 10
15.012700000000001
 20
16.700399999999998
 30
0.0
 70
    32
  0
VERTEX
  5
4791
  8
241
 10
14.9276
 20
16.6828
 30
0.0
 70
    32
  0
VERTEX
  5
4792
  8
241
 10
14.8416
 20
16.662299999999998
 30
0.0
 70
    32
  0
VERTEX
  5
4793
  8
241
 10
14.755100000000001
 20
16.639099999999999
 30
0.0
 70
    32
  0
VERTEX
  5
4794
  8
241
 10
14.668200000000001
 20
16.613299999999999
 30
0.0
 70
    32
  0
VERTEX
  5
4795
  8
241
 10
14.581
 20
16.584800000000001
 30
0.0
 70
    32
  0
VERTEX
  5
4796
  8
241
 10
14.4938
 20
16.553699999999999
 30
0.0
 70
    32
  0
VERTEX
  5
4797
  8
241
 10
14.4069
 20
16.520199999999999
 30
0.0
 70
    32
  0
VERTEX
  5
4798
  8
241
 10
14.320399999999999
 20
16.484200000000001
 30
0.0
 70
    32
  0
VERTEX
  5
4799
  8
241
 10
14.234500000000001
 20
16.446000000000002
 30
0.0
 70
    32
  0
VERTEX
  5
479A
  8
241
 10
14.1495
 20
16.4055
 30
0.0
 70
    32
  0
VERTEX
  5
479B
  8
241
 10
14.0655
 20
16.3629
 30
0.0
 70
    32
  0
VERTEX
  5
479C
  8
241
 10
13.982699999999999
 20
16.318200000000001
 30
0.0
 70
    32
  0
VERTEX
  5
479D
  8
241
 10
13.901400000000001
 20
16.271699999999999
 30
0.0
 70
    32
  0
VERTEX
  5
479E
  8
241
 10
13.8217
 20
16.223299999999998
 30
0.0
 70
    32
  0
VERTEX
  5
479F
  8
241
 10
13.7439
 20
16.173300000000001
 30
0.0
 70
    32
  0
VERTEX
  5
47A0
  8
241
 10
13.668100000000001
 20
16.121700000000001
 30
0.0
 70
    32
  0
VERTEX
  5
47A1
  8
241
 10
13.5945
 20
16.0687
 30
0.0
 70
    32
  0
VERTEX
  5
47A2
  8
241
 10
13.523300000000001
 20
16.014299999999999
 30
0.0
 70
    32
  0
VERTEX
  5
47A3
  8
241
 10
13.454599999999999
 20
15.9588
 30
0.0
 70
    32
  0
VERTEX
  5
47A4
  8
241
 10
13.3887
 20
15.902200000000001
 30
0.0
 70
    32
  0
VERTEX
  5
47A5
  8
241
 10
13.3256
 20
15.8447
 30
0.0
 70
    32
  0
VERTEX
  5
47A6
  8
241
 10
13.265599999999999
 20
15.7864
 30
0.0
 70
    32
  0
VERTEX
  5
47A7
  8
241
 10
13.2087
 20
15.727499999999999
 30
0.0
 70
    32
  0
VERTEX
  5
47A8
  8
241
 10
13.155099999999999
 20
15.668100000000001
 30
0.0
 70
    32
  0
VERTEX
  5
47A9
  8
241
 10
13.105
 20
15.6084
 30
0.0
 70
    32
  0
VERTEX
  5
47AA
  8
241
 10
13.0585
 20
15.548400000000001
 30
0.0
 70
    32
  0
VERTEX
  5
47AB
  8
241
 10
13.015599999999999
 20
15.4884
 30
0.0
 70
    32
  0
VERTEX
  5
47AC
  8
241
 10
12.9765
 20
15.4284
 30
0.0
 70
    32
  0
VERTEX
  5
47AD
  8
241
 10
12.9412
 20
15.3687
 30
0.0
 70
    32
  0
VERTEX
  5
47AE
  8
241
 10
12.91
 20
15.3094
 30
0.0
 70
    32
  0
VERTEX
  5
47AF
  8
241
 10
12.8827
 20
15.2506
 30
0.0
 70
    32
  0
VERTEX
  5
47B0
  8
241
 10
12.8596
 20
15.192399999999999
 30
0.0
 70
    32
  0
VERTEX
  5
47B1
  8
241
 10
12.8406
 20
15.1351
 30
0.0
 70
    32
  0
VERTEX
  5
47B2
  8
241
 10
12.825699999999999
 20
15.0786
 30
0.0
 70
    32
  0
VERTEX
  5
47B3
  8
241
 10
12.815200000000001
 20
15.023300000000001
 30
0.0
 70
    32
  0
VERTEX
  5
47B4
  8
241
 10
12.8089
 20
14.969099999999999
 30
0.0
 70
    32
  0
VERTEX
  5
47B5
  8
241
 10
12.806800000000001
 20
14.9163
 30
0.0
 70
    32
  0
VERTEX
  5
47B6
  8
241
 10
12.809100000000001
 20
14.865
 30
0.0
 70
    32
  0
VERTEX
  5
47B7
  8
241
 10
12.8156
 20
14.815200000000001
 30
0.0
 70
    32
  0
VERTEX
  5
47B8
  8
241
 10
12.8264
 20
14.767099999999999
 30
0.0
 70
    32
  0
VERTEX
  5
47B9
  8
241
 10
12.8414
 20
14.7209
 30
0.0
 70
    32
  0
VERTEX
  5
47BA
  8
241
 10
12.8606
 20
14.676600000000001
 30
0.0
 70
    32
  0
SEQEND
  5
47BB
  8
241
  0
TEXT
  5
441E
  8
241
  6
CONTINUOUS
 10
0.0
 20
49.0
 30
0.0
 40
3.0
  1
B32-SCLCR-22032-12
  7
YOKO
  0
LINE
  5
4438
  8
250
  6
CONTINUOUS
 10
59.756531718405981
 20
29.906671255150851
 30
0.0
 11
40.45315666962221
 21
29.906671255150851
 31
0.0
  0
LINE
  5
443A
  8
250
  6
CONTINUOUS
 10
40.45315666962221
 20
29.906671255150851
 30
0.0
 11
34.04123084960267
 21
21.46739551876469
 31
0.0
  0
LINE
  5
443B
  8
250
  6
CONTINUOUS
 10
34.04123084960267
 20
21.46739551876469
 30
0.0
 11
32.692151742630131
 21
19.691758854598788
 31
0.0
  0
LINE
  5
443C
  8
250
  6
CONTINUOUS
 10
33.807463849000463
 20
21.645005151848149
 30
0.0
 11
32.692151742630131
 21
19.691758854598788
 31
0.0
  0
LINE
  5
443D
  8
250
  6
CONTINUOUS
 10
32.692151742630131
 20
19.691758854598788
 30
0.0
 11
34.274997850204848
 21
21.28978588568123
 31
0.0
  0
TEXT
  5
454D
  8
250
  6
CONTINUOUS
 10
41.304762924750577
 20
31.462502673616161
 30
0.0
 40
2.799999999999998
  1
CC1204
  7
ACJISTS
  0
LINE
  5
454F
  8
250
  6
CONTINUOUS
 10
31.699999999999989
 20
22.0
 30
0.0
 11
43.0
 21
22.0
 31
0.0
  0
LINE
  5
4550
  8
250
  6
CONTINUOUS
 10
35.5
 20
-0.0000000000000001
 30
0.0
 11
43.0
 21
-0.0000000000000023
 31
0.0
  0
LINE
  5
4551
  8
250
  6
CONTINUOUS
 10
42.000000000000007
 20
19.769999999999989
 30
0.0
 11
42.000000000000007
 21
2.2299999999999982
 31
0.0
  0
LINE
  5
4555
  8
250
  6
CONTINUOUS
 10
0.0
 20
16.5
 30
0.0
 11
0.0000000000000012
 21
36.0
 31
0.0
  0
LINE
  5
4556
  8
250
  6
CONTINUOUS
 10
31.999999999999989
 20
21.699999999999999
 30
0.0
 11
31.999999999999989
 21
36.0
 31
0.0
  0
LINE
  5
4557
  8
250
  6
CONTINUOUS
 10
2.23
 20
35.0
 30
0.0
 11
29.769999999999989
 21
35.0
 31
0.0
  0
TEXT
  5
455B
  8
250
  6
CONTINUOUS
 10
13.33333333333333
 20
36.0
 30
0.0
 40
2.799999999999998
  1
32
  0
LINE
  5
455C
  8
250
  6
CONTINUOUS
 10
29.769999999999989
 20
35.37166666666667
 30
0.0
 11
31.999999999999989
 21
35.0
 31
0.0
  0
LINE
  5
455D
  8
250
  6
CONTINUOUS
 10
29.769999999999989
 20
34.62833333333333
 30
0.0
 11
31.999999999999989
 21
35.0
 31
0.0
  0
LINE
  5
455E
  8
250
  6
CONTINUOUS
 10
31.999999999999989
 20
35.0
 30
0.0
 11
29.769999999999989
 21
35.0
 31
0.0
  0
LINE
  5
455F
  8
250
  6
CONTINUOUS
 10
2.23
 20
34.62833333333333
 30
0.0
 11
0.0000000000000012
 21
35.0
 31
0.0
  0
LINE
  5
4560
  8
250
  6
CONTINUOUS
 10
2.23
 20
35.37166666666667
 30
0.0
 11
0.0000000000000012
 21
35.0
 31
0.0
  0
LINE
  5
4561
  8
250
  6
CONTINUOUS
 10
0.0000000000000012
 20
35.0
 30
0.0
 11
2.23
 21
35.0
 31
0.0
  0
TEXT
  5
4562
  8
250
  6
CONTINUOUS
 10
41.0
 20
8.3333333333333375
 30
0.0
 40
2.799999999999998
  1
22
 50
90.0
  0
LINE
  5
4563
  8
250
  6
CONTINUOUS
 10
42.371666666666663
 20
2.2299999999999982
 30
0.0
 11
42.000000000000007
 21
-0.000000000000002
 31
0.0
  0
LINE
  5
4564
  8
250
  6
CONTINUOUS
 10
41.628333333333337
 20
2.2299999999999982
 30
0.0
 11
42.000000000000007
 21
-0.000000000000002
 31
0.0
  0
LINE
  5
4565
  8
250
  6
CONTINUOUS
 10
42.000000000000007
 20
-0.000000000000002
 30
0.0
 11
42.000000000000007
 21
2.2299999999999982
 31
0.0
  0
LINE
  5
4566
  8
250
  6
CONTINUOUS
 10
41.628333333333337
 20
19.769999999999989
 30
0.0
 11
42.000000000000007
 21
22.0
 31
0.0
  0
LINE
  5
4567
  8
250
  6
CONTINUOUS
 10
42.37166666666667
 20
19.769999999999989
 30
0.0
 11
42.000000000000007
 21
22.0
 31
0.0
  0
LINE
  5
4568
  8
250
  6
CONTINUOUS
 10
42.000000000000007
 20
22.0
 30
0.0
 11
42.000000000000007
 21
19.769999999999989
 31
0.0
  0
VIEWPORT
  5
22
 67
     1
  8
0
 10
261.51769911504419
 20
148.5
 30
0.0
 40
523.0353982300885
 41
297.0
 68
     1
 69
     1
1001
ACAD
1000
MVIEW
1002
{
1070
    16
1010
0.0
1020
0.0
1030
0.0
1010
0.0
1020
0.0
1030
1.0
1040
0.0
1040
297.0
1040
261.51769911504419
1040
148.5
1040
50.0
1040
0.0
1040
0.0
1070
     0
1070
   100
1070
     1
1070
     1
1070
     0
1070
     0
1070
     0
1070
     0
1040
0.0
1040
0.0
1040
0.0
1040
1.0
1040
1.0
1040
10.0
1040
10.0
1070
     0
1002
{
1002
}
1002
}
1001
GENIUS_GENODEF_13
1002
{
1000
HIER
1070
     0
1002
}
1002
{
1000
MANEDIT
1070
     0
1002
}
1002
{
1000
NOSEL
1070
     0
1002
}
1002
{
1000
BEHIND
1070
     0
1002
}
1002
{
1000
OTHER
1070
     0
1002
}
1002
{
1000
REACTOR
1002
}
1001
GENIUS_GENOBJ-N-SDF_13
1002
{
1000
OWNER
1000
GEN
1002
}
1001
GENIUS_GENSCREG_15
1000
PF
1040
1.0
1000
DF
1040
1.0
1000
MIN
1011
0.0
1021
0.0
1031
0.0
1021
0.0
1031
0.0
1000
MAX
1011
523.0353982300885
1021
0.0
1031
0.0
1021
297.0
1031
0.0
1000
FLAGS
1070
     4
  0
ENDSEC
  0
EOF
