  0
SECTION
  2
HEADER
  9
$ACADVER
  1
AC1009
  9
$INSBASE
 10
0.0
 20
0.0
 30
0.0
  9
$EXTMIN
 10
-2.2299573739677481
 20
-16.000000000000011
 30
0.0
  9
$EXTMAX
 10
64.563887941837251
 20
52.0
 30
0.0
  9
$LIMMIN
 10
0.0
 20
0.0
  9
$LIMMAX
 10
297.0
 20
210.0
  9
$ORTHOMODE
 70
     0
  9
$REGENMODE
 70
     1
  9
$FILLMODE
 70
     1
  9
$QTEXTMODE
 70
     0
  9
$MIRRTEXT
 70
     1
  9
$DRAGMODE
 70
     2
  9
$LTSCALE
 40
10.0
  9
$OSMODE
 70
    39
  9
$ATTMODE
 70
     1
  9
$TEXTSIZE
 40
3.0
  9
$TRACEWID
 40
1.0
  9
$TEXTSTYLE
  7
YOKO
  9
$CLAYER
  8
240
  9
$CELTYPE
  6
BYLAYER
  9
$CECOLOR
 62
   256
  9
$DIMSCALE
 40
1.0
  9
$DIMASZ
 40
2.2299999999999991
  9
$DIMEXO
 40
0.5
  9
$DIMDLI
 40
7.0
  9
$DIMRND
 40
0.0
  9
$DIMDLE
 40
0.0
  9
$DIMEXE
 40
1.0
  9
$DIMTP
 40
0.0
  9
$DIMTM
 40
0.01
  9
$DIMTXT
 40
2.799999999999998
  9
$DIMCEN
 40
0.0
  9
$DIMTSZ
 40
0.0
  9
$DIMTOL
 70
     0
  9
$DIMLIM
 70
     0
  9
$DIMTIH
 70
     0
  9
$DIMTOH
 70
     0
  9
$DIMSE1
 70
     0
  9
$DIMSE2
 70
     0
  9
$DIMTAD
 70
     3
  9
$DIMZIN
 70
     9
  9
$DIMBLK
  1
OPEN
  9
$DIMASO
 70
     1
  9
$DIMSHO
 70
     1
  9
$DIMPOST
  1

  9
$DIMAPOST
  1

  9
$DIMALT
 70
     0
  9
$DIMALTD
 70
     2
  9
$DIMALTF
 40
25.399999999999999
  9
$DIMLFAC
 40
1.0
  9
$DIMTOFL
 70
     1
  9
$DIMTVP
 40
0.0
  9
$DIMTIX
 70
     1
  9
$DIMSOXD
 70
     0
  9
$DIMSAH
 70
     0
  9
$DIMBLK1
  1

  9
$DIMBLK2
  1

  9
$DIMSTYLE
  2
BIGT
  9
$DIMCLRD
 70
   256
  9
$DIMCLRE
 70
   256
  9
$DIMCLRT
 70
    40
  9
$DIMTFAC
 40
1.0
  9
$DIMGAP
 40
1.0
  9
$LUNITS
 70
     2
  9
$LUPREC
 70
     6
  9
$SKETCHINC
 40
1.0
  9
$FILLETRAD
 40
1.5
  9
$AUNITS
 70
     0
  9
$AUPREC
 70
     6
  9
$MENU
  1
.
  9
$ELEVATION
 40
0.0
  9
$PELEVATION
 40
0.0
  9
$THICKNESS
 40
0.0
  9
$LIMCHECK
 70
     0
  9
$BLIPMODE
 70
     0
  9
$CHAMFERA
 40
0.2
  9
$CHAMFERB
 40
0.2
  9
$SKPOLY
 70
     0
  9
$TDCREATE
 40
2460305.3612712501
  9
$TDUPDATE
 40
2460306.4459030442
  9
$TDINDWG
 40
0.0846065046
  9
$TDUSRTIMER
 40
0.0846063657
  9
$USRTIMER
 70
     1
  9
$ANGBASE
 50
0.0
  9
$ANGDIR
 70
     0
  9
$PDMODE
 70
     1
  9
$PDSIZE
 40
0.0
  9
$PLINEWID
 40
0.0
  9
$COORDS
 70
     1
  9
$SPLFRAME
 70
     0
  9
$SPLINETYPE
 70
     6
  9
$SPLINESEGS
 70
     4
  9
$ATTDIA
 70
     1
  9
$ATTREQ
 70
     1
  9
$HANDLING
 70
     1
  9
$HANDSEED
  5
4B0B
  9
$SURFTAB1
 70
     6
  9
$SURFTAB2
 70
     6
  9
$SURFTYPE
 70
     6
  9
$SURFU
 70
     6
  9
$SURFV
 70
     6
  9
$UCSNAME
  2

  9
$UCSORG
 10
0.0
 20
0.0
 30
0.0
  9
$UCSXDIR
 10
1.0
 20
0.0
 30
0.0
  9
$UCSYDIR
 10
0.0
 20
1.0
 30
0.0
  9
$PUCSNAME
  2

  9
$PUCSORG
 10
0.0
 20
0.0
 30
0.0
  9
$PUCSXDIR
 10
1.0
 20
0.0
 30
0.0
  9
$PUCSYDIR
 10
0.0
 20
1.0
 30
0.0
  9
$USERI1
 70
     1
  9
$USERI2
 70
     0
  9
$USERI3
 70
     0
  9
$USERI4
 70
     0
  9
$USERI5
 70
     0
  9
$USERR1
 40
0.0
  9
$USERR2
 40
0.0
  9
$USERR3
 40
0.0
  9
$USERR4
 40
0.0
  9
$USERR5
 40
0.0
  9
$WORLDVIEW
 70
     1
  9
$SHADEDGE
 70
     3
  9
$SHADEDIF
 70
    70
  9
$TILEMODE
 70
     1
  9
$MAXACTVP
 70
    16
  9
$PLIMCHECK
 70
     0
  9
$PEXTMIN
 10
1.0000000000000000E+020
 20
1.0000000000000000E+020
 30
1.0000000000000000E+020
  9
$PEXTMAX
 10
-1.0000000000000000E+020
 20
-1.0000000000000000E+020
 30
-1.0000000000000000E+020
  9
$PLIMMIN
 10
0.0
 20
0.0
  9
$PLIMMAX
 10
420.0
 20
297.0
  9
$UNITMODE
 70
     0
  9
$VISRETAIN
 70
     1
  9
$PLINEGEN
 70
     0
  9
$PSLTSCALE
 70
     1
  0
ENDSEC
  0
SECTION
  2
TABLES
  0
TABLE
  2
VPORT
 70
     1
  0
VPORT
  2
*ACTIVE
 70
     0
 10
0.0
 20
0.0
 11
1.0
 21
1.0
 12
21.19614224212734
 22
30.19172667925432
 13
0.0
 23
0.0
 14
7.0
 24
7.0
 15
7.0
 25
7.0
 16
0.0
 26
0.0
 36
1.0
 17
0.0
 27
0.0
 37
0.0
 40
145.92437221684531
 41
1.765606595995288
 42
50.0
 43
0.0
 44
0.0
 50
0.0
 51
0.0
 71
     0
 72
  2000
 73
     1
 74
     0
 75
     1
 76
     1
 77
     0
 78
     0
  0
ENDTAB
  0
TABLE
  2
LTYPE
 70
    21
  0
LTYPE
  2
CONTINUOUS
 70
     0
  3
Solid line
 72
    65
 73
     0
 40
0.0
  0
LTYPE
  2
CENTER2
 70
     0
  3
___ _ ___ _ ___ _ ___ _ ___ _ ___ _ ___ _ ___ _
 72
    65
 73
     4
 40
1.125
 49
0.75
 49
-0.125
 49
0.125
 49
-0.125
  0
LTYPE
  2
HIDDEN2
 70
     0
  3
_ _ _ _ _ _ _ _ _ _ _ _ _ _ _ _ _ _ _ _ _ _ _ _
 72
    65
 73
     2
 40
0.1875
 49
0.125
 49
-0.0625
  0
LTYPE
  2
PHANTOM2
 70
     0
  3
___ _ _ ___ _ _ ___ _ _ ___ _ _ ___ _ _ ___ _ _
 72
    65
 73
     6
 40
1.25
 49
0.625
 49
-0.125
 49
0.125
 49
-0.125
 49
0.125
 49
-0.125
  0
LTYPE
  2
AMCONSTR
 70
     0
  3
_______________________
 72
    65
 73
     2
 40
9999.0
 49
9999.0
 49
0.0
  0
LTYPE
  2
HIDDEN
 70
     0
  3
Hidden __ __ __ __ __ __ __ __ __ __ __ __ __ _
 72
    65
 73
     2
 40
0.375
 49
0.25
 49
-0.125
  0
LTYPE
  2
CENTER
 70
     0
  3
Center ____ _ ____ _ ____ _ ____ _ ____ _ ____
 72
    65
 73
     4
 40
2.0
 49
1.25
 49
-0.25
 49
0.25
 49
-0.25
  0
LTYPE
  2
AMZIGZAG2
 70
     0
  3
/\/-/\/-/\/-/\/-/\/-/\/
 72
    65
 73
     2
 40
0.4401
 49
0.0001
 49
-0.4400000000000001
  0
LTYPE
  2
ACANSTGB
 70
     0
  3
__ . . __ . .
 72
    65
 73
     6
 40
0.35433070866
 49
0.15748031496
 49
-0.03937007874
 49
0.03937007874
 49
-0.03937007874
 49
0.03937007874
 49
-0.03937007874
  0
LTYPE
  2
ACANSTGL
 70
     0
  3
_ _ _ _ _
 72
    65
 73
     2
 40
0.11811023622
 49
0.07874015748
 49
-0.03937007874
  0
ENDTAB
  0
TABLE
  2
LAYER
 70
     8
  0
LAYER
  2
0
 70
     0
 62
     7
  6
CONTINUOUS
  0
LAYER
  2
240
 70
     0
 62
     4
  6
CONTINUOUS
  0
LAYER
  2
DEFPOINTS
 70
     0
 62
     7
  6
CONTINUOUS
  0
LAYER
  2
245
 70
     0
 62
     2
  6
CENTER2
  0
LAYER
  2
241
 70
     0
 62
   211
  6
CONTINUOUS
  0
LAYER
  2
243
 70
     0
 62
   211
  6
HIDDEN2
  0
LAYER
  2
246
 70
     0
 62
     3
  6
PHANTOM2
  0
LAYER
  2
250
 70
     0
 62
     3
  6
CONTINUOUS
  0
ENDTAB
  0
TABLE
  2
STYLE
 70
    10
  0
STYLE
  2
STANDARD
 70
     0
 40
0.0
 41
1.0
 50
0.0
 71
     0
 42
3.0
  3
romans.shx
  4
extfont.shx
  0
STYLE
  2
YOKO
 70
     0
 40
0.0
 41
1.0
 50
0.0
 71
     0
 42
3.0
  3
romans.shx
  4
extfont.shx
  0
STYLE
  2

 70
     1
 40
0.0
 41
1.0
 50
0.0
 71
     0
 42
3.0
  3
genltshp.shx
  4

  0
STYLE
  2
ACANSGDT
 70
     0
 40
0.0
 41
1.0
 50
0.0
 71
     0
 42
3.0
  3
amgdt.shx
  4

  0
ENDTAB
  0
TABLE
  2
VIEW
 70
     0
  0
ENDTAB
  0
TABLE
  2
UCS
 70
     0
  0
ENDTAB
  0
TABLE
  2
APPID
 70
    46
  0
APPID
  2
ACAD
 70
     0
  0
APPID
  2
ACADANNOTATIVE
 70
     0
  0
APPID
  2
GLOBAL
 70
     0
  0
APPID
  2
DETAIL
 70
     0
  0
APPID
  2
GRPNAME
 70
     0
  0
APPID
  2
GPARA
 70
     0
  0
APPID
  2
MCAD_NO_VIS
 70
     0
  0
APPID
  2
ACAD_TEMP_GRAPHIC
 70
     0
  0
APPID
  2
ACATTRIBSERVICES
 70
     0
  0
APPID
  2
GENIUS_GENSCREG_15
 70
     0
  0
APPID
  2
GENIUS_GENODEF_13
 70
     0
  0
APPID
  2
GENIUS_GENOBJ-N-SDF_13
 70
     0
  0
APPID
  2
GENIUS_GENREC_14
 70
     0
  0
APPID
  2
GENIUS_GENOBJ-N-REC_13
 70
     0
  0
APPID
  2
GENIUS_GENDIMSH_14
 70
     0
  0
APPID
  2
GENIUS_GENOBJ-N-DIM_13
 70
     0
  0
APPID
  2
GENIUS_GENDIM_13
 70
     0
  0
APPID
  2
GENIUS_GENDTOL_13
 70
     0
  0
APPID
  2
GENIUS_GENOLIS_13
 70
     0
  0
APPID
  2
GENIUS_GENOENT_13
 70
     0
  0
APPID
  2
GENIUS_GENOBJ-F-FEM_13
 70
     0
  0
APPID
  2
GENIUS_GENOREF_13
 70
     0
  0
APPID
  2
GENIUS_GEFFEM_13
 70
     0
  0
APPID
  2
GENIUS_GEFFEMP_13
 70
     0
  0
APPID
  2
AD_DRAW
 70
     0
  0
APPID
  2
DESIGNERASSEMBLIES
 70
     0
  0
APPID
  2
ACADM_DIM_EDIT
 70
     0
  0
APPID
  2
AMDT_DM_ADJ
 70
     0
  0
APPID
  2
ITEMNAME
 70
     0
  0
APPID
  2
GENIUS_GENOBJ-N-FIL_13
 70
     0
  0
APPID
  2
GENIUS_GENFIL_13
 70
     0
  0
APPID
  2
GENIUS_GENOBJ-N-CHA_13
 70
     0
  0
APPID
  2
ACAD_NAV_VCDISPLAY
 70
     0
  0
APPID
  2
ACAD_DSTYLE_DIMINSPECT
 70
     0
  0
APPID
  2
ACAD_PSEXT
 70
     0
  0
APPID
  2
ACAD_EXEMPT_FROM_CAD_STANDARDS
 70
     0
  0
APPID
  2
ACAD_DSTYLE_DIMJAG
 70
     0
  0
APPID
  2
ACAD_DSTYLE_DIMBREAK
 70
     0
  0
APPID
  2
ACAD_DSTYLE_DIMRADIAL_EXTENSION
 70
     0
  0
APPID
  2
ACAD_DSTYLE_DIMANGULAR_EXT
 70
     0
  0
APPID
  2
ACAECLAYERSTANDARD
 70
     0
  0
APPID
  2
ACAD_MLEADERVER
 70
     0
  0
APPID
  2
ACAD_DSTYLE_DIMARC_LENGTH_
 70
     0
  0
APPID
  2
ACAD_DSTYLE_DIM_LINETYPE
 70
     0
  0
APPID
  2
ACAD_DSTYLE_DIM_EXT1_LINETYPE
 70
     0
  0
APPID
  2
ACAD_DSTYLE_DIM_EXT2_LINETYPE
 70
     0
  0
ENDTAB
  0
TABLE
  2
DIMSTYLE
 70
    31
  0
DIMSTYLE
  2
STANDARD
 70
     0
  3

  4

  5

  6

  7

 40
1.0
 41
0.18
 42
0.0625
 43
0.38
 44
0.18
 45
0.0
 46
0.0
 47
0.0
 48
0.0
140
0.18
141
0.09
142
0.0
143
25.399999999999999
144
1.0
145
0.0
146
1.0
147
0.09
 71
     0
 72
     0
 73
     1
 74
     1
 75
     0
 76
     0
 77
     0
 78
     0
170
     0
171
     2
172
     0
173
     0
174
     0
175
     0
176
     0
177
     0
178
     0
  0
DIMSTYLE
  2
BIGT
 70
     0
  3

  4

  5

  6

  7

 40
1.0
 41
2.2299999999999991
 42
0.5
 43
7.0
 44
1.0
 45
0.0
 46
0.0
 47
0.0
 48
0.01
140
2.799999999999998
141
0.0
142
0.0
143
25.399999999999999
144
1.0
145
0.0
146
1.0
147
1.0
 71
     0
 72
     0
 73
     0
 74
     0
 75
     0
 76
     0
 77
     3
 78
     9
170
     0
171
     2
172
     1
173
     0
174
     1
175
     0
176
   256
177
   256
178
    40
  0
DIMSTYLE
  2
AM_ANSI
 70
     0
  3

  4
mm
  5

  6

  7

 40
1.0
 41
0.12
 42
0.05
 43
0.5
 44
0.1
 45
0.0
 46
0.0
 47
0.1
 48
0.1
140
0.12
141
0.0
142
0.0
143
25.399999999999999
144
1.0
145
0.0
146
0.71
147
0.06
 71
     0
 72
     0
 73
     1
 74
     1
 75
     0
 76
     0
 77
     0
 78
     7
170
     0
171
     2
172
     0
173
     0
174
     0
175
     0
176
   256
177
   256
178
     2
  0
DIMSTYLE
  2
AM_ANSI$3
 70
     0
  3

  4
mm
  5

  6

  7

 40
1.0
 41
0.12
 42
0.05
 43
0.5
 44
0.1
 45
0.0
 46
0.0
 47
0.1
 48
0.1
140
0.12
141
0.0
142
0.0
143
25.399999999999999
144
1.0
145
0.0
146
0.71
147
0.06
 71
     0
 72
     0
 73
     1
 74
     1
 75
     0
 76
     0
 77
     0
 78
     7
170
     0
171
     2
172
     0
173
     0
174
     0
175
     0
176
   256
177
   256
178
     2
  0
DIMSTYLE
  2
AM_ANSI$4
 70
     0
  3

  4
mm
  5

  6

  7

 40
1.0
 41
0.12
 42
0.05
 43
0.5
 44
0.1
 45
0.0
 46
0.0
 47
0.1
 48
0.1
140
0.12
141
0.0
142
0.0
143
25.399999999999999
144
1.0
145
0.0
146
0.71
147
0.06
 71
     0
 72
     0
 73
     1
 74
     1
 75
     0
 76
     0
 77
     0
 78
     7
170
     0
171
     2
172
     0
173
     0
174
     0
175
     0
176
   256
177
   256
178
     2
  0
DIMSTYLE
  2
AM_ANSI$7
 70
     0
  3

  4
mm
  5

  6

  7

 40
1.0
 41
0.12
 42
0.05
 43
0.5
 44
0.1
 45
0.0
 46
0.0
 47
0.1
 48
0.1
140
0.12
141
0.0
142
0.0
143
25.399999999999999
144
1.0
145
0.0
146
0.71
147
0.06
 71
     0
 72
     0
 73
     1
 74
     1
 75
     0
 76
     0
 77
     0
 78
     7
170
     0
171
     2
172
     0
173
     0
174
     0
175
     0
176
   256
177
   256
178
     2
  0
DIMSTYLE
  2
AM_ANSI$SF
 70
     0
  3

  4
mm
  5

  6

  7

 40
1.0
 41
0.12
 42
0.05
 43
0.5
 44
0.1
 45
0.0
 46
0.0
 47
0.1
 48
0.1
140
0.12
141
0.0
142
0.0
143
25.399999999999999
144
1.0
145
0.0
146
0.71
147
0.06
 71
     0
 72
     0
 73
     1
 74
     1
 75
     1
 76
     1
 77
     0
 78
     7
170
     0
171
     2
172
     0
173
     0
174
     0
175
     0
176
   256
177
   256
178
     2
  0
DIMSTYLE
  2
AM_ANSI$SH
 70
     0
  3

  4
mm
  5

  6
GENAXEH
  7

 40
1.0
 41
0.12
 42
0.05
 43
0.5
 44
0.1
 45
0.0
 46
0.0
 47
0.1
 48
0.1
140
0.12
141
0.0
142
0.0
143
25.399999999999999
144
1.0
145
0.0
146
0.71
147
0.06
 71
     0
 72
     0
 73
     1
 74
     1
 75
     1
 76
     1
 77
     0
 78
     7
170
     0
171
     2
172
     0
173
     1
174
     0
175
     0
176
   256
177
   256
178
     2
  0
ENDTAB
  0
ENDSEC
  0
SECTION
  2
BLOCKS
  0
BLOCK
  8
0
  2
$MODEL_SPACE
 70
     0
 10
0.0
 20
0.0
 30
0.0
  3
$MODEL_SPACE
  1

  0
ENDBLK
  5
49C7
  8
0
  0
BLOCK
 67
     1
  8
0
  2
$PAPER_SPACE
 70
     0
 10
0.0
 20
0.0
 30
0.0
  3
$PAPER_SPACE
  1

  0
ENDBLK
  5
49C3
 67
     1
  8
0
  0
BLOCK
  8
0
  2
_OPEN
 70
     0
 10
0.0
 20
0.0
 30
0.0
  3
_OPEN
  1

  0
LINE
  5
485E
  8
0
  6
BYBLOCK
 62
     0
 10
-1.0
 20
0.1666666666666666
 30
0.0
 11
0.0
 21
0.0
 31
0.0
  0
LINE
  5
485F
  8
0
  6
BYBLOCK
 62
     0
 10
-1.0
 20
-0.1666666666666666
 30
0.0
 11
0.0
 21
0.0
 31
0.0
  0
LINE
  5
4860
  8
0
  6
BYBLOCK
 62
     0
 10
0.0
 20
0.0
 30
0.0
 11
-1.0
 21
0.0
 31
0.0
  0
ENDBLK
  5
4861
  8
0
  0
BLOCK
  8
0
  2
GENAXEH
 70
     0
 10
0.0
 20
0.0
 30
0.0
  3
GENAXEH
  1

  0
LINE
  5
4899
  8
0
 10
-1.0
 20
0.0
 30
0.0
 11
1.0
 21
0.0
 31
0.0
  0
ENDBLK
  5
489A
  8
0
  0
BLOCK
  8
0
  2
_ACMFILLEDHALF
 70
     0
 10
0.0
 20
0.0
 30
0.0
  3
_ACMFILLEDHALF
  1

  0
TRACE
  5
4A8F
  8
240
 62
     0
 10
-0.8
 20
0.0
 30
0.0
 11
-1.0
 21
0.166666666
 31
0.0
 12
0.0
 22
0.0
 32
0.0
 13
0.0
 23
0.0
 33
0.0
  0
LINE
  5
4A90
  8
240
 62
     0
 10
-1.0
 20
0.0
 30
0.0
 11
-0.8
 21
0.0
 31
0.0
  0
ENDBLK
  5
4A8E
  8
0
  0
ENDSEC
  0
SECTION
  2
ENTITIES
  0
LINE
  5
42C1
  8
245
  6
CENTER2
 10
40.281370038693098
 20
-0.0000000000000049
 30
0.0
 11
-2.2299573739677481
 21
0.0000000000000011
 31
0.0
  0
LINE
  5
42CE
  8
250
  6
CONTINUOUS
 10
64.563887941837251
 20
30.966603909749349
 30
0.0
 11
46.442949111289138
 21
30.966603909749349
 31
0.0
1001
ITEMNAME
1000
LNSP2
  0
LINE
  5
42D7
  8
241
  6
CONTINUOUS
 10
18.910208716988478
 20
8.2825445570051937
 30
0.0
 11
13.18476500910478
 21
1.62795668086537
 31
0.0
  0
LINE
  5
42DA
  8
240
  6
CONTINUOUS
 10
9.4999987632035943
 20
15.999999362975361
 30
0.0
 11
0.0000000000000018
 21
15.999999362975361
 31
0.0
  0
LINE
  5
42DB
  8
240
  6
CONTINUOUS
 10
-0.000000000000002
 20
-15.999999362975389
 30
0.0
 11
9.9999979138374009
 21
-15.999999362975389
 31
0.0
  0
LINE
  5
42DC
  8
240
  6
CONTINUOUS
 10
10.19615121185768
 20
15.899999532848611
 30
0.0
 11
9.8732039332388997
 21
15.899999532848611
 31
0.0
  0
LINE
  5
42DF
  8
240
  6
CONTINUOUS
 10
9.8732039332388997
 20
15.899999532848611
 30
0.0
 11
9.4999987632035943
 21
15.999999362975361
 31
0.0
  0
ARC
  5
42E0
  8
240
  6
CONTINUOUS
 10
10.19615120081138
 20
18.899999415129411
 30
0.0
 40
3.0
 50
270.0
 51
300.0
  0
LINE
  5
42E1
  8
240
  6
CONTINUOUS
 10
15.855260193347901
 20
18.703185953199888
 30
0.0
 11
11.696150526404301
 21
16.301923431456121
 31
0.0
  0
ARC
  5
42E2
  8
240
  6
CONTINUOUS
 10
20.85526044608039
 20
10.0429320082768
 30
0.0
 40
10.000000000000011
 50
96.000000000000085
 51
120.0000000000001
  0
LINE
  5
42E3
  8
240
  6
CONTINUOUS
 10
31.57206717878578
 20
21.214455773588281
 30
0.0
 11
19.809976220130888
 21
19.98815103434027
 31
0.0
  0
ARC
  5
42E6
  8
241
  6
CONTINUOUS
 10
37.220214284978823
 20
21.197497425506249
 30
0.0
 40
0.7797844931267072
 50
359.00008141287321
 51
0.0000778463729132
  0
CIRCLE
  5
42FA
  8
241
  6
CONTINUOUS
 10
24.571664300333168
 20
5.0080606920163957
 30
0.0
 40
2.9677041687472872
  0
LINE
  5
42FC
  8
241
  6
CONTINUOUS
 10
25.369295850396071
 20
7.0891003124415981
 30
0.0
 11
23.095313459634671
 21
6.8111666478216888
 31
0.0
  0
LINE
  5
42FD
  8
241
  6
CONTINUOUS
 10
23.095313459634671
 20
6.8111666478216888
 30
0.0
 11
22.237690165638899
 21
4.7170086763799164
 31
0.0
  0
LINE
  5
42FE
  8
241
  6
CONTINUOUS
 10
22.237690165638899
 20
4.7170086763799164
 30
0.0
 11
23.654051125049481
 21
2.9007862322031981
 31
0.0
  0
LINE
  5
42FF
  8
241
  6
CONTINUOUS
 10
23.654051125049481
 20
2.9007862322031981
 30
0.0
 11
25.928034447133491
 21
3.1787208281456949
 31
0.0
  0
LINE
  5
4300
  8
241
  6
CONTINUOUS
 10
25.928034447133491
 20
3.1787208281456949
 30
0.0
 11
26.785656809806799
 21
5.27287786826491
 31
0.0
  0
LINE
  5
4301
  8
241
  6
CONTINUOUS
 10
26.785656809806799
 20
5.27287786826491
 30
0.0
 11
25.369295850396071
 21
7.0891003124415981
 31
0.0
  0
LINE
  5
4326
  8
241
  6
CONTINUOUS
 10
21.08465837538802
 20
-7.0585773222227264
 30
0.0
 11
13.35111762707067
 21
-0.4939008460360458
 31
0.0
  0
LINE
  5
4329
  8
241
  6
CONTINUOUS
 10
30.842839740216679
 20
1.9986066035926009
 30
0.0
 11
23.19243934655568
 21
-6.8933281922097951
 31
0.0
  0
LINE
  5
4339
  8
241
  6
CONTINUOUS
 10
30.842839740216679
 20
1.9986066035926009
 30
0.0
 11
33.438939223600592
 21
10.61303493529824
 31
0.0
  0
LINE
  5
433E
  8
241
  6
CONTINUOUS
 10
34.328787512782071
 20
13.88763116868861
 30
0.0
 11
33.438939223600592
 21
10.61303493529824
 31
0.0
  0
LINE
  5
4345
  8
241
  6
CONTINUOUS
 10
29.140208327872308
 20
14.262046624921039
 30
0.0
 11
20.937353372573831
 21
10.406956542283311
 31
0.0
  0
LINE
  5
4349
  8
241
  6
CONTINUOUS
 10
32.272909525735749
 20
15.652069687868851
 30
0.0
 11
29.140208327872308
 21
14.262046624921039
 31
0.0
  0
LINE
  5
434A
  8
241
  6
CONTINUOUS
 10
18.930761143565061
 20
8.3051505498588067
 30
0.0
 11
20.937353372573831
 21
10.406956542283311
 31
0.0
  0
LINE
  5
4354
  8
240
  6
CONTINUOUS
 10
0.000000000000002
 20
15.999999362975361
 30
0.0
 11
-0.000000000000002
 21
-15.999999362975389
 31
0.0
  0
LINE
  5
4358
  8
241
  6
CONTINUOUS
 10
6.9999992847441748
 20
-4.9959984607994992
 30
0.0
 11
9.9999979138374062
 21
-4.9959984607994992
 31
0.0
  0
LINE
  5
4359
  8
241
  6
CONTINUOUS
 10
9.9999979138374044
 20
4.9959975294769068
 30
0.0
 11
6.9999992847441774
 21
4.9959975294769068
 31
0.0
  0
LINE
  5
435A
  8
241
  6
CONTINUOUS
 10
6.9999992847441774
 20
4.9959975294769068
 30
0.0
 11
6.9999992847441748
 21
-4.9959984607994992
 31
0.0
  0
LINE
  5
435D
  8
241
  6
CONTINUOUS
 10
9.9999979138374044
 20
13.88593395663807
 30
0.0
 11
9.9999979138374062
 21
-11.6000005938113
 31
0.0
  0
LINE
  5
4362
  8
240
  6
CONTINUOUS
 10
9.9999979138374009
 20
-11.6000005938113
 30
0.0
 11
9.9999979138374009
 21
-15.999999362975389
 31
0.0
  0
LINE
  5
4368
  8
240
  6
CONTINUOUS
 10
13.999997913837401
 20
-7.6000005938113029
 30
0.0
 11
23.774800822138669
 21
-7.6000005938113011
 31
0.0
  0
LINE
  5
437B
  8
241
  6
CONTINUOUS
 10
15.855260193347901
 20
18.491337075829531
 30
0.0
 11
10.685007053733329
 21
15.145215457314871
 31
0.0
  0
LINE
  5
437D
  8
241
  6
CONTINUOUS
 10
31.57206717878578
 20
21.214455773588281
 30
0.0
 11
19.809976220130888
 21
19.87311732955278
 31
0.0
  0
ARC
  5
437E
  8
240
  6
CONTINUOUS
 10
34.196286626148691
 20
25.57190488495193
 30
0.0
 40
5.0866384249366368
 50
238.94207050054291
 51
264.13557737023132
  0
LINE
  5
437F
  8
240
  6
CONTINUOUS
 10
33.792977686971398
 20
20.301877870224448
 30
0.0
 11
33.676560036838012
 21
20.511887618340548
 31
0.0
  0
LINE
  5
4382
  8
240
  6
CONTINUOUS
 10
37.444132321979829
 20
-0.887604895979199
 30
0.0
 11
37.5711875094566
 21
6.391383241862111
 31
0.0
  0
ARC
  5
4383
  8
240
  6
CONTINUOUS
 10
27.999998778104668
 20
2.3999994151293951
 30
0.0
 40
10.00000000000002
 50
300.01608185608973
 51
340.80644414378338
  0
LINE
  5
4384
  8
241
  6
CONTINUOUS
 10
24.431854486465369
 20
-5.4812603630125958
 30
0.0
 11
33.0024291761219
 21
-6.2588513828813932
 31
0.0
  0
ARC
  5
4385
  8
240
  6
CONTINUOUS
 10
27.999998778104668
 20
2.3999994151293951
 30
0.0
 40
10.0
 50
270.0
 51
300.01608185608973
  0
LINE
  5
4389
  8
241
  6
CONTINUOUS
 10
23.774800822138669
 20
-7.6000005938113011
 30
0.0
 11
23.803535848855891
 21
-7.6000005938113011
 31
0.0
  0
LINE
  5
439B
  8
243
  6
HIDDEN2
 10
27.197523467242672
 20
20.753701626005181
 30
0.0
 11
15.52727648355838
 21
16.506079396268671
 31
0.0
  0
LINE
  5
439C
  8
243
  6
HIDDEN2
 10
16.225249655714581
 20
14.63176527211405
 30
0.0
 11
32.825019298053661
 21
20.673587175682641
 31
0.0
  0
TEXT
  5
442A
  8
250
  6
CONTINUOUS
 10
47.396155635238927
 20
31.965695814177849
 30
0.0
 40
3.0
  1
TN1604
  7
YOKO
1001
ITEMNAME
1000
LNSP3
  0
LINE
  5
44AF
  8
240
  6
CONTINUOUS
 10
23.803535848855891
 20
-7.6000005938113011
 30
0.0
 11
27.999998778104668
 21
-7.6000005848706031
 31
0.0
  0
ARC
  5
44DC
  8
240
  6
CONTINUOUS
 10
13.999997913837401
 20
-11.6000005938113
 30
0.0
 40
4.0
 50
90.0
 51
180.0
1001
GENIUS_GENODEF_13
1002
{
1000
HIER
1070
     0
1002
}
1002
{
1000
MANEDIT
1070
     0
1002
}
1002
{
1000
NOSEL
1070
     0
1002
}
1002
{
1000
BEHIND
1070
     0
1002
}
1002
{
1000
OTHER
1070
     0
1002
}
1002
{
1000
REACTOR
1002
}
1001
GENIUS_GENOBJ-N-FIL_13
1002
{
1000
OWNER
1000
GEN
1002
}
  0
LINE
  5
44DD
  8
240
  6
CONTINUOUS
 10
37.112888998651599
 20
6.6816182336661134
 30
0.0
 11
37.5711875094566
 21
6.391383241862111
 31
0.0
  0
CIRCLE
  5
45A7
  8
246
  6
PHANTOM2
 10
33.115748065963288
 20
14.40266330543224
 30
0.0
 40
4.7649999999999979
  0
LINE
  5
45CC
  8
246
  6
PHANTOM2
 10
36.812152303802918
 20
21.899695765711499
 30
0.0
 11
24.799108147176039
 21
15.24075665419142
 31
0.0
  0
ARC
  5
45CD
  8
246
  6
PHANTOM2
 10
25.186955843373109
 20
14.541060888479899
 30
0.0
 40
0.8000000000000026
 50
119.0
 51
238.99999999999969
  0
LINE
  5
45CE
  8
246
  6
PHANTOM2
 10
24.774925383445051
 20
13.855327047918211
 30
0.0
 11
36.548257894588687
 21
6.7811951872551379
 31
0.0
  0
ARC
  5
45CF
  8
246
  6
PHANTOM2
 10
36.960288354516742
 20
7.466929027816831
 30
0.0
 40
0.8000000000000056
 50
238.99999999999989
 51
359.00000000000011
  0
LINE
  5
45D0
  8
246
  6
PHANTOM2
 10
37.760166510641852
 20
7.4529671026670057
 30
0.0
 11
37.999878156125114
 21
21.186038074850149
 31
0.0
  0
ARC
  5
45D1
  8
246
  6
PHANTOM2
 10
37.199999999999989
 20
21.199999999999989
 30
0.0
 40
0.8000000000000046
 50
359.00000000000011
 51
119.0000000000001
  0
ARC
  5
45DF
  8
241
  6
CONTINUOUS
 10
32.881280688137522
 20
14.2809808764646
 30
0.0
 40
1.5
 50
344.79738996069852
 51
113.9275266050709
1001
GENIUS_GENODEF_13
1002
{
1000
HIER
1070
     0
1002
}
1002
{
1000
MANEDIT
1070
     0
1002
}
1002
{
1000
NOSEL
1070
     0
1002
}
1002
{
1000
BEHIND
1070
     0
1002
}
1002
{
1000
OTHER
1070
     0
1002
}
1002
{
1000
REACTOR
1002
}
1001
GENIUS_GENOBJ-N-FIL_13
1002
{
1000
OWNER
1000
GEN
1002
}
  0
ARC
  5
45E2
  8
241
  6
CONTINUOUS
 10
22.055372502490091
 20
-5.9150240512972001
 30
0.0
 40
1.5
 50
229.67347763112861
 51
319.29211280022707
1001
GENIUS_GENODEF_13
1002
{
1000
HIER
1070
     0
1002
}
1002
{
1000
MANEDIT
1070
     0
1002
}
1002
{
1000
NOSEL
1070
     0
1002
}
1002
{
1000
BEHIND
1070
     0
1002
}
1002
{
1000
OTHER
1070
     0
1002
}
1002
{
1000
REACTOR
1002
}
1001
GENIUS_GENOBJ-N-FIL_13
1002
{
1000
OWNER
1000
GEN
1002
}
  0
ARC
  5
45E3
  8
241
  6
CONTINUOUS
 10
14.32183175417274
 20
0.6496524248894791
 30
0.0
 40
1.5
 50
139.29210700229001
 51
229.67347763112861
1001
GENIUS_GENODEF_13
1002
{
1000
HIER
1070
     0
1002
}
1002
{
1000
MANEDIT
1070
     0
1002
}
1002
{
1000
NOSEL
1070
     0
1002
}
1002
{
1000
BEHIND
1070
     0
1002
}
1002
{
1000
OTHER
1070
     0
1002
}
1002
{
1000
REACTOR
1002
}
1001
GENIUS_GENOBJ-N-FIL_13
1002
{
1000
OWNER
1000
GEN
1002
}
  0
CIRCLE
  5
45E4
  8
241
  6
CONTINUOUS
 10
24.571664300333168
 20
5.0080606920163957
 30
0.0
 40
3.8131688492020759
  0
ARC
  5
45E5
  8
241
  6
CONTINUOUS
 10
20.66553306952126
 20
11.074299925421579
 30
0.0
 40
8.8403147700622533
 50
95.553721054777839
 51
122.9651722015241
  0
ARC
  5
45E6
  8
241
  6
CONTINUOUS
 10
11.499997913837401
 20
13.88593395663807
 30
0.0
 40
1.5
 50
122.9104270333855
 51
180.0
1001
GENIUS_GENODEF_13
1002
{
1000
HIER
1070
     0
1002
}
1002
{
1000
MANEDIT
1070
     0
1002
}
1002
{
1000
NOSEL
1070
     0
1002
}
1002
{
1000
BEHIND
1070
     0
1002
}
1002
{
1000
OTHER
1070
     0
1002
}
1002
{
1000
REACTOR
1002
}
1001
GENIUS_GENOBJ-N-FIL_13
1002
{
1000
OWNER
1000
GEN
1002
}
  0
LINE
  5
45E7
  8
241
  6
CONTINUOUS
 10
19.934057258069441
 20
9.3560535460710579
 30
0.0
 11
12.68641278147688
 21
10.8526186086237
 31
0.0
  0
ARC
  5
45EB
  8
241
  6
CONTINUOUS
 10
14.180522068550779
 20
17.005962791156371
 30
0.0
 40
6.332140806269952
 50
228.684332646505
 51
256.35199273726403
  0
ARC
  5
45ED
  8
241
  6
CONTINUOUS
 10
33.789017518062231
 20
-0.0000004656613003
 30
0.0
 40
27.2508989553092
 50
169.43602272463281
 51
190.56397727536711
  0
LINE
  5
4686
  8
250
  6
CONTINUOUS
 10
0.000000000000002
 20
16.499999362975359
 30
0.0
 11
0.0000000000000032
 21
36.0
 31
0.0
  0
LINE
  5
4687
  8
250
  6
CONTINUOUS
 10
37.999880032486971
 20
21.683889417443439
 30
0.0
 11
37.999880032486971
 21
36.0
 31
0.0
  0
LINE
  5
4688
  8
250
  6
CONTINUOUS
 10
2.2300000000000031
 20
35.0
 30
0.0
 11
35.769880032486967
 21
35.0
 31
0.0
  0
LINE
  5
468C
  8
250
  6
CONTINUOUS
 10
37.699999999999989
 20
21.999999999999989
 30
0.0
 11
50.0
 21
21.999999999999972
 31
0.0
  0
LINE
  5
468D
  8
250
  6
CONTINUOUS
 10
40.781370038693098
 20
-0.0000000000000051
 30
0.0
 11
50.0
 21
-0.0000000000000097
 31
0.0
  0
LINE
  5
468E
  8
250
  6
CONTINUOUS
 10
49.000000000000007
 20
19.769999999999971
 30
0.0
 11
49.0
 21
2.2299999999999902
 31
0.0
  0
LINE
  5
4692
  8
250
  6
CONTINUOUS
 10
35.769880032486967
 20
35.37166666666667
 30
0.0
 11
37.999880032486971
 21
35.0
 31
0.0
  0
LINE
  5
4693
  8
250
  6
CONTINUOUS
 10
35.769880032486967
 20
34.62833333333333
 30
0.0
 11
37.999880032486971
 21
35.0
 31
0.0
  0
LINE
  5
4694
  8
250
  6
CONTINUOUS
 10
37.999880032486971
 20
35.0
 30
0.0
 11
35.769880032486967
 21
35.0
 31
0.0
  0
LINE
  5
4695
  8
250
  6
CONTINUOUS
 10
40.043444186974483
 20
21.363790178072492
 30
0.0
 11
46.442949111289138
 21
30.966603909749349
 31
0.0
1001
ACAD
1000
DSTYLE
1002
{
1070
    78
1070
     8
1070
   140
1040
3.0
1002
}
  0
LINE
  5
4696
  8
250
  6
CONTINUOUS
 10
40.352724785001712
 20
21.157679472879781
 30
0.0
 11
38.806779955818229
 21
19.508106589909168
 31
0.0
  0
LINE
  5
4697
  8
250
  6
CONTINUOUS
 10
39.734163588947268
 20
21.569900883265198
 30
0.0
 11
38.806779955818229
 21
19.508106589909168
 31
0.0
  0
LINE
  5
4698
  8
250
  6
CONTINUOUS
 10
38.806779955818229
 20
19.508106589909168
 30
0.0
 11
40.043444186974483
 21
21.363790178072492
 31
0.0
  0
TEXT
  5
4699
  8
250
  6
CONTINUOUS
 10
48.0
 20
8.3333333333333286
 30
0.0
 40
2.799999999999998
  1
22
 50
90.0
  0
LINE
  5
469A
  8
250
  6
CONTINUOUS
 10
49.37166666666667
 20
2.2299999999999902
 30
0.0
 11
49.0
 21
-0.0000000000000094
 31
0.0
  0
LINE
  5
469B
  8
250
  6
CONTINUOUS
 10
48.62833333333333
 20
2.2299999999999902
 30
0.0
 11
49.0
 21
-0.0000000000000094
 31
0.0
  0
LINE
  5
469C
  8
250
  6
CONTINUOUS
 10
49.0
 20
-0.0000000000000094
 30
0.0
 11
49.0
 21
2.2299999999999902
 31
0.0
  0
LINE
  5
469D
  8
250
  6
CONTINUOUS
 10
48.62833333333333
 20
19.769999999999971
 30
0.0
 11
49.000000000000007
 21
21.999999999999972
 31
0.0
  0
LINE
  5
469E
  8
250
  6
CONTINUOUS
 10
49.371666666666677
 20
19.769999999999971
 30
0.0
 11
49.000000000000007
 21
21.999999999999972
 31
0.0
  0
LINE
  5
469F
  8
250
  6
CONTINUOUS
 10
49.000000000000007
 20
21.999999999999972
 30
0.0
 11
49.000000000000007
 21
19.769999999999971
 31
0.0
  0
TEXT
  5
46A0
  8
250
  6
CONTINUOUS
 10
16.333273349576821
 20
36.0
 30
0.0
 40
2.799999999999998
  1
38
  0
LINE
  5
46A1
  8
250
  6
CONTINUOUS
 10
2.2300000000000031
 20
34.62833333333333
 30
0.0
 11
0.0000000000000031
 21
35.0
 31
0.0
  0
LINE
  5
46A2
  8
250
  6
CONTINUOUS
 10
2.2300000000000031
 20
35.37166666666667
 30
0.0
 11
0.0000000000000031
 21
35.0
 31
0.0
  0
LINE
  5
46A3
  8
250
  6
CONTINUOUS
 10
0.0000000000000031
 20
35.0
 30
0.0
 11
2.2300000000000031
 21
35.0
 31
0.0
  0
LINE
  5
474F
  8
243
  6
HIDDEN2
 10
3.049999999999998
 20
15.99999999999998
 30
0.0
 11
3.049999999999998
 21
-16.000000000000011
 31
0.0
  0
TEXT
  5
47B3
  8
241
  6
CONTINUOUS
 10
0.0
 20
49.0
 30
0.0
 40
3.0
  1
B32-DTFNR-22038-16
  7
YOKO
  0
VIEWPORT
  5
22
 67
     1
  8
0
 10
261.51769911504419
 20
148.5
 30
0.0
 40
523.0353982300885
 41
297.0
 68
     1
 69
     1
1001
ACAD
1000
MVIEW
1002
{
1070
    16
1010
0.0
1020
0.0
1030
0.0
1010
0.0
1020
0.0
1030
1.0
1040
0.0
1040
297.0
1040
261.51769911504419
1040
148.5
1040
50.0
1040
0.0
1040
0.0
1070
     0
1070
   100
1070
     1
1070
     1
1070
     0
1070
     0
1070
     0
1070
     0
1040
0.0
1040
0.0
1040
0.0
1040
1.0
1040
1.0
1040
10.0
1040
10.0
1070
     0
1002
{
1002
}
1002
}
1001
GENIUS_GENODEF_13
1002
{
1000
HIER
1070
     0
1002
}
1002
{
1000
MANEDIT
1070
     0
1002
}
1002
{
1000
NOSEL
1070
     0
1002
}
1002
{
1000
BEHIND
1070
     0
1002
}
1002
{
1000
OTHER
1070
     0
1002
}
1002
{
1000
REACTOR
1002
}
1001
GENIUS_GENOBJ-N-SDF_13
1002
{
1000
OWNER
1000
GEN
1002
}
1001
GENIUS_GENSCREG_15
1000
PF
1040
1.0
1000
DF
1040
1.0
1000
MIN
1011
0.0
1021
0.0
1031
0.0
1021
0.0
1031
0.0
1000
MAX
1011
523.0353982300885
1021
0.0
1031
0.0
1021
297.0
1031
0.0
1000
FLAGS
1070
     4
  0
ENDSEC
  0
EOF
