  0
SECTION
  2
HEADER
  9
$ACADVER
  1
AC1009
  9
$INSBASE
 10
0.0
 20
0.0
 30
0.0
  9
$EXTMIN
 10
-1.1817988112670139
 20
-16.0
 30
0.0
  9
$EXTMAX
 10
59.756531718405981
 20
52.00000000000005
 30
0.0
  9
$LIMMIN
 10
0.0
 20
0.0
  9
$LIMMAX
 10
297.0
 20
210.0
  9
$ORTHOMODE
 70
     1
  9
$REGENMODE
 70
     1
  9
$FILLMODE
 70
     1
  9
$QTEXTMODE
 70
     0
  9
$MIRRTEXT
 70
     1
  9
$DRAGMODE
 70
     2
  9
$LTSCALE
 40
10.0
  9
$OSMODE
 70
    37
  9
$ATTMODE
 70
     1
  9
$TEXTSIZE
 40
3.0
  9
$TRACEWID
 40
1.0
  9
$TEXTSTYLE
  7
YOKO
  9
$CLAYER
  8
240
  9
$CELTYPE
  6
BYLAYER
  9
$CECOLOR
 62
   256
  9
$DIMSCALE
 40
1.0
  9
$DIMASZ
 40
2.2299999999999991
  9
$DIMEXO
 40
0.5
  9
$DIMDLI
 40
7.0
  9
$DIMRND
 40
0.0
  9
$DIMDLE
 40
0.0
  9
$DIMEXE
 40
1.0
  9
$DIMTP
 40
0.0
  9
$DIMTM
 40
0.01
  9
$DIMTXT
 40
2.799999999999998
  9
$DIMCEN
 40
0.0
  9
$DIMTSZ
 40
0.0
  9
$DIMTOL
 70
     0
  9
$DIMLIM
 70
     0
  9
$DIMTIH
 70
     0
  9
$DIMTOH
 70
     0
  9
$DIMSE1
 70
     0
  9
$DIMSE2
 70
     0
  9
$DIMTAD
 70
     3
  9
$DIMZIN
 70
     9
  9
$DIMBLK
  1
OPEN
  9
$DIMASO
 70
     1
  9
$DIMSHO
 70
     1
  9
$DIMPOST
  1

  9
$DIMAPOST
  1

  9
$DIMALT
 70
     0
  9
$DIMALTD
 70
     2
  9
$DIMALTF
 40
25.399999999999999
  9
$DIMLFAC
 40
1.0
  9
$DIMTOFL
 70
     1
  9
$DIMTVP
 40
0.0
  9
$DIMTIX
 70
     1
  9
$DIMSOXD
 70
     0
  9
$DIMSAH
 70
     0
  9
$DIMBLK1
  1

  9
$DIMBLK2
  1

  9
$DIMSTYLE
  2
BIGT
  9
$DIMCLRD
 70
   256
  9
$DIMCLRE
 70
   256
  9
$DIMCLRT
 70
    40
  9
$DIMTFAC
 40
1.0
  9
$DIMGAP
 40
1.0
  9
$LUNITS
 70
     2
  9
$LUPREC
 70
     6
  9
$SKETCHINC
 40
1.0
  9
$FILLETRAD
 40
3.0
  9
$AUNITS
 70
     0
  9
$AUPREC
 70
     6
  9
$MENU
  1
.
  9
$ELEVATION
 40
0.0
  9
$PELEVATION
 40
0.0
  9
$THICKNESS
 40
0.0
  9
$LIMCHECK
 70
     0
  9
$BLIPMODE
 70
     0
  9
$CHAMFERA
 40
0.2
  9
$CHAMFERB
 40
0.2
  9
$SKPOLY
 70
     0
  9
$TDCREATE
 40
2458950.5880636228
  9
$TDUPDATE
 40
2458953.4621704281
  9
$TDINDWG
 40
0.0420747222
  9
$TDUSRTIMER
 40
0.0420746065
  9
$USRTIMER
 70
     1
  9
$ANGBASE
 50
0.0
  9
$ANGDIR
 70
     0
  9
$PDMODE
 70
     1
  9
$PDSIZE
 40
0.0
  9
$PLINEWID
 40
0.0
  9
$COORDS
 70
     1
  9
$SPLFRAME
 70
     0
  9
$SPLINETYPE
 70
     6
  9
$SPLINESEGS
 70
     4
  9
$ATTDIA
 70
     1
  9
$ATTREQ
 70
     1
  9
$HANDLING
 70
     1
  9
$HANDSEED
  5
4E4B
  9
$SURFTAB1
 70
     6
  9
$SURFTAB2
 70
     6
  9
$SURFTYPE
 70
     6
  9
$SURFU
 70
     6
  9
$SURFV
 70
     6
  9
$UCSNAME
  2

  9
$UCSORG
 10
0.0
 20
0.0
 30
0.0
  9
$UCSXDIR
 10
1.0
 20
0.0
 30
0.0
  9
$UCSYDIR
 10
0.0
 20
1.0
 30
0.0
  9
$PUCSNAME
  2

  9
$PUCSORG
 10
0.0
 20
0.0
 30
0.0
  9
$PUCSXDIR
 10
1.0
 20
0.0
 30
0.0
  9
$PUCSYDIR
 10
0.0
 20
1.0
 30
0.0
  9
$USERI1
 70
     1
  9
$USERI2
 70
     0
  9
$USERI3
 70
     0
  9
$USERI4
 70
     0
  9
$USERI5
 70
     0
  9
$USERR1
 40
0.0
  9
$USERR2
 40
0.0
  9
$USERR3
 40
0.0
  9
$USERR4
 40
0.0
  9
$USERR5
 40
0.0
  9
$WORLDVIEW
 70
     1
  9
$SHADEDGE
 70
     3
  9
$SHADEDIF
 70
    70
  9
$TILEMODE
 70
     1
  9
$MAXACTVP
 70
    16
  9
$PLIMCHECK
 70
     0
  9
$PEXTMIN
 10
1.0000000000000000E+020
 20
1.0000000000000000E+020
 30
1.0000000000000000E+020
  9
$PEXTMAX
 10
-1.0000000000000000E+020
 20
-1.0000000000000000E+020
 30
-1.0000000000000000E+020
  9
$PLIMMIN
 10
0.0
 20
0.0
  9
$PLIMMAX
 10
420.0
 20
297.0
  9
$UNITMODE
 70
     0
  9
$VISRETAIN
 70
     1
  9
$PLINEGEN
 70
     0
  9
$PSLTSCALE
 70
     1
  0
ENDSEC
  0
SECTION
  2
TABLES
  0
TABLE
  2
VPORT
 70
     1
  0
VPORT
  2
*ACTIVE
 70
     0
 10
0.0
 20
0.0
 11
1.0
 21
1.0
 12
42.920308283659899
 22
22.598978403365681
 13
0.0
 23
0.0
 14
7.0
 24
7.0
 15
7.0
 25
7.0
 16
0.0
 26
0.0
 36
1.0
 17
0.0
 27
0.0
 37
0.0
 40
110.3270368148869
 41
2.1149732620320849
 42
50.0
 43
0.0
 44
0.0
 50
0.0
 51
0.0
 71
     0
 72
  2000
 73
     1
 74
     0
 75
     0
 76
     1
 77
     0
 78
     0
  0
ENDTAB
  0
TABLE
  2
LTYPE
 70
    21
  0
LTYPE
  2
CONTINUOUS
 70
     0
  3
Solid line
 72
    65
 73
     0
 40
0.0
  0
LTYPE
  2
CENTER2
 70
     0
  3
___ _ ___ _ ___ _ ___ _ ___ _ ___ _ ___ _ ___ _
 72
    65
 73
     4
 40
1.125
 49
0.75
 49
-0.125
 49
0.125
 49
-0.125
  0
LTYPE
  2
HIDDEN2
 70
     0
  3
_ _ _ _ _ _ _ _ _ _ _ _ _ _ _ _ _ _ _ _ _ _ _ _
 72
    65
 73
     2
 40
0.1875
 49
0.125
 49
-0.0625
  0
LTYPE
  2
PHANTOM2
 70
     0
  3
___ _ _ ___ _ _ ___ _ _ ___ _ _ ___ _ _ ___ _ _
 72
    65
 73
     6
 40
1.25
 49
0.625
 49
-0.125
 49
0.125
 49
-0.125
 49
0.125
 49
-0.125
  0
LTYPE
  2
AMCONSTR
 70
     0
  3
_______________________
 72
    65
 73
     2
 40
9999.0
 49
9999.0
 49
0.0
  0
LTYPE
  2
HIDDEN
 70
     0
  3
Hidden __ __ __ __ __ __ __ __ __ __ __ __ __ _
 72
    65
 73
     2
 40
0.375
 49
0.25
 49
-0.125
  0
LTYPE
  2
CENTER
 70
     0
  3
Center ____ _ ____ _ ____ _ ____ _ ____ _ ____
 72
    65
 73
     4
 40
2.0
 49
1.25
 49
-0.25
 49
0.25
 49
-0.25
  0
LTYPE
  2
AMZIGZAG2
 70
     0
  3
/\/-/\/-/\/-/\/-/\/-/\/
 72
    65
 73
     2
 40
0.4401
 49
0.0001
 49
-0.4400000000000001
  0
LTYPE
  2
ACANSTGB
 70
     0
  3
__ . . __ . .
 72
    65
 73
     6
 40
0.35433070866
 49
0.15748031496
 49
-0.03937007874
 49
0.03937007874
 49
-0.03937007874
 49
0.03937007874
 49
-0.03937007874
  0
LTYPE
  2
ACANSTGL
 70
     0
  3
_ _ _ _ _
 72
    65
 73
     2
 40
0.11811023622
 49
0.07874015748
 49
-0.03937007874
  0
ENDTAB
  0
TABLE
  2
LAYER
 70
     8
  0
LAYER
  2
0
 70
     0
 62
     7
  6
CONTINUOUS
  0
LAYER
  2
240
 70
     0
 62
     4
  6
CONTINUOUS
  0
LAYER
  2
DEFPOINTS
 70
     0
 62
     7
  6
CONTINUOUS
  0
LAYER
  2
245
 70
     0
 62
     2
  6
CENTER2
  0
LAYER
  2
241
 70
     0
 62
   211
  6
CONTINUOUS
  0
LAYER
  2
243
 70
     0
 62
   211
  6
HIDDEN2
  0
LAYER
  2
246
 70
     0
 62
     3
  6
PHANTOM2
  0
LAYER
  2
250
 70
     0
 62
     3
  6
CONTINUOUS
  0
ENDTAB
  0
TABLE
  2
STYLE
 70
    10
  0
STYLE
  2
STANDARD
 70
     0
 40
0.0
 41
1.0
 50
0.0
 71
     0
 42
3.0
  3
romans.shx
  4
extfont.shx
  0
STYLE
  2
YOKO
 70
     0
 40
0.0
 41
1.0
 50
0.0
 71
     0
 42
3.0
  3
romans.shx
  4
extfont.shx
  0
STYLE
  2
ACJISTS
 70
     0
 40
1.0
 41
1.0
 50
0.0
 71
     0
 42
3.0
  3
amgdt.shx
  4
extfont.shx
  0
STYLE
  2

 70
     1
 40
0.0
 41
1.0
 50
0.0
 71
     0
 42
3.0
  3
genltshp.shx
  4

  0
STYLE
  2
ACANSGDT
 70
     0
 40
0.0
 41
1.0
 50
0.0
 71
     0
 42
3.0
  3
amgdt.shx
  4

  0
ENDTAB
  0
TABLE
  2
VIEW
 70
     0
  0
ENDTAB
  0
TABLE
  2
UCS
 70
     0
  0
ENDTAB
  0
TABLE
  2
APPID
 70
    50
  0
APPID
  2
ACAD
 70
     0
  0
APPID
  2
ACADANNOTATIVE
 70
     0
  0
APPID
  2
GLOBAL
 70
     0
  0
APPID
  2
DETAIL
 70
     0
  0
APPID
  2
GRPNAME
 70
     0
  0
APPID
  2
GPARA
 70
     0
  0
APPID
  2
MCAD_NO_VIS
 70
     0
  0
APPID
  2
ACAD_TEMP_GRAPHIC
 70
     0
  0
APPID
  2
ACATTRIBSERVICES
 70
     0
  0
APPID
  2
GENIUS_GENSCREG_15
 70
     0
  0
APPID
  2
GENIUS_GENODEF_13
 70
     0
  0
APPID
  2
GENIUS_GENOBJ-N-SDF_13
 70
     0
  0
APPID
  2
GENIUS_GENREC_14
 70
     0
  0
APPID
  2
GENIUS_GENOBJ-N-REC_13
 70
     0
  0
APPID
  2
GENIUS_GENDIMSH_14
 70
     0
  0
APPID
  2
GENIUS_GENOBJ-N-DIM_13
 70
     0
  0
APPID
  2
GENIUS_GENDIM_13
 70
     0
  0
APPID
  2
GENIUS_GENDTOL_13
 70
     0
  0
APPID
  2
GENIUS_GENOLIS_13
 70
     0
  0
APPID
  2
GENIUS_GENOENT_13
 70
     0
  0
APPID
  2
GENIUS_GENOBJ-F-FEM_13
 70
     0
  0
APPID
  2
GENIUS_GENOREF_13
 70
     0
  0
APPID
  2
GENIUS_GEFFEM_13
 70
     0
  0
APPID
  2
GENIUS_GEFFEMP_13
 70
     0
  0
APPID
  2
AD_DRAW
 70
     0
  0
APPID
  2
DESIGNERASSEMBLIES
 70
     0
  0
APPID
  2
ACADM_DIM_EDIT
 70
     0
  0
APPID
  2
AMDT_DM_ADJ
 70
     0
  0
APPID
  2
ITEMNAME
 70
     0
  0
APPID
  2
GENIUS_GENOBJ-N-FIL_13
 70
     0
  0
APPID
  2
GENIUS_GENFIL_13
 70
     0
  0
APPID
  2
GENIUS_GENOBJ-N-CHA_13
 70
     0
  0
APPID
  2
ACAD_NAV_VCDISPLAY
 70
     0
  0
APPID
  2
ACAD_DSTYLE_DIMINSPECT
 70
     0
  0
APPID
  2
ACAD_DSTYLE_DIMRADIAL_EXTENSION
 70
     0
  0
APPID
  2
GENIUS_GENOBJ-N-RSBK_13
 70
     0
  0
APPID
  2
GENIUS_GENOBJ-N-LIB_13
 70
     0
  0
APPID
  2
GENIUS_GENSCALE_13
 70
     0
  0
APPID
  2
ASKLEADERCHILD
 70
     0
  0
APPID
  2
ASK_MEN_XD
 70
     0
  0
APPID
  2
ACAD_EXEMPT_FROM_CAD_STANDARDS
 70
     0
  0
APPID
  2
ACAD_DSTYLE_DIMANGULAR_EXT
 70
     0
  0
APPID
  2
ACAECLAYERSTANDARD
 70
     0
  0
APPID
  2
ACAD_DSTYLE_DIMJAG
 70
     0
  0
APPID
  2
ACAD_DSTYLE_DIMBREAK
 70
     0
  0
APPID
  2
ACAD_MLEADERVER
 70
     0
  0
APPID
  2
ACAD_DSTYLE_DIMARC_LENGTH_
 70
     0
  0
APPID
  2
ACAD_DSTYLE_DIM_LINETYPE
 70
     0
  0
APPID
  2
ACAD_DSTYLE_DIM_EXT1_LINETYPE
 70
     0
  0
APPID
  2
ACAD_DSTYLE_DIM_EXT2_LINETYPE
 70
     0
  0
ENDTAB
  0
TABLE
  2
DIMSTYLE
 70
    31
  0
DIMSTYLE
  2
STANDARD
 70
     0
  3

  4

  5

  6

  7

 40
1.0
 41
0.18
 42
0.0625
 43
0.38
 44
0.18
 45
0.0
 46
0.0
 47
0.0
 48
0.0
140
0.18
141
0.09
142
0.0
143
25.399999999999999
144
1.0
145
0.0
146
1.0
147
0.09
 71
     0
 72
     0
 73
     1
 74
     1
 75
     0
 76
     0
 77
     0
 78
     0
170
     0
171
     2
172
     0
173
     0
174
     0
175
     0
176
     0
177
     0
178
     0
  0
DIMSTYLE
  2
BIGT
 70
     0
  3

  4

  5

  6

  7

 40
1.0
 41
2.2299999999999991
 42
0.5
 43
7.0
 44
1.0
 45
0.0
 46
0.0
 47
0.0
 48
0.01
140
2.799999999999998
141
0.0
142
0.0
143
25.399999999999999
144
1.0
145
0.0
146
1.0
147
1.0
 71
     0
 72
     0
 73
     0
 74
     0
 75
     0
 76
     0
 77
     3
 78
     9
170
     0
171
     2
172
     1
173
     0
174
     1
175
     0
176
   256
177
   256
178
    40
  0
DIMSTYLE
  2
AM_ANSI
 70
     0
  3

  4
mm
  5

  6

  7

 40
1.0
 41
0.12
 42
0.05
 43
0.5
 44
0.1
 45
0.0
 46
0.0
 47
0.1
 48
0.1
140
0.12
141
0.0
142
0.0
143
25.399999999999999
144
1.0
145
0.0
146
0.71
147
0.06
 71
     0
 72
     0
 73
     1
 74
     1
 75
     0
 76
     0
 77
     0
 78
     7
170
     0
171
     2
172
     0
173
     0
174
     0
175
     0
176
   256
177
   256
178
     2
  0
DIMSTYLE
  2
AM_ANSI$3
 70
     0
  3

  4
mm
  5

  6

  7

 40
1.0
 41
0.12
 42
0.05
 43
0.5
 44
0.1
 45
0.0
 46
0.0
 47
0.1
 48
0.1
140
0.12
141
0.0
142
0.0
143
25.399999999999999
144
1.0
145
0.0
146
0.71
147
0.06
 71
     0
 72
     0
 73
     1
 74
     1
 75
     0
 76
     0
 77
     0
 78
     7
170
     0
171
     2
172
     0
173
     0
174
     0
175
     0
176
   256
177
   256
178
     2
  0
DIMSTYLE
  2
AM_ANSI$4
 70
     0
  3

  4
mm
  5

  6

  7

 40
1.0
 41
0.12
 42
0.05
 43
0.5
 44
0.1
 45
0.0
 46
0.0
 47
0.1
 48
0.1
140
0.12
141
0.0
142
0.0
143
25.399999999999999
144
1.0
145
0.0
146
0.71
147
0.06
 71
     0
 72
     0
 73
     1
 74
     1
 75
     0
 76
     0
 77
     0
 78
     7
170
     0
171
     2
172
     0
173
     0
174
     0
175
     0
176
   256
177
   256
178
     2
  0
DIMSTYLE
  2
AM_ANSI$7
 70
     0
  3

  4
mm
  5

  6

  7

 40
1.0
 41
0.12
 42
0.05
 43
0.5
 44
0.1
 45
0.0
 46
0.0
 47
0.1
 48
0.1
140
0.12
141
0.0
142
0.0
143
25.399999999999999
144
1.0
145
0.0
146
0.71
147
0.06
 71
     0
 72
     0
 73
     1
 74
     1
 75
     0
 76
     0
 77
     0
 78
     7
170
     0
171
     2
172
     0
173
     0
174
     0
175
     0
176
   256
177
   256
178
     2
  0
DIMSTYLE
  2
AM_ANSI$SF
 70
     0
  3

  4
mm
  5

  6

  7

 40
1.0
 41
0.12
 42
0.05
 43
0.5
 44
0.1
 45
0.0
 46
0.0
 47
0.1
 48
0.1
140
0.12
141
0.0
142
0.0
143
25.399999999999999
144
1.0
145
0.0
146
0.71
147
0.06
 71
     0
 72
     0
 73
     1
 74
     1
 75
     1
 76
     1
 77
     0
 78
     7
170
     0
171
     2
172
     0
173
     0
174
     0
175
     0
176
   256
177
   256
178
     2
  0
DIMSTYLE
  2
AM_ANSI$SH
 70
     0
  3

  4
mm
  5

  6
GENAXEH
  7

 40
1.0
 41
0.12
 42
0.05
 43
0.5
 44
0.1
 45
0.0
 46
0.0
 47
0.1
 48
0.1
140
0.12
141
0.0
142
0.0
143
25.399999999999999
144
1.0
145
0.0
146
0.71
147
0.06
 71
     0
 72
     0
 73
     1
 74
     1
 75
     1
 76
     1
 77
     0
 78
     7
170
     0
171
     2
172
     0
173
     1
174
     0
175
     0
176
   256
177
   256
178
     2
  0
ENDTAB
  0
ENDSEC
  0
SECTION
  2
BLOCKS
  0
BLOCK
  8
0
  2
$MODEL_SPACE
 70
     0
 10
0.0
 20
0.0
 30
0.0
  3
$MODEL_SPACE
  1

  0
ENDBLK
  5
4D09
  8
0
  0
BLOCK
 67
     1
  8
0
  2
$PAPER_SPACE
 70
     0
 10
0.0
 20
0.0
 30
0.0
  3
$PAPER_SPACE
  1

  0
ENDBLK
  5
4D05
 67
     1
  8
0
  0
BLOCK
  8
0
  2
_OPEN
 70
     0
 10
0.0
 20
0.0
 30
0.0
  3
_OPEN
  1

  0
LINE
  5
4BA0
  8
0
  6
BYBLOCK
 62
     0
 10
-1.0
 20
0.1666666666666666
 30
0.0
 11
0.0
 21
0.0
 31
0.0
  0
LINE
  5
4BA1
  8
0
  6
BYBLOCK
 62
     0
 10
-1.0
 20
-0.1666666666666666
 30
0.0
 11
0.0
 21
0.0
 31
0.0
  0
LINE
  5
4BA2
  8
0
  6
BYBLOCK
 62
     0
 10
0.0
 20
0.0
 30
0.0
 11
-1.0
 21
0.0
 31
0.0
  0
ENDBLK
  5
4BA3
  8
0
  0
BLOCK
  8
0
  2
GENAXEH
 70
     0
 10
0.0
 20
0.0
 30
0.0
  3
GENAXEH
  1

  0
LINE
  5
4BDB
  8
0
 10
-1.0
 20
0.0
 30
0.0
 11
1.0
 21
0.0
 31
0.0
  0
ENDBLK
  5
4BDC
  8
0
  0
BLOCK
  8
0
  2
_ACMFILLEDHALF
 70
     0
 10
0.0
 20
0.0
 30
0.0
  3
_ACMFILLEDHALF
  1

  0
TRACE
  5
4DD5
  8
240
 62
     0
 10
-0.8
 20
0.0
 30
0.0
 11
-1.0
 21
0.166666666
 31
0.0
 12
0.0
 22
0.0
 32
0.0
 13
0.0
 23
0.0
 33
0.0
  0
LINE
  5
4DD6
  8
240
 62
     0
 10
-1.0
 20
0.0
 30
0.0
 11
-0.8
 21
0.0
 31
0.0
  0
ENDBLK
  5
4DD4
  8
0
  0
ENDSEC
  0
SECTION
  2
ENTITIES
  0
LINE
  5
434D
  8
245
  6
CENTER2
 10
-1.1817988112670139
 20
0.0000000000000568
 30
0.0
 11
33.694405961663392
 21
0.0000000000000568
 31
0.0
  0
LINE
  5
4356
  8
241
  6
CONTINUOUS
 10
7.0
 20
-4.9959983987187107
 30
0.0
 11
10.0
 21
-4.9959983987187107
 31
0.0
  0
LINE
  5
4357
  8
241
  6
CONTINUOUS
 10
10.0
 20
4.9959983987187684
 30
0.0
 11
7.0
 21
4.9959983987187684
 31
0.0
  0
LINE
  5
435F
  8
240
  6
CONTINUOUS
 10
13.32354291353624
 20
16.0
 30
0.0
 11
0.0
 21
16.0
 31
0.0
  0
LINE
  5
4360
  8
240
  6
CONTINUOUS
 10
0.0
 20
-16.0
 30
0.0
 11
9.999999999999968
 21
-16.0
 31
0.0
  0
LINE
  5
4361
  8
240
  6
CONTINUOUS
 10
0.0
 20
16.0
 30
0.0
 11
0.0
 21
-16.0
 31
0.0
  0
LINE
  5
4363
  8
240
  6
CONTINUOUS
 10
9.9999999999999822
 20
-11.499999999999989
 30
0.0
 11
9.999999999999968
 21
-16.0
 31
0.0
  0
LINE
  5
4368
  8
241
  6
CONTINUOUS
 10
10.0
 20
13.714190982064331
 30
0.0
 11
10.0
 21
4.9959983987187107
 31
0.0
  0
LINE
  5
4369
  8
241
  6
CONTINUOUS
 10
7.0
 20
4.9959983987187107
 30
0.0
 11
7.0
 21
-4.9959983987186529
 31
0.0
  0
LINE
  5
436A
  8
241
  6
CONTINUOUS
 10
10.0
 20
4.9959983987187107
 30
0.0
 11
10.0
 21
-11.5
 31
0.0
  0
LINE
  5
4385
  8
240
  6
CONTINUOUS
 10
31.18617186898781
 20
10.908191343345671
 30
0.0
 11
30.317534289445241
 21
-5.6664010440022921
 31
0.0
  0
ARC
  5
4392
  8
240
  6
CONTINUOUS
 10
25.99999999999989
 20
-1.499999999999942
 30
0.0
 40
6.0000000000000204
 50
281.26646093220029
 51
316.020561916205
  0
LINE
  5
43AE
  8
240
  6
CONTINUOUS
 10
16.796393409100219
 20
15.80686832379177
 30
0.0
 11
18.90823232520847
 21
15.36304966395079
 31
0.0
  0
ARC
  5
43AF
  8
240
  6
CONTINUOUS
 10
19.529226952722968
 20
18.279127303885211
 30
0.0
 40
2.9814666071460789
 50
257.97813507214892
 51
300.8555735961092
  0
LINE
  5
43B0
  8
240
  6
CONTINUOUS
 10
21.058348920744489
 20
15.71964901008363
 30
0.0
 11
22.297935214801669
 21
16.464994856827499
 31
0.0
  0
LINE
  5
43B5
  8
240
  6
CONTINUOUS
 10
13.99999999999997
 20
-7.5000000000000009
 30
0.0
 11
23.004766510452772
 21
-7.4999999999999707
 31
0.0
  0
ARC
  5
4540
  8
241
  6
CONTINUOUS
 10
68.60304870729405
 20
0.0
 30
0.0
 40
61.805304060681088
 50
175.3634678589479
 51
184.63653214105199
  0
ARC
  5
4541
  8
240
  6
CONTINUOUS
 10
13.99999999999998
 20
-11.5
 30
0.0
 40
4.0
 50
90.000000000000185
 51
179.9999999999998
1001
GENIUS_GENOBJ-N-FIL_13
1002
{
1000
OWNER
1000
GEN
1002
}
1001
GENIUS_GENODEF_13
1002
{
1000
HIER
1070
     0
1002
}
1002
{
1000
MANEDIT
1070
     0
1002
}
1002
{
1000
NOSEL
1070
     0
1002
}
1002
{
1000
BEHIND
1070
     0
1002
}
1002
{
1000
OTHER
1070
     0
1002
}
1002
{
1000
REACTOR
1002
}
  0
LINE
  5
4542
  8
240
  6
CONTINUOUS
 10
13.32354291353624
 20
16.0
 30
0.0
 11
16.796393409100279
 21
15.80686832379179
 31
0.0
  0
LINE
  5
4543
  8
241
  6
CONTINUOUS
 10
16.796393409100119
 20
15.8068683237918
 30
0.0
 11
11.96151695428747
 21
15.71382071158744
 31
0.0
  0
ARC
  5
4561
  8
241
  6
CONTINUOUS
 10
12.0
 20
13.714190982064331
 30
0.0
 40
2.0
 50
91.102526090718314
 51
180.0
1001
GENIUS_GENODEF_13
1002
{
1000
HIER
1070
     0
1002
}
1002
{
1000
MANEDIT
1070
     0
1002
}
1002
{
1000
NOSEL
1070
     0
1002
}
1002
{
1000
BEHIND
1070
     0
1002
}
1002
{
1000
OTHER
1070
     0
1002
}
1002
{
1000
REACTOR
1002
}
1001
GENIUS_GENOBJ-N-FIL_13
1002
{
1000
OWNER
1000
GEN
1002
}
  0
LINE
  5
45C6
  8
246
  6
PHANTOM2
 10
31.998903627803621
 20
21.15813123500573
 30
0.0
 11
31.492572164534248
 21
11.49675137505683
 31
0.0
  0
ARC
  5
45C7
  8
246
  6
PHANTOM2
 10
31.199999999999999
 20
21.20000000000006
 30
0.0
 40
0.8
 50
357.00000000000438
 51
121.9999999999977
1001
GENIUS_GENODEF_13
1002
{
1000
HIER
1070
     0
1002
}
1002
{
1000
MANEDIT
1070
     0
1002
}
1002
{
1000
NOSEL
1070
     0
1002
}
1002
{
1000
BEHIND
1070
     0
1002
}
1002
{
1000
OTHER
1070
     0
1002
}
1002
{
1000
REACTOR
1002
}
1001
GENIUS_GENOBJ-N-FIL_13
1002
{
1000
OWNER
1000
GEN
1002
}
  0
LINE
  5
45C8
  8
246
  6
PHANTOM2
 10
22.196537512951711
 20
16.115091387916159
 30
0.0
 11
21.690206049682349
 21
6.4537115279672541
 31
0.0
  0
ARC
  5
45C9
  8
246
  6
PHANTOM2
 10
22.48910967748596
 20
6.4118427629729906
 30
0.0
 40
0.8
 50
177.00000000000421
 51
301.99999999999972
1001
GENIUS_GENOBJ-N-FIL_13
1002
{
1000
OWNER
1000
GEN
1002
}
1001
GENIUS_GENODEF_13
1002
{
1000
HIER
1070
     0
1002
}
1002
{
1000
MANEDIT
1070
     0
1002
}
1002
{
1000
NOSEL
1070
     0
1002
}
1002
{
1000
BEHIND
1070
     0
1002
}
1002
{
1000
OTHER
1070
     0
1002
}
1002
{
1000
REACTOR
1002
}
  0
LINE
  5
45CA
  8
246
  6
PHANTOM2
 10
22.913045088872611
 20
5.7334042860477528
 30
0.0
 11
31.117603948117289
 21
10.860181663125971
 31
0.0
  0
ARC
  5
45CB
  8
246
  6
PHANTOM2
 10
30.693668536730641
 20
11.538620140051201
 30
0.0
 40
0.8
 50
301.99999999999972
 51
357.00000000000438
1001
GENIUS_GENOBJ-N-FIL_13
1002
{
1000
OWNER
1000
GEN
1002
}
1001
GENIUS_GENODEF_13
1002
{
1000
HIER
1070
     0
1002
}
1002
{
1000
MANEDIT
1070
     0
1002
}
1002
{
1000
NOSEL
1070
     0
1002
}
1002
{
1000
BEHIND
1070
     0
1002
}
1002
{
1000
OTHER
1070
     0
1002
}
1002
{
1000
REACTOR
1002
}
  0
LINE
  5
45CC
  8
246
  6
PHANTOM2
 10
22.571505729368781
 20
16.751661099846999
 30
0.0
 11
30.776064588613451
 21
21.87843847692524
 31
0.0
  0
ARC
  5
45CD
  8
246
  6
PHANTOM2
 10
22.995441140755432
 20
16.07322262292189
 30
0.0
 40
0.8
 50
121.9999999999977
 51
177.00000000000421
1001
GENIUS_GENODEF_13
1002
{
1000
HIER
1070
     0
1002
}
1002
{
1000
MANEDIT
1070
     0
1002
}
1002
{
1000
NOSEL
1070
     0
1002
}
1002
{
1000
BEHIND
1070
     0
1002
}
1002
{
1000
OTHER
1070
     0
1002
}
1002
{
1000
REACTOR
1002
}
1001
GENIUS_GENOBJ-N-FIL_13
1002
{
1000
OWNER
1000
GEN
1002
}
  0
CIRCLE
  5
45CE
  8
246
  6
PHANTOM2
 10
26.844554838742919
 20
13.80592138148643
 30
0.0
 40
4.7624999999999984
  0
LINE
  5
45D1
  8
250
  6
CONTINUOUS
 10
59.756531718405981
 20
29.906671255150929
 30
0.0
 11
40.45315666962221
 21
29.906671255150929
 31
0.0
  0
LINE
  5
45D2
  8
250
  6
CONTINUOUS
 10
40.45315666962221
 20
29.906671255150929
 30
0.0
 11
34.04123084960267
 21
21.467395518764771
 31
0.0
  0
LINE
  5
45D3
  8
250
  6
CONTINUOUS
 10
34.04123084960267
 20
21.467395518764771
 30
0.0
 11
32.692151742630131
 21
19.691758854598849
 31
0.0
  0
LINE
  5
45D4
  8
250
  6
CONTINUOUS
 10
33.807463849000463
 20
21.64500515184822
 30
0.0
 11
32.692151742630131
 21
19.691758854598849
 31
0.0
  0
LINE
  5
45D5
  8
250
  6
CONTINUOUS
 10
32.692151742630131
 20
19.691758854598849
 30
0.0
 11
34.274997850204848
 21
21.289785885681301
 31
0.0
  0
TEXT
  5
45D6
  8
250
  6
CONTINUOUS
 10
41.304762924750577
 20
31.462502673616228
 30
0.0
 40
2.799999999999998
  1
DN11T3
  7
ACJISTS
  0
LINE
  5
4678
  8
241
  6
CONTINUOUS
 10
29.639280189247248
 20
0.6772347804445396
 30
0.0
 11
27.232918520619648
 21
-7.2202331295916782
 31
0.0
  0
ARC
  5
4679
  8
241
  6
CONTINUOUS
 10
25.79804869276709
 20
-6.7830277120607603
 30
0.0
 40
1.5
 50
253.0539999999998
 51
343.05400003903839
  0
ARC
  5
467A
  8
241
  6
CONTINUOUS
 10
16.23224983470816
 20
-3.8683249191649351
 30
0.0
 40
1.5
 50
163.05399997367269
 51
253.0539999999998
  0
LINE
  5
467B
  8
241
  6
CONTINUOUS
 10
29.739949917363631
 20
1.97196464972256
 30
0.0
 11
28.165885660392071
 21
13.09593204370735
 31
0.0
  0
LINE
  5
467C
  8
241
  6
CONTINUOUS
 10
17.842155925441951
 20
5.5972272956708951
 30
0.0
 11
25.351820340058509
 21
13.95337888871275
 31
0.0
  0
LINE
  5
467D
  8
241
  6
CONTINUOUS
 10
14.79738000735439
 20
-3.4311194999970471
 30
0.0
 11
17.20374167915995
 21
4.4663483992354811
 31
0.0
  0
CIRCLE
  5
467E
  8
241
  6
CONTINUOUS
 10
22.909706074410789
 20
0.8920929407230849
 30
0.0
 40
4.25
  0
LINE
  5
467F
  8
241
  6
CONTINUOUS
 10
21.222202211136139
 20
-0.6845059473957562
 30
0.0
 11
23.431328826183961
 21
-1.3576277200385061
 31
0.0
  0
LINE
  5
4680
  8
241
  6
CONTINUOUS
 10
20.70057945936297
 20
1.5652147133658421
 30
0.0
 11
21.222202211136139
 21
-0.6845059473957562
 31
0.0
  0
LINE
  5
4684
  8
241
  6
CONTINUOUS
 10
22.388083329708689
 20
3.1418135944136081
 30
0.0
 11
20.70057945936297
 21
1.5652147133658421
 31
0.0
  0
LINE
  5
4685
  8
241
  6
CONTINUOUS
 10
23.431328826183961
 20
-1.3576277200385061
 30
0.0
 11
25.118832689458628
 21
0.2189711539382024
 31
0.0
  0
LINE
  5
4686
  8
241
  6
CONTINUOUS
 10
24.597209937685442
 20
2.4686918146997829
 30
0.0
 11
22.388083329708689
 21
3.1418135944136081
 31
0.0
  0
LINE
  5
4687
  8
241
  6
CONTINUOUS
 10
25.118832689458628
 20
0.2189711539382024
 30
0.0
 11
24.597209937685442
 21
2.4686918146997829
 31
0.0
  0
ARC
  5
468F
  8
241
  6
CONTINUOUS
 10
26.844554838742919
 20
13.80592138148643
 30
0.0
 40
1.499999999999998
 50
331.74957344705001
 51
174.35842653884109
  0
LINE
  5
4825
  8
241
  6
CONTINUOUS
 10
25.360843270217082
 20
-8.2178975468329476
 30
0.0
 11
15.79504441922921
 21
-5.3031947468660707
 31
0.0
  0
LINE
  5
48F1
  8
243
  6
HIDDEN2
 10
3.049999999999998
 20
16.00000000000006
 30
0.0
 11
3.049999999999998
 21
-15.99999999999994
 31
0.0
  0
TEXT
  5
48F2
  8
241
  6
CONTINUOUS
 10
0.0
 20
49.00000000000005
 30
0.0
 40
3.0
  1
B32-DDUNR-22032-11
  7
YOKO
  0
LINE
  5
494D
  8
250
  6
CONTINUOUS
 10
0.0
 20
16.5
 30
0.0
 11
0.0000000000000012
 21
36.0
 31
0.0
  0
LINE
  5
494E
  8
250
  6
CONTINUOUS
 10
32.0
 20
21.70000000000006
 30
0.0
 11
32.0
 21
36.0
 31
0.0
  0
LINE
  5
494F
  8
250
  6
CONTINUOUS
 10
2.23
 20
35.0
 30
0.0
 11
29.77
 21
35.0
 31
0.0
  0
LINE
  5
4953
  8
250
  6
CONTINUOUS
 10
34.194405961663392
 20
0.0000000000000567
 30
0.0
 11
50.0
 21
0.0000000000000522
 31
0.0
  0
LINE
  5
4954
  8
250
  6
CONTINUOUS
 10
31.699999999999999
 20
22.00000000000006
 30
0.0
 11
50.0
 21
22.00000000000005
 31
0.0
  0
LINE
  5
4955
  8
250
  6
CONTINUOUS
 10
48.999999999999993
 20
2.2300000000000511
 30
0.0
 11
49.0
 21
19.770000000000049
 31
0.0
  0
TEXT
  5
4959
  8
250
  6
CONTINUOUS
 10
47.999999999999993
 20
8.3333333333333943
 30
0.0
 40
2.799999999999998
  1
22
 50
90.0
  0
LINE
  5
495A
  8
250
  6
CONTINUOUS
 10
48.62833333333333
 20
19.770000000000049
 30
0.0
 11
49.0
 21
22.00000000000005
 31
0.0
  0
LINE
  5
495B
  8
250
  6
CONTINUOUS
 10
49.37166666666667
 20
19.770000000000049
 30
0.0
 11
49.0
 21
22.00000000000005
 31
0.0
  0
LINE
  5
495C
  8
250
  6
CONTINUOUS
 10
49.0
 20
22.00000000000005
 30
0.0
 11
49.0
 21
19.770000000000049
 31
0.0
  0
LINE
  5
495D
  8
250
  6
CONTINUOUS
 10
49.371666666666663
 20
2.2300000000000511
 30
0.0
 11
48.999999999999993
 21
0.0000000000000525
 31
0.0
  0
LINE
  5
495E
  8
250
  6
CONTINUOUS
 10
48.628333333333323
 20
2.2300000000000511
 30
0.0
 11
48.999999999999993
 21
0.0000000000000525
 31
0.0
  0
LINE
  5
495F
  8
250
  6
CONTINUOUS
 10
48.999999999999993
 20
0.0000000000000525
 30
0.0
 11
48.999999999999993
 21
2.2300000000000511
 31
0.0
  0
TEXT
  5
4960
  8
250
  6
CONTINUOUS
 10
13.33333333333333
 20
36.0
 30
0.0
 40
2.799999999999998
  1
32
  0
LINE
  5
4961
  8
250
  6
CONTINUOUS
 10
29.77
 20
35.37166666666667
 30
0.0
 11
32.0
 21
35.0
 31
0.0
  0
LINE
  5
4962
  8
250
  6
CONTINUOUS
 10
29.77
 20
34.62833333333333
 30
0.0
 11
32.0
 21
35.0
 31
0.0
  0
LINE
  5
4963
  8
250
  6
CONTINUOUS
 10
32.0
 20
35.0
 30
0.0
 11
29.77
 21
35.0
 31
0.0
  0
LINE
  5
4964
  8
250
  6
CONTINUOUS
 10
2.23
 20
34.62833333333333
 30
0.0
 11
0.0000000000000012
 21
35.0
 31
0.0
  0
LINE
  5
4965
  8
250
  6
CONTINUOUS
 10
2.23
 20
35.37166666666667
 30
0.0
 11
0.0000000000000012
 21
35.0
 31
0.0
  0
LINE
  5
4966
  8
250
  6
CONTINUOUS
 10
0.0000000000000012
 20
35.0
 30
0.0
 11
2.23
 21
35.0
 31
0.0
  0
ARC
  5
49AD
  8
241
  6
CONTINUOUS
 10
20.073481333713939
 20
3.5919375603957491
 30
0.0
 40
3.0
 50
138.05400000188419
 51
163.05399996361101
1001
GENIUS_GENOBJ-N-FIL_13
1002
{
1000
OWNER
1000
GEN
1002
}
1001
GENIUS_GENODEF_13
1002
{
1000
HIER
1070
     0
1002
}
1002
{
1000
MANEDIT
1070
     0
1002
}
1002
{
1000
NOSEL
1070
     0
1002
}
1002
{
1000
BEHIND
1070
     0
1002
}
1002
{
1000
OTHER
1070
     0
1002
}
1002
{
1000
REACTOR
1002
}
  0
ARC
  5
49AE
  8
241
  6
CONTINUOUS
 10
26.769540533314451
 20
1.5516456147591
 30
0.0
 40
3.0
 50
343.0540000539583
 51
8.0540000179515552
1001
GENIUS_GENOBJ-N-FIL_13
1002
{
1000
OWNER
1000
GEN
1002
}
1001
GENIUS_GENODEF_13
1002
{
1000
HIER
1070
     0
1002
}
1002
{
1000
MANEDIT
1070
     0
1002
}
1002
{
1000
NOSEL
1070
     0
1002
}
1002
{
1000
BEHIND
1070
     0
1002
}
1002
{
1000
OTHER
1070
     0
1002
}
1002
{
1000
REACTOR
1002
}
  0
VIEWPORT
  5
22
 67
     1
  8
0
 10
261.51769911504419
 20
148.5
 30
0.0
 40
523.0353982300885
 41
297.0
 68
     1
 69
     1
1001
ACAD
1000
MVIEW
1002
{
1070
    16
1010
0.0
1020
0.0
1030
0.0
1010
0.0
1020
0.0
1030
1.0
1040
0.0
1040
297.0
1040
261.51769911504419
1040
148.5
1040
50.0
1040
0.0
1040
0.0
1070
     0
1070
   100
1070
     1
1070
     1
1070
     0
1070
     0
1070
     0
1070
     0
1040
0.0
1040
0.0
1040
0.0
1040
1.0
1040
1.0
1040
10.0
1040
10.0
1070
     0
1002
{
1002
}
1002
}
1001
GENIUS_GENODEF_13
1002
{
1000
HIER
1070
     0
1002
}
1002
{
1000
MANEDIT
1070
     0
1002
}
1002
{
1000
NOSEL
1070
     0
1002
}
1002
{
1000
BEHIND
1070
     0
1002
}
1002
{
1000
OTHER
1070
     0
1002
}
1002
{
1000
REACTOR
1002
}
1001
GENIUS_GENOBJ-N-SDF_13
1002
{
1000
OWNER
1000
GEN
1002
}
1001
GENIUS_GENSCREG_15
1000
PF
1040
1.0
1000
DF
1040
1.0
1000
MIN
1011
0.0
1021
0.0
1031
0.0
1021
0.0
1031
0.0
1000
MAX
1011
523.0353982300885
1021
0.0
1031
0.0
1021
297.0
1031
0.0
1000
FLAGS
1070
     4
  0
ENDSEC
  0
EOF
