  0
SECTION
  2
HEADER
  9
$ACADVER
  1
AC1009
  9
$INSBASE
 10
0.0
 20
0.0
 30
0.0
  9
$EXTMIN
 10
-3.9635422894960182
 20
-16.0
 30
0.0
  9
$EXTMAX
 10
65.756531718405995
 20
52.0
 30
0.0
  9
$LIMMIN
 10
0.0
 20
0.0
  9
$LIMMAX
 10
297.0
 20
210.0
  9
$ORTHOMODE
 70
     0
  9
$REGENMODE
 70
     1
  9
$FILLMODE
 70
     1
  9
$QTEXTMODE
 70
     0
  9
$MIRRTEXT
 70
     1
  9
$DRAGMODE
 70
     2
  9
$LTSCALE
 40
10.0
  9
$OSMODE
 70
    37
  9
$ATTMODE
 70
     1
  9
$TEXTSIZE
 40
3.0
  9
$TRACEWID
 40
1.0
  9
$TEXTSTYLE
  7
YOKO
  9
$CLAYER
  8
240
  9
$CELTYPE
  6
BYLAYER
  9
$CECOLOR
 62
   256
  9
$DIMSCALE
 40
1.0
  9
$DIMASZ
 40
2.2299999999999991
  9
$DIMEXO
 40
0.5
  9
$DIMDLI
 40
7.0
  9
$DIMRND
 40
0.0
  9
$DIMDLE
 40
0.0
  9
$DIMEXE
 40
1.0
  9
$DIMTP
 40
0.0
  9
$DIMTM
 40
0.01
  9
$DIMTXT
 40
2.7999999999999989
  9
$DIMCEN
 40
0.0
  9
$DIMTSZ
 40
0.0
  9
$DIMTOL
 70
     0
  9
$DIMLIM
 70
     0
  9
$DIMTIH
 70
     0
  9
$DIMTOH
 70
     0
  9
$DIMSE1
 70
     0
  9
$DIMSE2
 70
     0
  9
$DIMTAD
 70
     3
  9
$DIMZIN
 70
     9
  9
$DIMBLK
  1
OPEN
  9
$DIMASO
 70
     1
  9
$DIMSHO
 70
     1
  9
$DIMPOST
  1

  9
$DIMAPOST
  1

  9
$DIMALT
 70
     0
  9
$DIMALTD
 70
     2
  9
$DIMALTF
 40
25.399999999999999
  9
$DIMLFAC
 40
1.0
  9
$DIMTOFL
 70
     1
  9
$DIMTVP
 40
0.0
  9
$DIMTIX
 70
     1
  9
$DIMSOXD
 70
     0
  9
$DIMSAH
 70
     0
  9
$DIMBLK1
  1

  9
$DIMBLK2
  1

  9
$DIMSTYLE
  2
BIGT
  9
$DIMCLRD
 70
   256
  9
$DIMCLRE
 70
   256
  9
$DIMCLRT
 70
    40
  9
$DIMTFAC
 40
1.0
  9
$DIMGAP
 40
1.0
  9
$LUNITS
 70
     2
  9
$LUPREC
 70
     6
  9
$SKETCHINC
 40
1.0
  9
$FILLETRAD
 40
6.0
  9
$AUNITS
 70
     0
  9
$AUPREC
 70
     6
  9
$MENU
  1
.
  9
$ELEVATION
 40
0.0
  9
$PELEVATION
 40
0.0
  9
$THICKNESS
 40
0.0
  9
$LIMCHECK
 70
     0
  9
$BLIPMODE
 70
     0
  9
$CHAMFERA
 40
0.2
  9
$CHAMFERB
 40
0.2
  9
$SKPOLY
 70
     0
  9
$TDCREATE
 40
2458950.5701853242
  9
$TDUPDATE
 40
2458953.4613342481
  9
$TDINDWG
 40
0.0270666319
  9
$TDUSRTIMER
 40
0.0270665972
  9
$USRTIMER
 70
     1
  9
$ANGBASE
 50
0.0
  9
$ANGDIR
 70
     0
  9
$PDMODE
 70
     1
  9
$PDSIZE
 40
0.0
  9
$PLINEWID
 40
0.0
  9
$COORDS
 70
     1
  9
$SPLFRAME
 70
     0
  9
$SPLINETYPE
 70
     6
  9
$SPLINESEGS
 70
     4
  9
$ATTDIA
 70
     1
  9
$ATTREQ
 70
     1
  9
$HANDLING
 70
     1
  9
$HANDSEED
  5
49A4
  9
$SURFTAB1
 70
     6
  9
$SURFTAB2
 70
     6
  9
$SURFTYPE
 70
     6
  9
$SURFU
 70
     6
  9
$SURFV
 70
     6
  9
$UCSNAME
  2

  9
$UCSORG
 10
0.0
 20
0.0
 30
0.0
  9
$UCSXDIR
 10
1.0
 20
0.0
 30
0.0
  9
$UCSYDIR
 10
0.0
 20
1.0
 30
0.0
  9
$PUCSNAME
  2

  9
$PUCSORG
 10
0.0
 20
0.0
 30
0.0
  9
$PUCSXDIR
 10
1.0
 20
0.0
 30
0.0
  9
$PUCSYDIR
 10
0.0
 20
1.0
 30
0.0
  9
$USERI1
 70
     1
  9
$USERI2
 70
     0
  9
$USERI3
 70
     0
  9
$USERI4
 70
     0
  9
$USERI5
 70
     0
  9
$USERR1
 40
0.0
  9
$USERR2
 40
0.0
  9
$USERR3
 40
0.0
  9
$USERR4
 40
0.0
  9
$USERR5
 40
0.0
  9
$WORLDVIEW
 70
     1
  9
$SHADEDGE
 70
     3
  9
$SHADEDIF
 70
    70
  9
$TILEMODE
 70
     1
  9
$MAXACTVP
 70
    16
  9
$PLIMCHECK
 70
     0
  9
$PEXTMIN
 10
1.0000000000000000E+020
 20
1.0000000000000000E+020
 30
1.0000000000000000E+020
  9
$PEXTMAX
 10
-1.0000000000000000E+020
 20
-1.0000000000000000E+020
 30
-1.0000000000000000E+020
  9
$PLIMMIN
 10
0.0
 20
0.0
  9
$PLIMMAX
 10
420.0
 20
297.0
  9
$UNITMODE
 70
     0
  9
$VISRETAIN
 70
     1
  9
$PLINEGEN
 70
     0
  9
$PSLTSCALE
 70
     1
  0
ENDSEC
  0
SECTION
  2
TABLES
  0
TABLE
  2
VPORT
 70
     1
  0
VPORT
  2
*ACTIVE
 70
     0
 10
0.0
 20
0.0
 11
1.0
 21
1.0
 12
58.891658315431577
 22
26.458850020698488
 13
0.0
 23
0.0
 14
7.0
 24
7.0
 15
7.0
 25
7.0
 16
0.0
 26
0.0
 36
1.0
 17
0.0
 27
0.0
 37
0.0
 40
143.70814260795109
 41
2.1149732620320849
 42
50.0
 43
0.0
 44
0.0
 50
0.0
 51
0.0
 71
     0
 72
  2000
 73
     1
 74
     0
 75
     0
 76
     1
 77
     0
 78
     0
  0
ENDTAB
  0
TABLE
  2
LTYPE
 70
    13
  0
LTYPE
  2
CONTINUOUS
 70
     0
  3
Solid line
 72
    65
 73
     0
 40
0.0
  0
LTYPE
  2
CENTER2
 70
     0
  3
___ _ ___ _ ___ _ ___ _ ___ _ ___ _ ___ _ ___ _
 72
    65
 73
     4
 40
1.125
 49
0.75
 49
-0.125
 49
0.125
 49
-0.125
  0
LTYPE
  2
HIDDEN2
 70
     0
  3
_ _ _ _ _ _ _ _ _ _ _ _ _ _ _ _ _ _ _ _ _ _ _ _
 72
    65
 73
     2
 40
0.1875
 49
0.125
 49
-0.0625
  0
LTYPE
  2
PHANTOM2
 70
     0
  3
___ _ _ ___ _ _ ___ _ _ ___ _ _ ___ _ _ ___ _ _
 72
    65
 73
     6
 40
1.25
 49
0.625
 49
-0.125
 49
0.125
 49
-0.125
 49
0.125
 49
-0.125
  0
LTYPE
  2
AM_ISO02W050
 70
     0
  3
__ __ __ __ __ __ __ __ __ __ __ __ __ __ __
 72
    65
 73
     2
 40
7.5
 49
6.0
 49
-1.5
  0
LTYPE
  2
AMCONSTR
 70
     0
  3
_______________________
 72
    65
 73
     2
 40
9999.0
 49
9999.0
 49
0.0
  0
LTYPE
  2
ACISOWELD
 70
     0
  3
_ _ _ _ _
 72
    65
 73
     2
 40
2.0
 49
2.0
 49
-1.0
  0
LTYPE
  2
ACISOTGB
 70
     0
  3
__ . . __ . .
 72
    65
 73
     6
 40
9.0
 49
4.0
 49
-1.0
 49
1.0
 49
-1.0
 49
1.0
 49
-1.0
  0
LTYPE
  2
ACISOTGL
 70
     0
  3
_ _ _ _ _
 72
    65
 73
     2
 40
3.0
 49
2.0
 49
-1.0
  0
LTYPE
  2
ACJISTGB
 70
     0
  3
__ . . __ . .
 72
    65
 73
     6
 40
9.0
 49
4.0
 49
-1.0
 49
1.0
 49
-1.0
 49
1.0
 49
-1.0
  0
LTYPE
  2
ACJISTGL
 70
     0
  3
_ _ _ _ _
 72
    65
 73
     2
 40
3.0
 49
2.0
 49
-1.0
  0
ENDTAB
  0
TABLE
  2
LAYER
 70
     8
  0
LAYER
  2
0
 70
     0
 62
     7
  6
CONTINUOUS
  0
LAYER
  2
DEFPOINTS
 70
     0
 62
     7
  6
CONTINUOUS
  0
LAYER
  2
245
 70
     0
 62
     2
  6
CENTER2
  0
LAYER
  2
240
 70
     0
 62
     4
  6
CONTINUOUS
  0
LAYER
  2
241
 70
     0
 62
   211
  6
CONTINUOUS
  0
LAYER
  2
243
 70
     0
 62
   211
  6
HIDDEN2
  0
LAYER
  2
246
 70
     0
 62
     3
  6
PHANTOM2
  0
LAYER
  2
250
 70
     0
 62
     3
  6
CONTINUOUS
  0
ENDTAB
  0
TABLE
  2
STYLE
 70
     6
  0
STYLE
  2
STANDARD
 70
     0
 40
0.0
 41
1.0
 50
0.0
 71
     0
 42
3.0
  3
romans.shx
  4
extfont.shx
  0
STYLE
  2
ACISOTS
 70
     0
 40
1.0
 41
1.0
 50
0.0
 71
     0
 42
3.0
  3
amgdt.shx
  4
extfont.shx
  0
STYLE
  2
ACISOGDT
 70
     0
 40
0.0
 41
1.0
 50
0.0
 71
     0
 42
3.0
  3
amgdt.shx
  4
extfont.shx
  0
STYLE
  2
ACJISTS
 70
     0
 40
1.0
 41
1.0
 50
0.0
 71
     0
 42
3.0
  3
amgdt.shx
  4
extfont.shx
  0
STYLE
  2
ACJISGDT
 70
     0
 40
0.0
 41
1.0
 50
0.0
 71
     0
 42
3.0
  3
amgdt.shx
  4
extfont.shx
  0
STYLE
  2
YOKO
 70
     0
 40
0.0
 41
1.0
 50
0.0
 71
     0
 42
3.0
  3
romans.shx
  4
extfont.shx
  0
ENDTAB
  0
TABLE
  2
VIEW
 70
     0
  0
ENDTAB
  0
TABLE
  2
UCS
 70
     0
  0
ENDTAB
  0
TABLE
  2
APPID
 70
    41
  0
APPID
  2
ACAD
 70
     0
  0
APPID
  2
GLOBAL
 70
     0
  0
APPID
  2
DETAIL
 70
     0
  0
APPID
  2
GRPNAME
 70
     0
  0
APPID
  2
GPARA
 70
     0
  0
APPID
  2
MCAD_NO_VIS
 70
     0
  0
APPID
  2
ACAD_TEMP_GRAPHIC
 70
     0
  0
APPID
  2
ACATTRIBSERVICES
 70
     0
  0
APPID
  2
GENIUS_GENSCREG_15
 70
     0
  0
APPID
  2
GENIUS_GENODEF_13
 70
     0
  0
APPID
  2
GENIUS_GENOBJ-N-SDF_13
 70
     0
  0
APPID
  2
GENIUS_GENREC_14
 70
     0
  0
APPID
  2
GENIUS_GENOBJ-N-REC_13
 70
     0
  0
APPID
  2
GENIUS_GENDIMSH_14
 70
     0
  0
APPID
  2
GENIUS_GENOBJ-N-DIM_13
 70
     0
  0
APPID
  2
GENIUS_GENDIM_13
 70
     0
  0
APPID
  2
GENIUS_GENDTOL_13
 70
     0
  0
APPID
  2
GENIUS_GENOLIS_13
 70
     0
  0
APPID
  2
GENIUS_GENOENT_13
 70
     0
  0
APPID
  2
GENIUS_GENOBJ-F-FEM_13
 70
     0
  0
APPID
  2
GENIUS_GENOREF_13
 70
     0
  0
APPID
  2
GENIUS_GEFFEM_13
 70
     0
  0
APPID
  2
GENIUS_GEFFEMP_13
 70
     0
  0
APPID
  2
AD_DRAW
 70
     0
  0
APPID
  2
DESIGNERASSEMBLIES
 70
     0
  0
APPID
  2
ACADM_DIM_EDIT
 70
     0
  0
APPID
  2
AMDT_DM_ADJ
 70
     0
  0
APPID
  2
ITEMNAME
 70
     0
  0
APPID
  2
GENIUS_GENOBJ-N-FIL_13
 70
     0
  0
APPID
  2
GENIUS_GENFIL_13
 70
     0
  0
APPID
  2
GENIUS_GENOBJ-N-CHA_13
 70
     0
  0
APPID
  2
ACAD_NAV_VCDISPLAY
 70
     0
  0
APPID
  2
ACAD_PSEXT
 70
     0
  0
APPID
  2
ACADANNOTATIVE
 70
     0
  0
APPID
  2
ACAD_DSTYLE_DIMJAG
 70
     0
  0
APPID
  2
ACAD_DSTYLE_DIMTALN
 70
     0
  0
APPID
  2
ACAD_DSTYLE_DIMBREAK
 70
     0
  0
APPID
  2
ACAD_DSTYLE_DIMINSPECT
 70
     0
  0
APPID
  2
ACAD_EXEMPT_FROM_CAD_STANDARDS
 70
     0
  0
APPID
  2
ACAD_DSTYLE_DIMANGULAR_EXT
 70
     0
  0
APPID
  2
ACAD_MLEADERVER
 70
     0
  0
ENDTAB
  0
TABLE
  2
DIMSTYLE
 70
    23
  0
DIMSTYLE
  2
BIGT
 70
     0
  3

  4

  5
OPEN
  6

  7

 40
1.0
 41
2.2299999999999991
 42
0.5
 43
7.0
 44
1.0
 45
0.0
 46
0.0
 47
0.0
 48
0.01
140
2.7999999999999989
141
0.0
142
0.0
143
25.399999999999999
144
1.0
145
0.0
146
1.0
147
1.0
 71
     0
 72
     0
 73
     0
 74
     0
 75
     0
 76
     0
 77
     3
 78
     9
170
     0
171
     2
172
     1
173
     0
174
     1
175
     0
176
   256
177
   256
178
    40
  0
DIMSTYLE
  2
AM_ISO
 70
     0
  3

  4
"
  5

  6

  7

 40
1.0
 41
2.5
 42
1.0
 43
10.0
 44
1.0
 45
0.0
 46
0.0
 47
0.1
 48
0.1
140
3.5
141
0.0
142
0.0
143
0.0393701
144
1.0
145
0.0
146
0.71
147
1.5
 71
     0
 72
     0
 73
     0
 74
     0
 75
     0
 76
     0
 77
     1
 78
     8
170
     0
171
     2
172
     1
173
     0
174
     0
175
     0
176
   256
177
   256
178
     2
  0
DIMSTYLE
  2
AM_ISO$3
 70
     0
  3

  4
"
  5

  6

  7

 40
1.0
 41
2.5
 42
1.0
 43
10.0
 44
1.0
 45
0.0
 46
0.0
 47
0.1
 48
0.1
140
3.5
141
0.0
142
0.0
143
0.0393701
144
1.0
145
0.0
146
0.71
147
1.5
 71
     0
 72
     0
 73
     0
 74
     1
 75
     0
 76
     0
 77
     1
 78
     8
170
     0
171
     2
172
     0
173
     0
174
     0
175
     0
176
   256
177
   256
178
     2
  0
DIMSTYLE
  2
AM_ISO$4
 70
     0
  3

  4
"
  5

  6

  7

 40
1.0
 41
2.5
 42
1.0
 43
10.0
 44
1.0
 45
0.0
 46
0.0
 47
0.1
 48
0.1
140
3.5
141
0.0
142
0.0
143
0.0393701
144
1.0
145
0.0
146
0.71
147
1.5
 71
     0
 72
     0
 73
     0
 74
     1
 75
     0
 76
     0
 77
     1
 78
     8
170
     0
171
     2
172
     0
173
     0
174
     0
175
     0
176
   256
177
   256
178
     2
  0
DIMSTYLE
  2
AM_ISO$6
 70
     0
  3

  4
"
  5

  6

  7

 40
1.0
 41
2.5
 42
1.0
 43
10.0
 44
1.0
 45
0.0
 46
0.0
 47
0.1
 48
0.1
140
3.5
141
0.0
142
0.0
143
0.0393701
144
1.0
145
0.0
146
0.71
147
1.5
 71
     0
 72
     0
 73
     0
 74
     0
 75
     0
 76
     0
 77
     0
 78
     8
170
     0
171
     2
172
     1
173
     0
174
     0
175
     0
176
   256
177
   256
178
     2
  0
DIMSTYLE
  2
AM_ISO$7
 70
     0
  3

  4
"
  5

  6

  7

 40
1.0
 41
2.5
 42
1.0
 43
10.0
 44
1.0
 45
0.0
 46
0.0
 47
0.1
 48
0.1
140
5.0
141
0.0
142
0.0
143
0.0393701
144
1.0
145
0.0
146
0.71
147
1.5
 71
     0
 72
     0
 73
     0
 74
     0
 75
     0
 76
     0
 77
     1
 78
     8
170
     0
171
     2
172
     1
173
     0
174
     0
175
     0
176
   256
177
   256
178
     2
  0
DIMSTYLE
  2
AM_ISO$SF
 70
     0
  3

  4
"
  5

  6

  7

 40
1.0
 41
2.5
 42
1.0
 43
10.0
 44
1.0
 45
0.0
 46
0.0
 47
0.1
 48
0.1
140
3.5
141
0.0
142
0.0
143
0.0393701
144
1.0
145
0.0
146
0.71
147
1.5
 71
     0
 72
     0
 73
     0
 74
     0
 75
     1
 76
     1
 77
     1
 78
     8
170
     0
171
     2
172
     1
173
     0
174
     0
175
     0
176
   256
177
   256
178
     2
  0
DIMSTYLE
  2
AM_ISO$SH
 70
     0
  3

  4
"
  5

  6
GENAXEH
  7

 40
1.0
 41
2.5
 42
1.0
 43
10.0
 44
1.0
 45
0.0
 46
0.0
 47
0.1
 48
0.1
140
3.5
141
0.0
142
0.0
143
0.0393701
144
2.0
145
0.0
146
0.71
147
1.5
 71
     0
 72
     0
 73
     0
 74
     0
 75
     1
 76
     1
 77
     1
 78
     8
170
     0
171
     2
172
     1
173
     1
174
     0
175
     0
176
   256
177
   256
178
     2
  0
DIMSTYLE
  2
BIGT$2
 70
     0
  3

  4

  5
OPEN
  6

  7

 40
1.0
 41
2.2299999999999991
 42
0.5
 43
7.0
 44
1.0
 45
0.0
 46
0.0
 47
0.0
 48
0.01
140
2.7999999999999989
141
0.0
142
0.0
143
25.399999999999999
144
1.0
145
0.0
146
1.0
147
1.0
 71
     0
 72
     0
 73
     0
 74
     0
 75
     0
 76
     0
 77
     3
 78
     9
170
     0
171
     2
172
     1
173
     0
174
     0
175
     0
176
   256
177
   256
178
    40
  0
DIMSTYLE
  2
BIGT$3
 70
     0
  3

  4

  5
OPEN
  6

  7

 40
1.0
 41
2.2299999999999991
 42
0.5
 43
2.5
 44
1.0
 45
0.0
 46
0.0
 47
0.0
 48
0.01
140
2.7999999999999989
141
0.0
142
0.0
143
25.399999999999999
144
1.0
145
0.0
146
1.0
147
1.0
 71
     0
 72
     0
 73
     0
 74
     0
 75
     0
 76
     0
 77
     3
 78
     9
170
     0
171
     2
172
     1
173
     0
174
     0
175
     0
176
   256
177
   256
178
    40
  0
DIMSTYLE
  2
BIGT$7
 70
     0
  3

  4

  5
OPEN
  6

  7

 40
0.0
 41
2.2299999999999991
 42
0.5
 43
7.0
 44
1.0
 45
0.0
 46
0.0
 47
0.0
 48
0.01
140
2.7999999999999989
141
0.0
142
0.0
143
25.399999999999999
144
1.0
145
0.0
146
1.0
147
1.0
 71
     0
 72
     0
 73
     0
 74
     0
 75
     0
 76
     0
 77
     3
 78
     9
170
     0
171
     2
172
     0
173
     0
174
     0
175
     0
176
   256
177
   256
178
    40
  0
DIMSTYLE
  2
BIGT$6
 70
     0
  3

  4

  5
OPEN
  6

  7

 40
1.0
 41
2.2299999999999991
 42
0.5
 43
2.5
 44
1.0
 45
0.0
 46
0.0
 47
0.0
 48
0.01
140
2.7999999999999989
141
0.0
142
0.0
143
25.399999999999999
144
1.0
145
0.0
146
1.0
147
1.0
 71
     0
 72
     0
 73
     0
 74
     0
 75
     0
 76
     0
 77
     3
 78
     9
170
     0
171
     2
172
     1
173
     0
174
     0
175
     0
176
   256
177
   256
178
    40
  0
DIMSTYLE
  2
BIGT$0
 70
     0
  3

  4

  5
OPEN
  6

  7

 40
1.0
 41
2.2299999999999991
 42
0.5
 43
7.0
 44
1.0
 45
0.0
 46
0.0
 47
0.0
 48
0.01
140
2.7999999999999989
141
0.0
142
0.0
143
25.399999999999999
144
1.0
145
0.0
146
1.0
147
1.0
 71
     0
 72
     0
 73
     0
 74
     0
 75
     0
 76
     0
 77
     3
 78
     9
170
     0
171
     2
172
     1
173
     0
174
     1
175
     0
176
   256
177
   256
178
    40
  0
DIMSTYLE
  2
BIGT$4
 70
     0
  3

  4

  5
OPEN
  6

  7

 40
1.0
 41
2.2299999999999991
 42
0.5
 43
2.5
 44
1.0
 45
0.0
 46
0.0
 47
0.0
 48
0.01
140
2.7999999999999989
141
0.0
142
0.0
143
25.399999999999999
144
1.0
145
0.0
146
1.0
147
1.0
 71
     0
 72
     0
 73
     0
 74
     0
 75
     0
 76
     0
 77
     3
 78
     9
170
     0
171
     2
172
     1
173
     0
174
     0
175
     0
176
   256
177
   256
178
    40
  0
DIMSTYLE
  2
BIGT$SH
 70
     0
  3

  4

  5
OPEN
  6

  7

 40
1.0
 41
2.2299999999999991
 42
0.5
 43
7.0
 44
1.0
 45
0.0
 46
0.0
 47
0.0
 48
0.0
140
2.7999999999999989
141
0.0
142
0.0
143
25.399999999999999
144
1.0
145
0.0
146
1.0
147
1.0
 71
     0
 72
     0
 73
     0
 74
     0
 75
     0
 76
     0
 77
     3
 78
     9
170
     0
171
     2
172
     1
173
     0
174
     0
175
     0
176
   256
177
   256
178
    40
  0
DIMSTYLE
  2
BIGT$SF
 70
     0
  3

  4

  5
OPEN
  6

  7

 40
1.0
 41
2.2299999999999991
 42
0.5
 43
7.0
 44
1.0
 45
0.0
 46
0.0
 47
0.0
 48
0.0
140
2.7999999999999989
141
0.0
142
0.0
143
25.399999999999999
144
1.0
145
0.0
146
1.0
147
1.0
 71
     0
 72
     0
 73
     0
 74
     0
 75
     0
 76
     0
 77
     3
 78
     9
170
     0
171
     2
172
     1
173
     0
174
     0
175
     0
176
   256
177
   256
178
    40
  0
DIMSTYLE
  2
TECHNICAL_OSAKA
 70
     0
  3

  4
"
  5
OPEN30
  6

  7

 40
1.0
 41
2.5
 42
1.0
 43
10.0
 44
1.0
 45
0.0
 46
0.0
 47
0.1
 48
0.1
140
2.7999999999999989
141
0.0
142
0.0
143
0.0393701
144
1.0
145
0.0
146
0.71
147
1.5
 71
     0
 72
     0
 73
     0
 74
     0
 75
     0
 76
     0
 77
     3
 78
     8
170
     0
171
     2
172
     1
173
     0
174
     0
175
     0
176
   256
177
   256
178
    40
  0
DIMSTYLE
  2
TECHNICAL_OSAKA$3
 70
     0
  3

  4
"
  5
OPEN30
  6

  7

 40
1.0
 41
2.5
 42
1.0
 43
10.0
 44
1.0
 45
0.0
 46
0.0
 47
0.1
 48
0.1
140
2.7999999999999989
141
0.0
142
0.0
143
0.0393701
144
1.0
145
0.0
146
0.71
147
1.5
 71
     0
 72
     0
 73
     0
 74
     1
 75
     0
 76
     0
 77
     3
 78
     8
170
     0
171
     2
172
     0
173
     0
174
     0
175
     0
176
   256
177
   256
178
    40
  0
DIMSTYLE
  2
TECHNICAL_OSAKA$4
 70
     0
  3

  4
"
  5
OPEN30
  6

  7

 40
1.0
 41
2.5
 42
1.0
 43
10.0
 44
1.0
 45
0.0
 46
0.0
 47
0.1
 48
0.1
140
2.7999999999999989
141
0.0
142
0.0
143
0.0393701
144
1.0
145
0.0
146
0.71
147
1.5
 71
     0
 72
     0
 73
     0
 74
     1
 75
     0
 76
     0
 77
     3
 78
     8
170
     0
171
     2
172
     0
173
     0
174
     0
175
     0
176
   256
177
   256
178
    40
  0
DIMSTYLE
  2
TECHNICAL_OSAKA$6
 70
     0
  3

  4
"
  5
OPEN30
  6

  7

 40
1.0
 41
2.5
 42
1.0
 43
10.0
 44
1.0
 45
0.0
 46
0.0
 47
0.1
 48
0.1
140
2.7999999999999989
141
0.0
142
0.0
143
0.0393701
144
1.0
145
0.0
146
0.71
147
1.5
 71
     0
 72
     0
 73
     0
 74
     0
 75
     0
 76
     0
 77
     0
 78
     8
170
     0
171
     2
172
     1
173
     0
174
     0
175
     0
176
   256
177
   256
178
    40
  0
DIMSTYLE
  2
TECHNICAL_OSAKA$7
 70
     0
  3

  4
"
  5
OPEN30
  6

  7

 40
1.0
 41
2.5
 42
1.0
 43
10.0
 44
1.0
 45
0.0
 46
0.0
 47
0.1
 48
0.1
140
2.7999999999999989
141
0.0
142
0.0
143
0.0393701
144
1.0
145
0.0
146
0.71
147
1.5
 71
     0
 72
     0
 73
     0
 74
     0
 75
     0
 76
     0
 77
     3
 78
     8
170
     0
171
     2
172
     1
173
     0
174
     0
175
     0
176
   256
177
   256
178
    40
  0
DIMSTYLE
  2
TECHNICAL_OSAKA$SF
 70
     0
  3

  4
"
  5
OPEN30
  6
OPEN30
  7
OPEN30
 40
1.0
 41
2.5
 42
1.0
 43
10.0
 44
1.0
 45
0.0
 46
0.0
 47
0.1
 48
0.1
140
3.5
141
0.0
142
0.0
143
0.0393701
144
1.0
145
0.0
146
0.71
147
1.5
 71
     0
 72
     0
 73
     0
 74
     0
 75
     1
 76
     1
 77
     3
 78
     8
170
     0
171
     2
172
     1
173
     0
174
     0
175
     0
176
   256
177
   256
178
    40
  0
DIMSTYLE
  2
TECHNICAL_OSAKA$SH
 70
     0
  3

  4
"
  5
OPEN30
  6
GENAXEH
  7
OPEN30
 40
1.0
 41
2.5
 42
1.0
 43
10.0
 44
1.0
 45
0.0
 46
0.0
 47
0.1
 48
0.1
140
3.5
141
0.0
142
0.0
143
0.0393701
144
2.0
145
0.0
146
0.71
147
1.5
 71
     0
 72
     0
 73
     0
 74
     0
 75
     1
 76
     1
 77
     3
 78
     8
170
     0
171
     2
172
     1
173
     1
174
     0
175
     0
176
   256
177
   256
178
    40
  0
ENDTAB
  0
ENDSEC
  0
SECTION
  2
BLOCKS
  0
BLOCK
  8
0
  2
$MODEL_SPACE
 70
     0
 10
0.0
 20
0.0
 30
0.0
  3
$MODEL_SPACE
  1

  0
ENDBLK
  5
1C
  8
0
  0
BLOCK
 67
     1
  8
0
  2
$PAPER_SPACE
 70
     0
 10
0.0
 20
0.0
 30
0.0
  3
$PAPER_SPACE
  1

  0
ENDBLK
  5
19
 67
     1
  8
0
  0
BLOCK
  8
0
  2
_OPEN
 70
     0
 10
0.0
 20
0.0
 30
0.0
  3
_OPEN
  1

  0
LINE
  5
4725
  8
0
  6
BYBLOCK
 62
     0
 10
-1.0
 20
0.1666666666666666
 30
0.0
 11
0.0
 21
0.0
 31
0.0
  0
LINE
  5
4726
  8
0
  6
BYBLOCK
 62
     0
 10
-1.0
 20
-0.1666666666666666
 30
0.0
 11
0.0
 21
0.0
 31
0.0
  0
LINE
  5
4727
  8
0
  6
BYBLOCK
 62
     0
 10
0.0
 20
0.0
 30
0.0
 11
-1.0
 21
0.0
 31
0.0
  0
ENDBLK
  5
4728
  8
0
  0
BLOCK
  8
0
  2
GENAXEH
 70
     0
 10
0.0
 20
0.0
 30
0.0
  3
GENAXEH
  1

  0
LINE
  5
4760
  8
0
 10
-1.0
 20
0.0
 30
0.0
 11
1.0
 21
0.0
 31
0.0
  0
ENDBLK
  5
4761
  8
0
  0
BLOCK
  8
0
  2
_OPEN30
 70
     0
 10
0.0
 20
0.0
 30
0.0
  3
_OPEN30
  1

  0
LINE
  5
479C
  8
0
  6
BYBLOCK
 62
     0
 10
-1.0
 20
0.26794919
 30
0.0
 11
0.0
 21
0.0
 31
0.0
  0
LINE
  5
479D
  8
0
  6
BYBLOCK
 62
     0
 10
0.0
 20
0.0
 30
0.0
 11
-1.0
 21
-0.26794919
 31
0.0
  0
LINE
  5
479E
  8
0
  6
BYBLOCK
 62
     0
 10
0.0
 20
0.0
 30
0.0
 11
-1.0
 21
0.0
 31
0.0
  0
ENDBLK
  5
479F
  8
0
  0
ENDSEC
  0
SECTION
  2
ENTITIES
  0
LINE
  5
4211
  8
245
  6
CENTER2
 10
40.693102047565127
 20
0.0
 30
0.0
 11
-3.9635422894960182
 21
0.0
 31
0.0
  0
LINE
  5
4212
  8
240
  6
CONTINUOUS
 10
11.00000000000003
 20
16.0
 30
0.0
 11
-0.0000000000000284
 21
16.0
 31
0.0
  0
LINE
  5
4213
  8
240
  6
CONTINUOUS
 10
0.000000000000029
 20
-16.0
 30
0.0
 11
9.9999999999999982
 21
-16.0
 31
0.0
  0
LINE
  5
4214
  8
240
  6
CONTINUOUS
 10
16.391660408726722
 20
19.11287658835732
 30
0.0
 11
11.00000000000003
 21
16.0
 31
0.0
  0
LINE
  5
4215
  8
240
  6
CONTINUOUS
 10
25.182401776174061
 20
20.34833471779125
 30
0.0
 11
16.391660408726722
 21
19.11287658835732
 31
0.0
  0
LINE
  5
4216
  8
241
  6
CONTINUOUS
 10
11.00000000000003
 20
16.0
 30
0.0
 11
11.00000000000003
 21
15.204550410188199
 31
0.0
  0
LINE
  5
4217
  8
241
  6
CONTINUOUS
 10
10.00000000000003
 20
13.4646484186952
 30
0.0
 11
10.000000000000011
 21
-11.59999999999998
 31
0.0
  0
ARC
  5
4218
  8
241
  6
CONTINUOUS
 10
12.00000000000003
 20
13.4646484186952
 30
0.0
 40
2.0
 50
124.60706803196631
 51
180.0
1001
GENIUS_GENOBJ-N-FIL_13
1002
{
1000
OWNER
1000
GEN
1002
}
1001
GENIUS_GENODEF_13
1002
{
1000
HIER
1070
     0
1002
}
1002
{
1000
MANEDIT
1070
     0
1002
}
1002
{
1000
NOSEL
1070
     0
1002
}
1002
{
1000
BEHIND
1070
     0
1002
}
1002
{
1000
OTHER
1070
     0
1002
}
1002
{
1000
REACTOR
1002
}
  0
LINE
  5
4219
  8
241
  6
CONTINUOUS
 10
10.00000000000003
 20
4.9959983987187107
 30
0.0
 11
7.0000000000000284
 21
4.9959983987187107
 31
0.0
  0
ARC
  5
421A
  8
241
  6
CONTINUOUS
 10
22.20000000000007
 20
0.0
 30
0.0
 40
15.999999999999931
 50
161.8051276612351
 51
198.1948723387664
  0
LINE
  5
421B
  8
241
  6
CONTINUOUS
 10
7.0000000000000284
 20
-4.9959983987187107
 30
0.0
 11
10.00000000000003
 21
-4.9959983987187107
 31
0.0
  0
LINE
  5
421C
  8
240
  6
CONTINUOUS
 10
10.000000000000011
 20
-11.59999999999998
 30
0.0
 11
9.9999999999999982
 21
-16.0
 31
0.0
  0
ARC
  5
421D
  8
240
  6
CONTINUOUS
 10
14.000000000000011
 20
-11.599999999999991
 30
0.0
 40
4.0
 50
90.0
 51
179.9999999999998
1001
GENIUS_GENOBJ-N-FIL_13
1002
{
1000
OWNER
1000
GEN
1002
}
1001
GENIUS_GENODEF_13
1002
{
1000
HIER
1070
     0
1002
}
1002
{
1000
MANEDIT
1070
     0
1002
}
1002
{
1000
NOSEL
1070
     0
1002
}
1002
{
1000
BEHIND
1070
     0
1002
}
1002
{
1000
OTHER
1070
     0
1002
}
1002
{
1000
REACTOR
1002
}
  0
LINE
  5
421E
  8
240
  6
CONTINUOUS
 10
-0.000000000000029
 20
16.0
 30
0.0
 11
0.000000000000029
 21
-16.0
 31
0.0
  0
LINE
  5
421F
  8
241
  6
CONTINUOUS
 10
7.0000000000000284
 20
4.9959983987187107
 30
0.0
 11
7.0000000000000284
 21
-4.9959983987187107
 31
0.0
  0
LINE
  5
4220
  8
240
  6
CONTINUOUS
 10
35.813763687451818
 20
-2.3241475063503851
 30
0.0
 11
36.72493173945216
 21
9.3839579523333043
 31
0.0
  0
ARC
  5
4221
  8
240
  6
CONTINUOUS
 10
27.000000000000028
 20
2.4000000000000048
 30
0.0
 40
10.00000000000002
 50
270.0
 51
331.808842265576
  0
LINE
  5
4222
  8
240
  6
CONTINUOUS
 10
14.000000000000011
 20
-7.5999999999999934
 30
0.0
 11
27.000000000000028
 21
-7.5999999999999943
 31
0.0
  0
LINE
  5
4223
  8
241
  6
CONTINUOUS
 10
16.391660408726722
 20
19.11287658835732
 30
0.0
 11
16.391660408726722
 21
18.92498951695319
 31
0.0
  0
POLYLINE
  5
4224
  8
241
  6
CONTINUOUS
 10
14.089524557561935
 20
14.03687545895006
 30
0.0
 66
     1
 70
     8
  0
VERTEX
  8
241
  5
481E
 10
14.0895
 20
14.0369
 30
0.000000
  70
    32
  0
VERTEX
  8
241
  5
481F
 10
14.3093
 20
14.0962
 30
0.000000
  70
    32
  0
VERTEX
  8
241
  5
4820
 10
14.5296
 20
14.1564
 30
0.000000
  70
    32
  0
VERTEX
  8
241
  5
4821
 10
14.7502
 20
14.2174
 30
0.000000
  70
    32
  0
VERTEX
  8
241
  5
4822
 10
14.9710
 20
14.2792
 30
0.000000
  70
    32
  0
VERTEX
  8
241
  5
4823
 10
15.1918
 20
14.3417
 30
0.000000
  70
    32
  0
VERTEX
  8
241
  5
4824
 10
15.4124
 20
14.4049
 30
0.000000
  70
    32
  0
VERTEX
  8
241
  5
4825
 10
15.6328
 20
14.4688
 30
0.000000
  70
    32
  0
VERTEX
  8
241
  5
4826
 10
15.8527
 20
14.5333
 30
0.000000
  70
    32
  0
VERTEX
  8
241
  5
4827
 10
16.0720
 20
14.5983
 30
0.000000
  70
    32
  0
VERTEX
  8
241
  5
4828
 10
16.2905
 20
14.6639
 30
0.000000
  70
    32
  0
VERTEX
  8
241
  5
4829
 10
16.5081
 20
14.7299
 30
0.000000
  70
    32
  0
VERTEX
  8
241
  5
482A
 10
16.7245
 20
14.7963
 30
0.000000
  70
    32
  0
VERTEX
  8
241
  5
482B
 10
16.9398
 20
14.8631
 30
0.000000
  70
    32
  0
VERTEX
  8
241
  5
482C
 10
17.1537
 20
14.9302
 30
0.000000
  70
    32
  0
VERTEX
  8
241
  5
482D
 10
17.3660
 20
14.9976
 30
0.000000
  70
    32
  0
VERTEX
  8
241
  5
482E
 10
17.5766
 20
15.0653
 30
0.000000
  70
    32
  0
VERTEX
  8
241
  5
482F
 10
17.7854
 20
15.1331
 30
0.000000
  70
    32
  0
VERTEX
  8
241
  5
4830
 10
17.9921
 20
15.2010
 30
0.000000
  70
    32
  0
VERTEX
  8
241
  5
4831
 10
18.1968
 20
15.2690
 30
0.000000
  70
    32
  0
VERTEX
  8
241
  5
4832
 10
18.3991
 20
15.3371
 30
0.000000
  70
    32
  0
VERTEX
  8
241
  5
4833
 10
18.5990
 20
15.4051
 30
0.000000
  70
    32
  0
VERTEX
  8
241
  5
4834
 10
18.7963
 20
15.4731
 30
0.000000
  70
    32
  0
VERTEX
  8
241
  5
4835
 10
18.9909
 20
15.5409
 30
0.000000
  70
    32
  0
VERTEX
  8
241
  5
4836
 10
19.1827
 20
15.6086
 30
0.000000
  70
    32
  0
VERTEX
  8
241
  5
4837
 10
19.3714
 20
15.6761
 30
0.000000
  70
    32
  0
VERTEX
  8
241
  5
4838
 10
19.5570
 20
15.7433
 30
0.000000
  70
    32
  0
VERTEX
  8
241
  5
4839
 10
19.7394
 20
15.8103
 30
0.000000
  70
    32
  0
VERTEX
  8
241
  5
483A
 10
19.9183
 20
15.8768
 30
0.000000
  70
    32
  0
VERTEX
  8
241
  5
483B
 10
20.0938
 20
15.9430
 30
0.000000
  70
    32
  0
VERTEX
  8
241
  5
483C
 10
20.2655
 20
16.0087
 30
0.000000
  70
    32
  0
VERTEX
  8
241
  5
483D
 10
20.4336
 20
16.0739
 30
0.000000
  70
    32
  0
VERTEX
  8
241
  5
483E
 10
20.5977
 20
16.1386
 30
0.000000
  70
    32
  0
VERTEX
  8
241
  5
483F
 10
20.7578
 20
16.2027
 30
0.000000
  70
    32
  0
VERTEX
  8
241
  5
4840
 10
20.9138
 20
16.2661
 30
0.000000
  70
    32
  0
VERTEX
  8
241
  5
4841
 10
21.0655
 20
16.3289
 30
0.000000
  70
    32
  0
VERTEX
  8
241
  5
4842
 10
21.2130
 20
16.3909
 30
0.000000
  70
    32
  0
VERTEX
  8
241
  5
4843
 10
21.3559
 20
16.4522
 30
0.000000
  70
    32
  0
VERTEX
  8
241
  5
4844
 10
21.4944
 20
16.5127
 30
0.000000
  70
    32
  0
VERTEX
  8
241
  5
4845
 10
21.6281
 20
16.5723
 30
0.000000
  70
    32
  0
VERTEX
  8
241
  5
4846
 10
21.7571
 20
16.6310
 30
0.000000
  70
    32
  0
VERTEX
  8
241
  5
4847
 10
21.8813
 20
16.6888
 30
0.000000
  70
    32
  0
VERTEX
  8
241
  5
4848
 10
22.0006
 20
16.7455
 30
0.000000
  70
    32
  0
VERTEX
  8
241
  5
4849
 10
22.1149
 20
16.8013
 30
0.000000
  70
    32
  0
VERTEX
  8
241
  5
484A
 10
22.2240
 20
16.8560
 30
0.000000
  70
    32
  0
VERTEX
  8
241
  5
484B
 10
22.3280
 20
16.9096
 30
0.000000
  70
    32
  0
VERTEX
  8
241
  5
484C
 10
22.4267
 20
16.9620
 30
0.000000
  70
    32
  0
VERTEX
  8
241
  5
484D
 10
22.5202
 20
17.0133
 30
0.000000
  70
    32
  0
VERTEX
  8
241
  5
484E
 10
22.6082
 20
17.0634
 30
0.000000
  70
    32
  0
VERTEX
  8
241
  5
484F
 10
22.6908
 20
17.1122
 30
0.000000
  70
    32
  0
VERTEX
  8
241
  5
4850
 10
22.7679
 20
17.1597
 30
0.000000
  70
    32
  0
VERTEX
  8
241
  5
4851
 10
22.8394
 20
17.2059
 30
0.000000
  70
    32
  0
VERTEX
  8
241
  5
4852
 10
22.9054
 20
17.2508
 30
0.000000
  70
    32
  0
VERTEX
  8
241
  5
4853
 10
22.9656
 20
17.2943
 30
0.000000
  70
    32
  0
VERTEX
  8
241
  5
4854
 10
23.0202
 20
17.3363
 30
0.000000
  70
    32
  0
VERTEX
  8
241
  5
4855
 10
23.0690
 20
17.3769
 30
0.000000
  70
    32
  0
VERTEX
  8
241
  5
4856
 10
23.1121
 20
17.4161
 30
0.000000
  70
    32
  0
VERTEX
  8
241
  5
4857
 10
23.1493
 20
17.4537
 30
0.000000
  70
    32
  0
VERTEX
  8
241
  5
4858
 10
23.1808
 20
17.4898
 30
0.000000
  70
    32
  0
VERTEX
  8
241
  5
4859
 10
23.2063
 20
17.5244
 30
0.000000
  70
    32
  0
VERTEX
  8
241
  5
485A
 10
23.2260
 20
17.5573
 30
0.000000
  70
    32
  0
VERTEX
  8
241
  5
485B
 10
23.2398
 20
17.5887
 30
0.000000
  70
    32
  0
VERTEX
  8
241
  5
485C
 10
23.2477
 20
17.6184
 30
0.000000
  70
    32
  0
VERTEX
  8
241
  5
485D
 10
23.2497
 20
17.6465
 30
0.000000
  70
    32
  0
VERTEX
  8
241
  5
485E
 10
23.2458
 20
17.6730
 30
0.000000
  70
    32
  0
VERTEX
  8
241
  5
485F
 10
23.2360
 20
17.6977
 30
0.000000
  70
    32
  0
VERTEX
  8
241
  5
4860
 10
23.2203
 20
17.7207
 30
0.000000
  70
    32
  0
VERTEX
  8
241
  5
4861
 10
23.1987
 20
17.7420
 30
0.000000
  70
    32
  0
VERTEX
  8
241
  5
4862
 10
23.1713
 20
17.7616
 30
0.000000
  70
    32
  0
VERTEX
  8
241
  5
4863
 10
23.1380
 20
17.7795
 30
0.000000
  70
    32
  0
VERTEX
  8
241
  5
4864
 10
23.0989
 20
17.7955
 30
0.000000
  70
    32
  0
VERTEX
  8
241
  5
4865
 10
23.0539
 20
17.8098
 30
0.000000
  70
    32
  0
VERTEX
  8
241
  5
4866
 10
23.0033
 20
17.8223
 30
0.000000
  70
    32
  0
VERTEX
  8
241
  5
4867
 10
22.9468
 20
17.8331
 30
0.000000
  70
    32
  0
VERTEX
  8
241
  5
4868
 10
22.8848
 20
17.8420
 30
0.000000
  70
    32
  0
VERTEX
  8
241
  5
4869
 10
22.8170
 20
17.8491
 30
0.000000
  70
    32
  0
VERTEX
  8
241
  5
486A
 10
22.7437
 20
17.8544
 30
0.000000
  70
    32
  0
VERTEX
  8
241
  5
486B
 10
22.6648
 20
17.8579
 30
0.000000
  70
    32
  0
VERTEX
  8
241
  5
486C
 10
22.5804
 20
17.8595
 30
0.000000
  70
    32
  0
VERTEX
  8
241
  5
486D
 10
22.4907
 20
17.8594
 30
0.000000
  70
    32
  0
VERTEX
  8
241
  5
486E
 10
22.3955
 20
17.8574
 30
0.000000
  70
    32
  0
VERTEX
  8
241
  5
486F
 10
22.2951
 20
17.8536
 30
0.000000
  70
    32
  0
VERTEX
  8
241
  5
4870
 10
22.1894
 20
17.8480
 30
0.000000
  70
    32
  0
VERTEX
  8
241
  5
4871
 10
22.0786
 20
17.8406
 30
0.000000
  70
    32
  0
VERTEX
  8
241
  5
4872
 10
21.9627
 20
17.8314
 30
0.000000
  70
    32
  0
VERTEX
  8
241
  5
4873
 10
21.8419
 20
17.8204
 30
0.000000
  70
    32
  0
VERTEX
  8
241
  5
4874
 10
21.7161
 20
17.8075
 30
0.000000
  70
    32
  0
VERTEX
  8
241
  5
4875
 10
21.5855
 20
17.7930
 30
0.000000
  70
    32
  0
VERTEX
  8
241
  5
4876
 10
21.4503
 20
17.7766
 30
0.000000
  70
    32
  0
VERTEX
  8
241
  5
4877
 10
21.3104
 20
17.7585
 30
0.000000
  70
    32
  0
VERTEX
  8
241
  5
4878
 10
21.1660
 20
17.7386
 30
0.000000
  70
    32
  0
VERTEX
  8
241
  5
4879
 10
21.0171
 20
17.7170
 30
0.000000
  70
    32
  0
VERTEX
  8
241
  5
487A
 10
20.8640
 20
17.6937
 30
0.000000
  70
    32
  0
VERTEX
  8
241
  5
487B
 10
20.7067
 20
17.6686
 30
0.000000
  70
    32
  0
VERTEX
  8
241
  5
487C
 10
20.5452
 20
17.6419
 30
0.000000
  70
    32
  0
VERTEX
  8
241
  5
487D
 10
20.3798
 20
17.6135
 30
0.000000
  70
    32
  0
VERTEX
  8
241
  5
487E
 10
20.2106
 20
17.5835
 30
0.000000
  70
    32
  0
VERTEX
  8
241
  5
487F
 10
20.0376
 20
17.5519
 30
0.000000
  70
    32
  0
VERTEX
  8
241
  5
4880
 10
19.8610
 20
17.5187
 30
0.000000
  70
    32
  0
VERTEX
  8
241
  5
4881
 10
19.6810
 20
17.4838
 30
0.000000
  70
    32
  0
VERTEX
  8
241
  5
4882
 10
19.4976
 20
17.4475
 30
0.000000
  70
    32
  0
VERTEX
  8
241
  5
4883
 10
19.3109
 20
17.4096
 30
0.000000
  70
    32
  0
VERTEX
  8
241
  5
4884
 10
19.1212
 20
17.3702
 30
0.000000
  70
    32
  0
VERTEX
  8
241
  5
4885
 10
18.9285
 20
17.3293
 30
0.000000
  70
    32
  0
VERTEX
  8
241
  5
4886
 10
18.7330
 20
17.2870
 30
0.000000
  70
    32
  0
VERTEX
  8
241
  5
4887
 10
18.5349
 20
17.2433
 30
0.000000
  70
    32
  0
VERTEX
  8
241
  5
4888
 10
18.3342
 20
17.1983
 30
0.000000
  70
    32
  0
VERTEX
  8
241
  5
4889
 10
18.1311
 20
17.1518
 30
0.000000
  70
    32
  0
VERTEX
  8
241
  5
488A
 10
17.9258
 20
17.1041
 30
0.000000
  70
    32
  0
VERTEX
  8
241
  5
488B
 10
17.7183
 20
17.0550
 30
0.000000
  70
    32
  0
VERTEX
  8
241
  5
488C
 10
17.5089
 20
17.0048
 30
0.000000
  70
    32
  0
VERTEX
  8
241
  5
488D
 10
17.2978
 20
16.9533
 30
0.000000
  70
    32
  0
VERTEX
  8
241
  5
488E
 10
17.0849
 20
16.9007
 30
0.000000
  70
    32
  0
VERTEX
  8
241
  5
488F
 10
16.8706
 20
16.8469
 30
0.000000
  70
    32
  0
VERTEX
  8
241
  5
4890
 10
16.6549
 20
16.7920
 30
0.000000
  70
    32
  0
VERTEX
  8
241
  5
4891
 10
16.4381
 20
16.7361
 30
0.000000
  70
    32
  0
VERTEX
  8
241
  5
4892
 10
16.2202
 20
16.6791
 30
0.000000
  70
    32
  0
VERTEX
  8
241
  5
4893
 10
16.0014
 20
16.6212
 30
0.000000
  70
    32
  0
VERTEX
  8
241
  5
4894
 10
15.7819
 20
16.5623
 30
0.000000
  70
    32
  0
VERTEX
  8
241
  5
4895
 10
15.5618
 20
16.5026
 30
0.000000
  70
    32
  0
VERTEX
  8
241
  5
4896
 10
15.3414
 20
16.4420
 30
0.000000
  70
    32
  0
VERTEX
  8
241
  5
4897
 10
15.1207
 20
16.3806
 30
0.000000
  70
    32
  0
VERTEX
  8
241
  5
4898
 10
14.8999
 20
16.3184
 30
0.000000
  70
    32
  0
VERTEX
  8
241
  5
4899
 10
14.6791
 20
16.2555
 30
0.000000
  70
    32
  0
VERTEX
  8
241
  5
489A
 10
14.4586
 20
16.1919
 30
0.000000
  70
    32
  0
VERTEX
  8
241
  5
489B
 10
14.2384
 20
16.1277
 30
0.000000
  70
    32
  0
VERTEX
  8
241
  5
489C
 10
14.0188
 20
16.0630
 30
0.000000
  70
    32
  0
VERTEX
  8
241
  5
489D
 10
13.7999
 20
15.9977
 30
0.000000
  70
    32
  0
VERTEX
  8
241
  5
489E
 10
13.5819
 20
15.9319
 30
0.000000
  70
    32
  0
SEQEND
  8
241
  5
489F
  0
POLYLINE
  8
241
  5
48A0
  66
     1
 10
0.000000
 20
0.000000
 30
0.000000
  70
     8
  0
VERTEX
  8
241
  5
48A1
 10
25.1751
 20
20.2923
 30
0.000000
  70
    32
  0
VERTEX
  8
241
  5
48A2
 10
25.1059
 20
20.2819
 30
0.000000
  70
    32
  0
VERTEX
  8
241
  5
48A3
 10
25.0367
 20
20.2715
 30
0.000000
  70
    32
  0
VERTEX
  8
241
  5
48A4
 10
24.9675
 20
20.2610
 30
0.000000
  70
    32
  0
VERTEX
  8
241
  5
48A5
 10
24.8983
 20
20.2506
 30
0.000000
  70
    32
  0
VERTEX
  8
241
  5
48A6
 10
24.8291
 20
20.2401
 30
0.000000
  70
    32
  0
VERTEX
  8
241
  5
48A7
 10
24.7598
 20
20.2296
 30
0.000000
  70
    32
  0
VERTEX
  8
241
  5
48A8
 10
24.6906
 20
20.2192
 30
0.000000
  70
    32
  0
VERTEX
  8
241
  5
48A9
 10
24.6214
 20
20.2087
 30
0.000000
  70
    32
  0
VERTEX
  8
241
  5
48AA
 10
24.5522
 20
20.1982
 30
0.000000
  70
    32
  0
VERTEX
  8
241
  5
48AB
 10
24.4830
 20
20.1877
 30
0.000000
  70
    32
  0
VERTEX
  8
241
  5
48AC
 10
24.4138
 20
20.1773
 30
0.000000
  70
    32
  0
VERTEX
  8
241
  5
48AD
 10
24.3446
 20
20.1668
 30
0.000000
  70
    32
  0
VERTEX
  8
241
  5
48AE
 10
24.2754
 20
20.1563
 30
0.000000
  70
    32
  0
VERTEX
  8
241
  5
48AF
 10
24.2062
 20
20.1458
 30
0.000000
  70
    32
  0
VERTEX
  8
241
  5
48B0
 10
24.1370
 20
20.1353
 30
0.000000
  70
    32
  0
VERTEX
  8
241
  5
48B1
 10
24.0677
 20
20.1248
 30
0.000000
  70
    32
  0
VERTEX
  8
241
  5
48B2
 10
23.9985
 20
20.1142
 30
0.000000
  70
    32
  0
VERTEX
  8
241
  5
48B3
 10
23.9293
 20
20.1037
 30
0.000000
  70
    32
  0
VERTEX
  8
241
  5
48B4
 10
23.8601
 20
20.0932
 30
0.000000
  70
    32
  0
VERTEX
  8
241
  5
48B5
 10
23.7909
 20
20.0827
 30
0.000000
  70
    32
  0
VERTEX
  8
241
  5
48B6
 10
23.7217
 20
20.0721
 30
0.000000
  70
    32
  0
VERTEX
  8
241
  5
48B7
 10
23.6525
 20
20.0616
 30
0.000000
  70
    32
  0
VERTEX
  8
241
  5
48B8
 10
23.5833
 20
20.0511
 30
0.000000
  70
    32
  0
VERTEX
  8
241
  5
48B9
 10
23.5141
 20
20.0405
 30
0.000000
  70
    32
  0
VERTEX
  8
241
  5
48BA
 10
23.4449
 20
20.0300
 30
0.000000
  70
    32
  0
VERTEX
  8
241
  5
48BB
 10
23.3757
 20
20.0194
 30
0.000000
  70
    32
  0
VERTEX
  8
241
  5
48BC
 10
23.3065
 20
20.0088
 30
0.000000
  70
    32
  0
VERTEX
  8
241
  5
48BD
 10
23.2373
 20
19.9983
 30
0.000000
  70
    32
  0
VERTEX
  8
241
  5
48BE
 10
23.1681
 20
19.9877
 30
0.000000
  70
    32
  0
VERTEX
  8
241
  5
48BF
 10
23.0990
 20
19.9771
 30
0.000000
  70
    32
  0
VERTEX
  8
241
  5
48C0
 10
23.0298
 20
19.9665
 30
0.000000
  70
    32
  0
VERTEX
  8
241
  5
48C1
 10
22.9606
 20
19.9559
 30
0.000000
  70
    32
  0
VERTEX
  8
241
  5
48C2
 10
22.8914
 20
19.9453
 30
0.000000
  70
    32
  0
VERTEX
  8
241
  5
48C3
 10
22.8222
 20
19.9347
 30
0.000000
  70
    32
  0
VERTEX
  8
241
  5
48C4
 10
22.7530
 20
19.9241
 30
0.000000
  70
    32
  0
VERTEX
  8
241
  5
48C5
 10
22.6838
 20
19.9135
 30
0.000000
  70
    32
  0
VERTEX
  8
241
  5
48C6
 10
22.6146
 20
19.9029
 30
0.000000
  70
    32
  0
VERTEX
  8
241
  5
48C7
 10
22.5454
 20
19.8923
 30
0.000000
  70
    32
  0
VERTEX
  8
241
  5
48C8
 10
22.4763
 20
19.8816
 30
0.000000
  70
    32
  0
VERTEX
  8
241
  5
48C9
 10
22.4071
 20
19.8710
 30
0.000000
  70
    32
  0
VERTEX
  8
241
  5
48CA
 10
22.3379
 20
19.8604
 30
0.000000
  70
    32
  0
VERTEX
  8
241
  5
48CB
 10
22.2687
 20
19.8497
 30
0.000000
  70
    32
  0
VERTEX
  8
241
  5
48CC
 10
22.1995
 20
19.8391
 30
0.000000
  70
    32
  0
VERTEX
  8
241
  5
48CD
 10
22.1303
 20
19.8284
 30
0.000000
  70
    32
  0
VERTEX
  8
241
  5
48CE
 10
22.0612
 20
19.8178
 30
0.000000
  70
    32
  0
VERTEX
  8
241
  5
48CF
 10
21.9920
 20
19.8071
 30
0.000000
  70
    32
  0
VERTEX
  8
241
  5
48D0
 10
21.9228
 20
19.7964
 30
0.000000
  70
    32
  0
VERTEX
  8
241
  5
48D1
 10
21.8536
 20
19.7858
 30
0.000000
  70
    32
  0
VERTEX
  8
241
  5
48D2
 10
21.7844
 20
19.7751
 30
0.000000
  70
    32
  0
VERTEX
  8
241
  5
48D3
 10
21.7153
 20
19.7644
 30
0.000000
  70
    32
  0
VERTEX
  8
241
  5
48D4
 10
21.6461
 20
19.7537
 30
0.000000
  70
    32
  0
VERTEX
  8
241
  5
48D5
 10
21.5769
 20
19.7430
 30
0.000000
  70
    32
  0
VERTEX
  8
241
  5
48D6
 10
21.5077
 20
19.7323
 30
0.000000
  70
    32
  0
VERTEX
  8
241
  5
48D7
 10
21.4386
 20
19.7216
 30
0.000000
  70
    32
  0
VERTEX
  8
241
  5
48D8
 10
21.3694
 20
19.7109
 30
0.000000
  70
    32
  0
VERTEX
  8
241
  5
48D9
 10
21.3002
 20
19.7002
 30
0.000000
  70
    32
  0
VERTEX
  8
241
  5
48DA
 10
21.2311
 20
19.6895
 30
0.000000
  70
    32
  0
VERTEX
  8
241
  5
48DB
 10
21.1619
 20
19.6787
 30
0.000000
  70
    32
  0
VERTEX
  8
241
  5
48DC
 10
21.0927
 20
19.6680
 30
0.000000
  70
    32
  0
VERTEX
  8
241
  5
48DD
 10
21.0236
 20
19.6573
 30
0.000000
  70
    32
  0
VERTEX
  8
241
  5
48DE
 10
20.9544
 20
19.6465
 30
0.000000
  70
    32
  0
VERTEX
  8
241
  5
48DF
 10
20.8852
 20
19.6358
 30
0.000000
  70
    32
  0
VERTEX
  8
241
  5
48E0
 10
20.8161
 20
19.6250
 30
0.000000
  70
    32
  0
VERTEX
  8
241
  5
48E1
 10
20.7469
 20
19.6143
 30
0.000000
  70
    32
  0
VERTEX
  8
241
  5
48E2
 10
20.6777
 20
19.6035
 30
0.000000
  70
    32
  0
VERTEX
  8
241
  5
48E3
 10
20.6086
 20
19.5927
 30
0.000000
  70
    32
  0
VERTEX
  8
241
  5
48E4
 10
20.5394
 20
19.5820
 30
0.000000
  70
    32
  0
VERTEX
  8
241
  5
48E5
 10
20.4703
 20
19.5712
 30
0.000000
  70
    32
  0
VERTEX
  8
241
  5
48E6
 10
20.4011
 20
19.5604
 30
0.000000
  70
    32
  0
VERTEX
  8
241
  5
48E7
 10
20.3320
 20
19.5496
 30
0.000000
  70
    32
  0
VERTEX
  8
241
  5
48E8
 10
20.2628
 20
19.5388
 30
0.000000
  70
    32
  0
VERTEX
  8
241
  5
48E9
 10
20.1936
 20
19.5280
 30
0.000000
  70
    32
  0
VERTEX
  8
241
  5
48EA
 10
20.1245
 20
19.5172
 30
0.000000
  70
    32
  0
VERTEX
  8
241
  5
48EB
 10
20.0553
 20
19.5064
 30
0.000000
  70
    32
  0
VERTEX
  8
241
  5
48EC
 10
19.9862
 20
19.4956
 30
0.000000
  70
    32
  0
VERTEX
  8
241
  5
48ED
 10
19.9170
 20
19.4847
 30
0.000000
  70
    32
  0
VERTEX
  8
241
  5
48EE
 10
19.8479
 20
19.4739
 30
0.000000
  70
    32
  0
VERTEX
  8
241
  5
48EF
 10
19.7787
 20
19.4631
 30
0.000000
  70
    32
  0
VERTEX
  8
241
  5
48F0
 10
19.7096
 20
19.4522
 30
0.000000
  70
    32
  0
VERTEX
  8
241
  5
48F1
 10
19.6404
 20
19.4414
 30
0.000000
  70
    32
  0
VERTEX
  8
241
  5
48F2
 10
19.5713
 20
19.4305
 30
0.000000
  70
    32
  0
VERTEX
  8
241
  5
48F3
 10
19.5021
 20
19.4197
 30
0.000000
  70
    32
  0
VERTEX
  8
241
  5
48F4
 10
19.4330
 20
19.4088
 30
0.000000
  70
    32
  0
VERTEX
  8
241
  5
48F5
 10
19.3639
 20
19.3979
 30
0.000000
  70
    32
  0
VERTEX
  8
241
  5
48F6
 10
19.2947
 20
19.3870
 30
0.000000
  70
    32
  0
VERTEX
  8
241
  5
48F7
 10
19.2256
 20
19.3762
 30
0.000000
  70
    32
  0
VERTEX
  8
241
  5
48F8
 10
19.1564
 20
19.3653
 30
0.000000
  70
    32
  0
VERTEX
  8
241
  5
48F9
 10
19.0873
 20
19.3544
 30
0.000000
  70
    32
  0
VERTEX
  8
241
  5
48FA
 10
19.0182
 20
19.3435
 30
0.000000
  70
    32
  0
VERTEX
  8
241
  5
48FB
 10
18.9490
 20
19.3326
 30
0.000000
  70
    32
  0
VERTEX
  8
241
  5
48FC
 10
18.8799
 20
19.3217
 30
0.000000
  70
    32
  0
VERTEX
  8
241
  5
48FD
 10
18.8107
 20
19.3107
 30
0.000000
  70
    32
  0
VERTEX
  8
241
  5
48FE
 10
18.7416
 20
19.2998
 30
0.000000
  70
    32
  0
VERTEX
  8
241
  5
48FF
 10
18.6725
 20
19.2889
 30
0.000000
  70
    32
  0
VERTEX
  8
241
  5
4900
 10
18.6033
 20
19.2780
 30
0.000000
  70
    32
  0
VERTEX
  8
241
  5
4901
 10
18.5342
 20
19.2670
 30
0.000000
  70
    32
  0
VERTEX
  8
241
  5
4902
 10
18.4651
 20
19.2561
 30
0.000000
  70
    32
  0
VERTEX
  8
241
  5
4903
 10
18.3960
 20
19.2451
 30
0.000000
  70
    32
  0
VERTEX
  8
241
  5
4904
 10
18.3268
 20
19.2342
 30
0.000000
  70
    32
  0
VERTEX
  8
241
  5
4905
 10
18.2577
 20
19.2232
 30
0.000000
  70
    32
  0
VERTEX
  8
241
  5
4906
 10
18.1886
 20
19.2122
 30
0.000000
  70
    32
  0
VERTEX
  8
241
  5
4907
 10
18.1195
 20
19.2013
 30
0.000000
  70
    32
  0
VERTEX
  8
241
  5
4908
 10
18.0503
 20
19.1903
 30
0.000000
  70
    32
  0
VERTEX
  8
241
  5
4909
 10
17.9812
 20
19.1793
 30
0.000000
  70
    32
  0
VERTEX
  8
241
  5
490A
 10
17.9121
 20
19.1683
 30
0.000000
  70
    32
  0
VERTEX
  8
241
  5
490B
 10
17.8430
 20
19.1573
 30
0.000000
  70
    32
  0
VERTEX
  8
241
  5
490C
 10
17.7738
 20
19.1463
 30
0.000000
  70
    32
  0
VERTEX
  8
241
  5
490D
 10
17.7047
 20
19.1353
 30
0.000000
  70
    32
  0
VERTEX
  8
241
  5
490E
 10
17.6356
 20
19.1243
 30
0.000000
  70
    32
  0
VERTEX
  8
241
  5
490F
 10
17.5665
 20
19.1133
 30
0.000000
  70
    32
  0
VERTEX
  8
241
  5
4910
 10
17.4974
 20
19.1022
 30
0.000000
  70
    32
  0
VERTEX
  8
241
  5
4911
 10
17.4283
 20
19.0912
 30
0.000000
  70
    32
  0
VERTEX
  8
241
  5
4912
 10
17.3591
 20
19.0802
 30
0.000000
  70
    32
  0
VERTEX
  8
241
  5
4913
 10
17.2900
 20
19.0691
 30
0.000000
  70
    32
  0
VERTEX
  8
241
  5
4914
 10
17.2209
 20
19.0581
 30
0.000000
  70
    32
  0
VERTEX
  8
241
  5
4915
 10
17.1518
 20
19.0470
 30
0.000000
  70
    32
  0
VERTEX
  8
241
  5
4916
 10
17.0827
 20
19.0360
 30
0.000000
  70
    32
  0
VERTEX
  8
241
  5
4917
 10
17.0136
 20
19.0249
 30
0.000000
  70
    32
  0
VERTEX
  8
241
  5
4918
 10
16.9445
 20
19.0138
 30
0.000000
  70
    32
  0
VERTEX
  8
241
  5
4919
 10
16.8754
 20
19.0027
 30
0.000000
  70
    32
  0
VERTEX
  8
241
  5
491A
 10
16.8063
 20
18.9916
 30
0.000000
  70
    32
  0
VERTEX
  8
241
  5
491B
 10
16.7372
 20
18.9805
 30
0.000000
  70
    32
  0
VERTEX
  8
241
  5
491C
 10
16.6681
 20
18.9694
 30
0.000000
  70
    32
  0
VERTEX
  8
241
  5
491D
 10
16.5990
 20
18.9583
 30
0.000000
  70
    32
  0
VERTEX
  8
241
  5
491E
 10
16.5299
 20
18.9472
 30
0.000000
  70
    32
  0
VERTEX
  8
241
  5
491F
 10
16.4608
 20
18.9361
 30
0.000000
  70
    32
  0
VERTEX
  8
241
  5
4920
 10
16.3917
 20
18.9250
 30
0.000000
  70
    32
  0
SEQEND
  8
241
  5
4921
  0
LINE
  5
423E
  8
246
  6
PHANTOM2
 10
37.996955758473419
 20
21.130275405801981
 30
0.0
 11
37.014602866206147
 21
9.9019304674154807
 31
0.0
  0
ARC
  5
423F
  8
246
  6
PHANTOM2
 10
36.217647107732731
 20
9.9716550616135553
 30
0.0
 40
0.8
 50
274.99999999999977
 51
355.00000000000182
1001
GENIUS_GENOBJ-N-FIL_13
1002
{
1000
OWNER
1000
GEN
1002
}
1001
GENIUS_GENODEF_13
1002
{
1000
HIER
1070
     0
1002
}
1002
{
1000
MANEDIT
1070
     0
1002
}
1002
{
1000
NOSEL
1070
     0
1002
}
1002
{
1000
BEHIND
1070
     0
1002
}
1002
{
1000
OTHER
1070
     0
1002
}
1002
{
1000
REACTOR
1002
}
  0
LINE
  5
4240
  8
246
  6
PHANTOM2
 10
25.174699303140201
 20
20.287371701930638
 30
0.0
 11
24.192346410872972
 21
9.0590267635441926
 31
0.0
  0
ARC
  5
4241
  8
246
  6
PHANTOM2
 10
25.971655061613621
 20
20.2176471077325
 30
0.0
 40
0.8
 50
94.999999999999801
 51
175.0000000000019
1001
GENIUS_GENODEF_13
1002
{
1000
HIER
1070
     0
1002
}
1002
{
1000
MANEDIT
1070
     0
1002
}
1002
{
1000
NOSEL
1070
     0
1002
}
1002
{
1000
BEHIND
1070
     0
1002
}
1002
{
1000
OTHER
1070
     0
1002
}
1002
{
1000
REACTOR
1002
}
1001
GENIUS_GENOBJ-N-FIL_13
1002
{
1000
OWNER
1000
GEN
1002
}
  0
LINE
  5
4242
  8
246
  6
PHANTOM2
 10
36.287371701930873
 20
9.1746993031401392
 30
0.0
 11
25.059026763544459
 21
8.1923464108726414
 31
0.0
  0
ARC
  5
4243
  8
246
  6
PHANTOM2
 10
24.989302169346342
 20
8.9893021693460575
 30
0.0
 40
0.8
 50
175.0000000000019
 51
274.99999999999977
1001
GENIUS_GENODEF_13
1002
{
1000
HIER
1070
     0
1002
}
1002
{
1000
MANEDIT
1070
     0
1002
}
1002
{
1000
NOSEL
1070
     0
1002
}
1002
{
1000
BEHIND
1070
     0
1002
}
1002
{
1000
OTHER
1070
     0
1002
}
1002
{
1000
REACTOR
1002
}
1001
GENIUS_GENOBJ-N-FIL_13
1002
{
1000
OWNER
1000
GEN
1002
}
  0
LINE
  5
4244
  8
246
  6
PHANTOM2
 10
25.901930467415479
 20
21.014602866205919
 30
0.0
 11
37.130275405801868
 21
21.996955758473408
 31
0.0
  0
ARC
  5
4245
  8
246
  6
PHANTOM2
 10
37.20000000000001
 20
21.199999999999999
 30
0.0
 40
0.8
 50
355.00000000000182
 51
94.999999999999801
1001
GENIUS_GENODEF_13
1002
{
1000
HIER
1070
     0
1002
}
1002
{
1000
MANEDIT
1070
     0
1002
}
1002
{
1000
NOSEL
1070
     0
1002
}
1002
{
1000
BEHIND
1070
     0
1002
}
1002
{
1000
OTHER
1070
     0
1002
}
1002
{
1000
REACTOR
1002
}
1001
GENIUS_GENOBJ-N-FIL_13
1002
{
1000
OWNER
1000
GEN
1002
}
  0
CIRCLE
  5
4246
  8
246
  6
PHANTOM2
 10
31.094651084673171
 20
15.09465108467306
 30
0.0
 40
6.349999999999997
  0
LINE
  5
4247
  8
250
  6
CONTINUOUS
 10
65.756531718405995
 20
29.906671255150851
 30
0.0
 11
46.45315666962221
 21
29.906671255150851
 31
0.0
  0
LINE
  5
4248
  8
250
  6
CONTINUOUS
 10
46.45315666962221
 20
29.906671255150851
 30
0.0
 11
40.041230849602677
 21
21.46739551876469
 31
0.0
  0
LINE
  5
4249
  8
250
  6
CONTINUOUS
 10
40.041230849602677
 20
21.46739551876469
 30
0.0
 11
38.692151742630152
 21
19.691758854598788
 31
0.0
  0
LINE
  5
424A
  8
250
  6
CONTINUOUS
 10
39.80746384900047
 20
21.645005151848149
 30
0.0
 11
38.692151742630152
 21
19.691758854598788
 31
0.0
  0
LINE
  5
424B
  8
250
  6
CONTINUOUS
 10
38.692151742630152
 20
19.691758854598788
 30
0.0
 11
40.274997850204848
 21
21.28978588568123
 31
0.0
  0
TEXT
  5
424C
  8
250
  6
CONTINUOUS
 10
47.304762924750591
 20
31.462502673616161
 30
0.0
 40
2.799999999999998
  1
CN1204
  7
ACJISTS
  0
LINE
  5
424D
  8
243
  6
HIDDEN2
 10
3.049999999999998
 20
16.0
 30
0.0
 11
3.049999999999998
 21
-16.0
 31
0.0
  0
LINE
  5
424E
  8
241
  6
CONTINUOUS
 10
16.391660408726722
 20
18.92498951695319
 30
0.0
 11
10.864109433623829
 21
15.11078104434162
 31
0.0
  0
POLYLINE
  5
424F
  8
241
  6
CONTINUOUS
 10
13.581886146929483
 20
15.931882172471987
 30
0.0
 66
     1
 70
     8
  0
VERTEX
  8
241
  5
4922
 10
13.5819
 20
15.9319
 30
0.000000
  70
    32
  0
VERTEX
  8
241
  5
4923
 10
13.5318
 20
15.9182
 30
0.000000
  70
    32
  0
VERTEX
  8
241
  5
4924
 10
13.4819
 20
15.9039
 30
0.000000
  70
    32
  0
VERTEX
  8
241
  5
4925
 10
13.4323
 20
15.8890
 30
0.000000
  70
    32
  0
VERTEX
  8
241
  5
4926
 10
13.3828
 20
15.8737
 30
0.000000
  70
    32
  0
VERTEX
  8
241
  5
4927
 10
13.3337
 20
15.8578
 30
0.000000
  70
    32
  0
VERTEX
  8
241
  5
4928
 10
13.2848
 20
15.8413
 30
0.000000
  70
    32
  0
VERTEX
  8
241
  5
4929
 10
13.2363
 20
15.8243
 30
0.000000
  70
    32
  0
VERTEX
  8
241
  5
492A
 10
13.1881
 20
15.8069
 30
0.000000
  70
    32
  0
VERTEX
  8
241
  5
492B
 10
13.1403
 20
15.7889
 30
0.000000
  70
    32
  0
VERTEX
  8
241
  5
492C
 10
13.0930
 20
15.7705
 30
0.000000
  70
    32
  0
VERTEX
  8
241
  5
492D
 10
13.0461
 20
15.7516
 30
0.000000
  70
    32
  0
VERTEX
  8
241
  5
492E
 10
12.9996
 20
15.7322
 30
0.000000
  70
    32
  0
VERTEX
  8
241
  5
492F
 10
12.9537
 20
15.7124
 30
0.000000
  70
    32
  0
VERTEX
  8
241
  5
4930
 10
12.9083
 20
15.6921
 30
0.000000
  70
    32
  0
VERTEX
  8
241
  5
4931
 10
12.8635
 20
15.6714
 30
0.000000
  70
    32
  0
VERTEX
  8
241
  5
4932
 10
12.8192
 20
15.6503
 30
0.000000
  70
    32
  0
VERTEX
  8
241
  5
4933
 10
12.7756
 20
15.6288
 30
0.000000
  70
    32
  0
VERTEX
  8
241
  5
4934
 10
12.7326
 20
15.6069
 30
0.000000
  70
    32
  0
VERTEX
  8
241
  5
4935
 10
12.6903
 20
15.5846
 30
0.000000
  70
    32
  0
VERTEX
  8
241
  5
4936
 10
12.6486
 20
15.5620
 30
0.000000
  70
    32
  0
VERTEX
  8
241
  5
4937
 10
12.6077
 20
15.5390
 30
0.000000
  70
    32
  0
VERTEX
  8
241
  5
4938
 10
12.5675
 20
15.5157
 30
0.000000
  70
    32
  0
VERTEX
  8
241
  5
4939
 10
12.5281
 20
15.4920
 30
0.000000
  70
    32
  0
VERTEX
  8
241
  5
493A
 10
12.4894
 20
15.4681
 30
0.000000
  70
    32
  0
VERTEX
  8
241
  5
493B
 10
12.4516
 20
15.4439
 30
0.000000
  70
    32
  0
VERTEX
  8
241
  5
493C
 10
12.4146
 20
15.4193
 30
0.000000
  70
    32
  0
VERTEX
  8
241
  5
493D
 10
12.3784
 20
15.3946
 30
0.000000
  70
    32
  0
VERTEX
  8
241
  5
493E
 10
12.3432
 20
15.3695
 30
0.000000
  70
    32
  0
VERTEX
  8
241
  5
493F
 10
12.3088
 20
15.3443
 30
0.000000
  70
    32
  0
VERTEX
  8
241
  5
4940
 10
12.2754
 20
15.3188
 30
0.000000
  70
    32
  0
VERTEX
  8
241
  5
4941
 10
12.2429
 20
15.2932
 30
0.000000
  70
    32
  0
VERTEX
  8
241
  5
4942
 10
12.2113
 20
15.2673
 30
0.000000
  70
    32
  0
VERTEX
  8
241
  5
4943
 10
12.1808
 20
15.2413
 30
0.000000
  70
    32
  0
VERTEX
  8
241
  5
4944
 10
12.1512
 20
15.2151
 30
0.000000
  70
    32
  0
VERTEX
  8
241
  5
4945
 10
12.1226
 20
15.1888
 30
0.000000
  70
    32
  0
VERTEX
  8
241
  5
4946
 10
12.0951
 20
15.1623
 30
0.000000
  70
    32
  0
VERTEX
  8
241
  5
4947
 10
12.0686
 20
15.1358
 30
0.000000
  70
    32
  0
VERTEX
  8
241
  5
4948
 10
12.0432
 20
15.1091
 30
0.000000
  70
    32
  0
VERTEX
  8
241
  5
4949
 10
12.0189
 20
15.0824
 30
0.000000
  70
    32
  0
VERTEX
  8
241
  5
494A
 10
11.9957
 20
15.0556
 30
0.000000
  70
    32
  0
VERTEX
  8
241
  5
494B
 10
11.9735
 20
15.0288
 30
0.000000
  70
    32
  0
VERTEX
  8
241
  5
494C
 10
11.9525
 20
15.0020
 30
0.000000
  70
    32
  0
VERTEX
  8
241
  5
494D
 10
11.9327
 20
14.9751
 30
0.000000
  70
    32
  0
VERTEX
  8
241
  5
494E
 10
11.9139
 20
14.9483
 30
0.000000
  70
    32
  0
VERTEX
  8
241
  5
494F
 10
11.8964
 20
14.9214
 30
0.000000
  70
    32
  0
VERTEX
  8
241
  5
4950
 10
11.8800
 20
14.8947
 30
0.000000
  70
    32
  0
VERTEX
  8
241
  5
4951
 10
11.8648
 20
14.8679
 30
0.000000
  70
    32
  0
VERTEX
  8
241
  5
4952
 10
11.8507
 20
14.8413
 30
0.000000
  70
    32
  0
VERTEX
  8
241
  5
4953
 10
11.8379
 20
14.8147
 30
0.000000
  70
    32
  0
VERTEX
  8
241
  5
4954
 10
11.8262
 20
14.7882
 30
0.000000
  70
    32
  0
VERTEX
  8
241
  5
4955
 10
11.8158
 20
14.7618
 30
0.000000
  70
    32
  0
VERTEX
  8
241
  5
4956
 10
11.8066
 20
14.7356
 30
0.000000
  70
    32
  0
VERTEX
  8
241
  5
4957
 10
11.7986
 20
14.7095
 30
0.000000
  70
    32
  0
VERTEX
  8
241
  5
4958
 10
11.7919
 20
14.6836
 30
0.000000
  70
    32
  0
VERTEX
  8
241
  5
4959
 10
11.7863
 20
14.6579
 30
0.000000
  70
    32
  0
VERTEX
  8
241
  5
495A
 10
11.7821
 20
14.6324
 30
0.000000
  70
    32
  0
VERTEX
  8
241
  5
495B
 10
11.7790
 20
14.6070
 30
0.000000
  70
    32
  0
VERTEX
  8
241
  5
495C
 10
11.7772
 20
14.5819
 30
0.000000
  70
    32
  0
VERTEX
  8
241
  5
495D
 10
11.7766
 20
14.5571
 30
0.000000
  70
    32
  0
VERTEX
  8
241
  5
495E
 10
11.7773
 20
14.5325
 30
0.000000
  70
    32
  0
VERTEX
  8
241
  5
495F
 10
11.7792
 20
14.5082
 30
0.000000
  70
    32
  0
VERTEX
  8
241
  5
4960
 10
11.7823
 20
14.4841
 30
0.000000
  70
    32
  0
VERTEX
  8
241
  5
4961
 10
11.7867
 20
14.4604
 30
0.000000
  70
    32
  0
VERTEX
  8
241
  5
4962
 10
11.7923
 20
14.4370
 30
0.000000
  70
    32
  0
VERTEX
  8
241
  5
4963
 10
11.7992
 20
14.4139
 30
0.000000
  70
    32
  0
VERTEX
  8
241
  5
4964
 10
11.8072
 20
14.3912
 30
0.000000
  70
    32
  0
VERTEX
  8
241
  5
4965
 10
11.8165
 20
14.3688
 30
0.000000
  70
    32
  0
VERTEX
  8
241
  5
4966
 10
11.8270
 20
14.3468
 30
0.000000
  70
    32
  0
VERTEX
  8
241
  5
4967
 10
11.8387
 20
14.3251
 30
0.000000
  70
    32
  0
VERTEX
  8
241
  5
4968
 10
11.8517
 20
14.3039
 30
0.000000
  70
    32
  0
VERTEX
  8
241
  5
4969
 10
11.8658
 20
14.2831
 30
0.000000
  70
    32
  0
VERTEX
  8
241
  5
496A
 10
11.8811
 20
14.2627
 30
0.000000
  70
    32
  0
VERTEX
  8
241
  5
496B
 10
11.8976
 20
14.2427
 30
0.000000
  70
    32
  0
VERTEX
  8
241
  5
496C
 10
11.9152
 20
14.2232
 30
0.000000
  70
    32
  0
VERTEX
  8
241
  5
496D
 10
11.9340
 20
14.2041
 30
0.000000
  70
    32
  0
VERTEX
  8
241
  5
496E
 10
11.9540
 20
14.1855
 30
0.000000
  70
    32
  0
VERTEX
  8
241
  5
496F
 10
11.9751
 20
14.1674
 30
0.000000
  70
    32
  0
VERTEX
  8
241
  5
4970
 10
11.9973
 20
14.1498
 30
0.000000
  70
    32
  0
VERTEX
  8
241
  5
4971
 10
12.0206
 20
14.1327
 30
0.000000
  70
    32
  0
VERTEX
  8
241
  5
4972
 10
12.0450
 20
14.1161
 30
0.000000
  70
    32
  0
VERTEX
  8
241
  5
4973
 10
12.0705
 20
14.1000
 30
0.000000
  70
    32
  0
VERTEX
  8
241
  5
4974
 10
12.0970
 20
14.0844
 30
0.000000
  70
    32
  0
VERTEX
  8
241
  5
4975
 10
12.1246
 20
14.0694
 30
0.000000
  70
    32
  0
VERTEX
  8
241
  5
4976
 10
12.1532
 20
14.0550
 30
0.000000
  70
    32
  0
VERTEX
  8
241
  5
4977
 10
12.1829
 20
14.0411
 30
0.000000
  70
    32
  0
VERTEX
  8
241
  5
4978
 10
12.2135
 20
14.0278
 30
0.000000
  70
    32
  0
VERTEX
  8
241
  5
4979
 10
12.2451
 20
14.0150
 30
0.000000
  70
    32
  0
VERTEX
  8
241
  5
497A
 10
12.2777
 20
14.0028
 30
0.000000
  70
    32
  0
VERTEX
  8
241
  5
497B
 10
12.3112
 20
13.9913
 30
0.000000
  70
    32
  0
VERTEX
  8
241
  5
497C
 10
12.3456
 20
13.9803
 30
0.000000
  70
    32
  0
VERTEX
  8
241
  5
497D
 10
12.3810
 20
13.9699
 30
0.000000
  70
    32
  0
VERTEX
  8
241
  5
497E
 10
12.4172
 20
13.9602
 30
0.000000
  70
    32
  0
VERTEX
  8
241
  5
497F
 10
12.4542
 20
13.9510
 30
0.000000
  70
    32
  0
VERTEX
  8
241
  5
4980
 10
12.4921
 20
13.9425
 30
0.000000
  70
    32
  0
VERTEX
  8
241
  5
4981
 10
12.5308
 20
13.9346
 30
0.000000
  70
    32
  0
VERTEX
  8
241
  5
4982
 10
12.5703
 20
13.9273
 30
0.000000
  70
    32
  0
VERTEX
  8
241
  5
4983
 10
12.6105
 20
13.9207
 30
0.000000
  70
    32
  0
VERTEX
  8
241
  5
4984
 10
12.6515
 20
13.9147
 30
0.000000
  70
    32
  0
VERTEX
  8
241
  5
4985
 10
12.6932
 20
13.9094
 30
0.000000
  70
    32
  0
VERTEX
  8
241
  5
4986
 10
12.7356
 20
13.9047
 30
0.000000
  70
    32
  0
VERTEX
  8
241
  5
4987
 10
12.7786
 20
13.9006
 30
0.000000
  70
    32
  0
VERTEX
  8
241
  5
4988
 10
12.8223
 20
13.8973
 30
0.000000
  70
    32
  0
VERTEX
  8
241
  5
4989
 10
12.8666
 20
13.8945
 30
0.000000
  70
    32
  0
VERTEX
  8
241
  5
498A
 10
12.9115
 20
13.8924
 30
0.000000
  70
    32
  0
VERTEX
  8
241
  5
498B
 10
12.9569
 20
13.8910
 30
0.000000
  70
    32
  0
VERTEX
  8
241
  5
498C
 10
13.0029
 20
13.8903
 30
0.000000
  70
    32
  0
VERTEX
  8
241
  5
498D
 10
13.0494
 20
13.8902
 30
0.000000
  70
    32
  0
VERTEX
  8
241
  5
498E
 10
13.0963
 20
13.8907
 30
0.000000
  70
    32
  0
VERTEX
  8
241
  5
498F
 10
13.1437
 20
13.8919
 30
0.000000
  70
    32
  0
VERTEX
  8
241
  5
4990
 10
13.1915
 20
13.8938
 30
0.000000
  70
    32
  0
VERTEX
  8
241
  5
4991
 10
13.2397
 20
13.8963
 30
0.000000
  70
    32
  0
VERTEX
  8
241
  5
4992
 10
13.2882
 20
13.8995
 30
0.000000
  70
    32
  0
VERTEX
  8
241
  5
4993
 10
13.3371
 20
13.9034
 30
0.000000
  70
    32
  0
VERTEX
  8
241
  5
4994
 10
13.3863
 20
13.9079
 30
0.000000
  70
    32
  0
VERTEX
  8
241
  5
4995
 10
13.4357
 20
13.9130
 30
0.000000
  70
    32
  0
VERTEX
  8
241
  5
4996
 10
13.4854
 20
13.9188
 30
0.000000
  70
    32
  0
VERTEX
  8
241
  5
4997
 10
13.5353
 20
13.9252
 30
0.000000
  70
    32
  0
VERTEX
  8
241
  5
4998
 10
13.5854
 20
13.9323
 30
0.000000
  70
    32
  0
VERTEX
  8
241
  5
4999
 10
13.6356
 20
13.9400
 30
0.000000
  70
    32
  0
VERTEX
  8
241
  5
499A
 10
13.6860
 20
13.9483
 30
0.000000
  70
    32
  0
VERTEX
  8
241
  5
499B
 10
13.7364
 20
13.9572
 30
0.000000
  70
    32
  0
VERTEX
  8
241
  5
499C
 10
13.7869
 20
13.9668
 30
0.000000
  70
    32
  0
VERTEX
  8
241
  5
499D
 10
13.8375
 20
13.9770
 30
0.000000
  70
    32
  0
VERTEX
  8
241
  5
499E
 10
13.8880
 20
13.9878
 30
0.000000
  70
    32
  0
VERTEX
  8
241
  5
499F
 10
13.9385
 20
13.9992
 30
0.000000
  70
    32
  0
VERTEX
  8
241
  5
49A0
 10
13.9890
 20
14.0112
 30
0.000000
  70
    32
  0
VERTEX
  8
241
  5
49A1
 10
14.0393
 20
14.0237
 30
0.000000
  70
    32
  0
VERTEX
  8
241
  5
49A2
 10
14.0895
 20
14.0369
 30
0.000000
  70
    32
  0
SEQEND
  8
241
  5
49A3
  0
TEXT
  5
42E8
  8
241
  6
CONTINUOUS
 10
0.0
 20
49.0
 30
0.0
 40
3.0
  1
B32-DCLNR-22038-12
  7
YOKO
  0
LINE
  5
432A
  8
241
  6
CONTINUOUS
 10
11.824823264673171
 20
-0.0603393753269401
 30
0.0
 11
19.47988000467317
 21
-6.4946308153269401
 31
0.0
  0
LINE
  5
432B
  8
241
  6
CONTINUOUS
 10
18.635808043026721
 20
10.374139013034929
 30
0.0
 11
14.40162859467317
 21
5.3366171346730598
 31
0.0
  0
LINE
  5
432C
  8
241
  6
CONTINUOUS
 10
14.40162859467317
 20
5.3366171346730598
 30
0.0
 11
11.641708464673171
 21
2.0530628546730609
 31
0.0
  0
ARC
  5
432D
  8
241
  6
CONTINUOUS
 10
12.78996697467317
 20
1.087919134673061
 30
0.0
 40
1.5
 50
139.952
 51
229.95199999999991
  0
LINE
  5
432E
  8
241
  6
CONTINUOUS
 10
24.353202354673169
 20
-3.0279617353269379
 30
0.0
 11
28.587381799906339
 21
2.009560139322526
 31
0.0
  0
LINE
  5
432F
  8
241
  6
CONTINUOUS
 10
21.593282224673171
 20
-6.3115160153269381
 30
0.0
 11
24.353202354673169
 21
-3.0279617353269379
 31
0.0
  0
ARC
  5
4330
  8
241
  6
CONTINUOUS
 10
20.445023714673169
 20
-5.3463723053269394
 30
0.0
 40
1.5
 50
229.95199999999991
 51
319.952
  0
ARC
  5
4331
  8
241
  6
CONTINUOUS
 10
31.094651084673171
 20
15.09465108467306
 30
0.0
 40
1.9999999999999989
 50
305.2215432835053
 51
154.682457346706
  0
LINE
  5
4333
  8
241
  6
CONTINUOUS
 10
29.788599714534449
 20
4.3123660025163293
 30
0.0
 11
32.248130130475907
 21
13.46079488203649
 31
0.0
  0
CIRCLE
  5
4334
  8
241
  6
CONTINUOUS
 10
20.478070214673171
 20
2.4638074646730601
 30
0.0
 40
4.25
  0
LINE
  5
4335
  8
241
  6
CONTINUOUS
 10
20.88099868467317
 20
4.7377867846730597
 30
0.0
 11
22.64885831467317
 21
3.2518508346730619
 31
0.0
  0
LINE
  5
4336
  8
241
  6
CONTINUOUS
 10
18.307282114673171
 20
1.675764094673061
 30
0.0
 11
18.71021058467317
 21
3.9497434246730601
 31
0.0
  0
LINE
  5
4337
  8
241
  6
CONTINUOUS
 10
20.075141734673171
 20
0.1898281346730606
 30
0.0
 11
18.307282114673171
 21
1.675764094673061
 31
0.0
  0
LINE
  5
4338
  8
241
  6
CONTINUOUS
 10
22.245929844673171
 20
0.9778715046730611
 30
0.0
 11
20.075141734673171
 21
0.1898281346730606
 31
0.0
  0
LINE
  5
4339
  8
241
  6
CONTINUOUS
 10
22.64885831467317
 20
3.2518508346730619
 30
0.0
 11
22.245929844673171
 21
0.9778715046730611
 31
0.0
  0
LINE
  5
433A
  8
241
  6
CONTINUOUS
 10
18.71021058467317
 20
3.9497434246730601
 30
0.0
 11
20.88099868467317
 21
4.7377867846730597
 31
0.0
  0
LINE
  5
433C
  8
241
  6
CONTINUOUS
 10
20.697689005490961
 20
11.95353327356343
 30
0.0
 11
29.28674776444814
 21
15.94992039004962
 31
0.0
  0
ARC
  5
4377
  8
241
  6
CONTINUOUS
 10
23.228842085003471
 20
6.5135641479089159
 30
0.0
 40
6.0
 50
114.95199998084961
 51
139.95199998122919
1001
GENIUS_GENOBJ-N-FIL_13
1002
{
1000
OWNER
1000
GEN
1002
}
1001
GENIUS_GENODEF_13
1002
{
1000
HIER
1070
     0
1002
}
1002
{
1000
MANEDIT
1070
     0
1002
}
1002
{
1000
NOSEL
1070
     0
1002
}
1002
{
1000
BEHIND
1070
     0
1002
}
1002
{
1000
OTHER
1070
     0
1002
}
1002
{
1000
REACTOR
1002
}
  0
ARC
  5
4379
  8
241
  6
CONTINUOUS
 10
23.994347757929599
 20
5.8701350044485388
 30
0.0
 40
6.0
 50
319.95199998122922
 51
344.95199995980488
1001
GENIUS_GENOBJ-N-FIL_13
1002
{
1000
OWNER
1000
GEN
1002
}
1001
GENIUS_GENODEF_13
1002
{
1000
HIER
1070
     0
1002
}
1002
{
1000
MANEDIT
1070
     0
1002
}
1002
{
1000
NOSEL
1070
     0
1002
}
1002
{
1000
BEHIND
1070
     0
1002
}
1002
{
1000
OTHER
1070
     0
1002
}
1002
{
1000
REACTOR
1002
}
  0
LINE
  5
437A
  8
250
  6
CONTINUOUS
 10
41.193102047565127
 20
-0.0000000000000001
 30
0.0
 11
50.0
 21
-0.0000000000000026
 31
0.0
  0
LINE
  5
437B
  8
250
  6
CONTINUOUS
 10
37.700000000000003
 20
22.0
 30
0.0
 11
50.0
 21
22.0
 31
0.0
  0
LINE
  5
437C
  8
250
  6
CONTINUOUS
 10
48.999999999999993
 20
2.2299999999999969
 30
0.0
 11
49.0
 21
19.769999999999989
 31
0.0
  0
LINE
  5
4380
  8
250
  6
CONTINUOUS
 10
-0.0000000000000289
 20
16.5
 30
0.0
 11
-0.0000000000000277
 21
36.0
 31
0.0
  0
LINE
  5
4381
  8
250
  6
CONTINUOUS
 10
38.0
 20
21.699999999999999
 30
0.0
 11
38.0
 21
36.0
 31
0.0
  0
LINE
  5
4382
  8
250
  6
CONTINUOUS
 10
2.229999999999972
 20
35.0
 30
0.0
 11
35.770000000000003
 21
35.0
 31
0.0
  0
TEXT
  5
4386
  8
250
  6
CONTINUOUS
 10
16.333333333333321
 20
36.0
 30
0.0
 40
2.7999999999999989
  1
38
  0
LINE
  5
4387
  8
250
  6
CONTINUOUS
 10
35.770000000000003
 20
35.37166666666667
 30
0.0
 11
38.0
 21
35.0
 31
0.0
  0
LINE
  5
4388
  8
250
  6
CONTINUOUS
 10
35.770000000000003
 20
34.62833333333333
 30
0.0
 11
38.0
 21
35.0
 31
0.0
  0
LINE
  5
4389
  8
250
  6
CONTINUOUS
 10
38.0
 20
35.0
 30
0.0
 11
35.770000000000003
 21
35.0
 31
0.0
  0
LINE
  5
438A
  8
250
  6
CONTINUOUS
 10
2.229999999999972
 20
34.62833333333333
 30
0.0
 11
-0.0000000000000278
 21
35.0
 31
0.0
  0
LINE
  5
438B
  8
250
  6
CONTINUOUS
 10
2.229999999999972
 20
35.37166666666667
 30
0.0
 11
-0.0000000000000278
 21
35.0
 31
0.0
  0
LINE
  5
438C
  8
250
  6
CONTINUOUS
 10
-0.0000000000000278
 20
35.0
 30
0.0
 11
2.229999999999972
 21
35.0
 31
0.0
  0
TEXT
  5
438D
  8
250
  6
CONTINUOUS
 10
47.999999999999993
 20
8.3333333333333375
 30
0.0
 40
2.7999999999999989
  1
22
 50
90.0
  0
LINE
  5
438E
  8
250
  6
CONTINUOUS
 10
48.62833333333333
 20
19.769999999999989
 30
0.0
 11
49.0
 21
22.0
 31
0.0
  0
LINE
  5
438F
  8
250
  6
CONTINUOUS
 10
49.37166666666667
 20
19.769999999999989
 30
0.0
 11
49.0
 21
22.0
 31
0.0
  0
LINE
  5
4390
  8
250
  6
CONTINUOUS
 10
49.0
 20
22.0
 30
0.0
 11
49.0
 21
19.769999999999989
 31
0.0
  0
LINE
  5
4391
  8
250
  6
CONTINUOUS
 10
49.371666666666663
 20
2.2299999999999969
 30
0.0
 11
48.999999999999993
 21
-0.0000000000000024
 31
0.0
  0
LINE
  5
4392
  8
250
  6
CONTINUOUS
 10
48.628333333333323
 20
2.2299999999999969
 30
0.0
 11
48.999999999999993
 21
-0.0000000000000024
 31
0.0
  0
LINE
  5
4393
  8
250
  6
CONTINUOUS
 10
48.999999999999993
 20
-0.0000000000000024
 30
0.0
 11
48.999999999999993
 21
2.2299999999999969
 31
0.0
  0
VIEWPORT
  5
22
 67
     1
  8
0
 10
261.51769911504419
 20
148.5
 30
0.0
 40
523.0353982300885
 41
297.0
 68
     1
 69
     1
1001
ACAD
1000
MVIEW
1002
{
1070
    16
1010
0.0
1020
0.0
1030
0.0
1010
0.0
1020
0.0
1030
1.0
1040
0.0
1040
297.0
1040
261.51769911504419
1040
148.5
1040
50.0
1040
0.0
1040
0.0
1070
     0
1070
   100
1070
     1
1070
     1
1070
     0
1070
     0
1070
     0
1070
     0
1040
0.0
1040
0.0
1040
0.0
1040
1.0
1040
1.0
1040
10.0
1040
10.0
1070
     0
1002
{
1002
}
1002
}
1001
GENIUS_GENODEF_13
1002
{
1000
HIER
1070
     0
1002
}
1002
{
1000
MANEDIT
1070
     0
1002
}
1002
{
1000
NOSEL
1070
     0
1002
}
1002
{
1000
BEHIND
1070
     0
1002
}
1002
{
1000
OTHER
1070
     0
1002
}
1002
{
1000
REACTOR
1002
}
1001
GENIUS_GENOBJ-N-SDF_13
1002
{
1000
OWNER
1000
GEN
1002
}
1001
GENIUS_GENSCREG_15
1000
PF
1040
1.0
1000
DF
1040
1.0
1000
MIN
1011
0.0
1021
0.0
1031
0.0
1021
0.0
1031
0.0
1000
MAX
1011
523.0353982300885
1021
0.0
1031
0.0
1021
297.0
1031
0.0
1000
FLAGS
1070
     4
  0
ENDSEC
  0
EOF
